0
SECTION
2
HEADER
9
$INSUNITS
70
4
9
$ACADVER
1
AC1014
9
$HANDSEED
5
FFFF
0
ENDSEC
0
SECTION
2
TABLES
0
TABLE
2
VPORT
5
8
100
AcDbSymbolTable
0
ENDTAB
0
TABLE
2
LTYPE
5
5
100
AcDbSymbolTable
0
LTYPE
5
14
100
AcDbSymbolTableRecord
100
AcDbLinetypeTableRecord
2
BYBLOCK
70
0
0
LTYPE
5
15
100
AcDbSymbolTableRecord
100
AcDbLinetypeTableRecord
2
BYLAYER
70
0
0
ENDTAB
0
TABLE
2
LAYER
5
2
100
AcDbSymbolTable
70
2
0
LAYER
5
50
100
AcDbSymbolTableRecord
100
AcDbLayerTableRecord
2
0
70
0
6
CONTINUOUS
0
ENDTAB
0
TABLE
2
STYLE
5
3
100
AcDbSymbolTable
70
1
0
STYLE
5
11
100
AcDbSymbolTableRecord
100
AcDbTextStyleTableRecord
2
STANDARD
70
0
0
ENDTAB
0
TABLE
2
VIEW
5
6
100
AcDbSymbolTable
70
0
0
ENDTAB
0
TABLE
2
UCS
5
7
100
AcDbSymbolTable
70
0
0
ENDTAB
0
TABLE
2
APPID
5
9
100
AcDbSymbolTable
70
2
0
APPID
5
12
100
AcDbSymbolTableRecord
100
AcDbRegAppTableRecord
2
ACAD
70
0
0
ENDTAB
0
TABLE
2
DIMSTYLE
5
A
100
AcDbSymbolTable
70
1
0
ENDTAB
0
TABLE
2
BLOCK_RECORD
5
1
100
AcDbSymbolTable
70
1
0
BLOCK_RECORD
5
1F
100
AcDbSymbolTableRecord
100
AcDbBlockTableRecord
2
*MODEL_SPACE
0
BLOCK_RECORD
5
1B
100
AcDbSymbolTableRecord
100
AcDbBlockTableRecord
2
*PAPER_SPACE
0
ENDTAB
0
ENDSEC
0
SECTION
2
BLOCKS
0
BLOCK
5
20
100
AcDbEntity
100
AcDbBlockBegin
2
*MODEL_SPACE
0
ENDBLK
5
21
100
AcDbEntity
100
AcDbBlockEnd
0
BLOCK
5
1C
100
AcDbEntity
100
AcDbBlockBegin
2
*PAPER_SPACE
0
ENDBLK
5
1D
100
AcDbEntity
100
AcDbBlockEnd
0
ENDSEC
0
SECTION
2
ENTITIES
0
LINE
5
100
100
AcDbEntity
8
0
100
AcDbLine
10
0
20
0
30
0
11
-400
21
-2.4651903288156619e-30
31
0
0
LINE
5
101
100
AcDbEntity
8
0
100
AcDbLine
10
-400
20
-2.4651903288156619e-30
30
0
11
-400
21
19.999999999999996
31
0
0
LINE
5
102
100
AcDbEntity
8
0
100
AcDbLine
10
-400
20
19.999999999999996
30
0
11
0
21
20
31
0
0
LINE
5
103
100
AcDbEntity
8
0
100
AcDbLine
10
16.422291236000341
20
8.2111456180001703
30
0
11
0
21
0
31
0
0
LINE
5
104
100
AcDbEntity
8
0
100
AcDbLine
10
0
20
20
30
0
11
16.422291236000341
21
11.78885438199983
31
0
0
ARC
5
105
100
AcDbEntity
8
0
100
AcDbCircle
10
15.527864045000424
20
10
30
0
40
1.9999999999999987
210
-0
220
0
230
1
100
AcDbArc
50
-63.43494882292196
51
63.434948822921967
0
CIRCLE
5
106
100
AcDbEntity
8
0
100
AcDbCircle
10
-6.6812299491535709
20
9.9345727074727748
30
0
40
1.0000000000000007
210
0
220
0
230
1
0
CIRCLE
5
107
100
AcDbEntity
8
0
100
AcDbCircle
10
-21.681229949153572
20
9.9345727074727748
30
0
40
1.0000000000000007
210
0
220
0
230
1
0
CIRCLE
5
108
100
AcDbEntity
8
0
100
AcDbCircle
10
-36.681229949153575
20
9.9345727074727748
30
0
40
1.0000000000000007
210
0
220
0
230
1
0
CIRCLE
5
109
100
AcDbEntity
8
0
100
AcDbCircle
10
-51.681229949153575
20
9.9345727074727748
30
0
40
1.0000000000000007
210
0
220
0
230
1
0
CIRCLE
5
110
100
AcDbEntity
8
0
100
AcDbCircle
10
-111.68122994915358
20
9.9345727074727748
30
0
40
1.0000000000000007
210
0
220
0
230
1
0
CIRCLE
5
111
100
AcDbEntity
8
0
100
AcDbCircle
10
-96.681229949153575
20
9.9345727074727748
30
0
40
1.0000000000000007
210
0
220
0
230
1
0
CIRCLE
5
112
100
AcDbEntity
8
0
100
AcDbCircle
10
-81.681229949153575
20
9.9345727074727748
30
0
40
1.0000000000000007
210
0
220
0
230
1
0
CIRCLE
5
113
100
AcDbEntity
8
0
100
AcDbCircle
10
-66.681229949153575
20
9.9345727074727748
30
0
40
1.0000000000000007
210
0
220
0
230
1
0
CIRCLE
5
114
100
AcDbEntity
8
0
100
AcDbCircle
10
-126.68122994915358
20
9.9345727074727748
30
0
40
1.0000000000000007
210
0
220
0
230
1
0
CIRCLE
5
115
100
AcDbEntity
8
0
100
AcDbCircle
10
-141.68122994915359
20
9.9345727074727748
30
0
40
1.0000000000000007
210
0
220
0
230
1
0
CIRCLE
5
116
100
AcDbEntity
8
0
100
AcDbCircle
10
-231.68122994915359
20
9.9345727074727748
30
0
40
1.0000000000000007
210
0
220
0
230
1
0
CIRCLE
5
117
100
AcDbEntity
8
0
100
AcDbCircle
10
-171.68122994915359
20
9.9345727074727748
30
0
40
1.0000000000000007
210
0
220
0
230
1
0
CIRCLE
5
118
100
AcDbEntity
8
0
100
AcDbCircle
10
-186.68122994915359
20
9.9345727074727748
30
0
40
1.0000000000000007
210
0
220
0
230
1
0
CIRCLE
5
119
100
AcDbEntity
8
0
100
AcDbCircle
10
-156.68122994915359
20
9.9345727074727748
30
0
40
1.0000000000000007
210
0
220
0
230
1
0
CIRCLE
5
120
100
AcDbEntity
8
0
100
AcDbCircle
10
-201.68122994915359
20
9.9345727074727748
30
0
40
1.0000000000000007
210
0
220
0
230
1
0
CIRCLE
5
121
100
AcDbEntity
8
0
100
AcDbCircle
10
-216.68122994915359
20
9.9345727074727748
30
0
40
1.0000000000000007
210
0
220
0
230
1
0
CIRCLE
5
122
100
AcDbEntity
8
0
100
AcDbCircle
10
-271.68122994915359
20
9.9345727074727748
30
0
40
1.0000000000000007
210
0
220
0
230
1
0
CIRCLE
5
123
100
AcDbEntity
8
0
100
AcDbCircle
10
-331.68122994915359
20
9.9345727074727748
30
0
40
1.0000000000000007
210
0
220
0
230
1
0
CIRCLE
5
124
100
AcDbEntity
8
0
100
AcDbCircle
10
-301.68122994915359
20
9.9345727074727748
30
0
40
1.0000000000000007
210
0
220
0
230
1
0
CIRCLE
5
125
100
AcDbEntity
8
0
100
AcDbCircle
10
-316.68122994915359
20
9.9345727074727748
30
0
40
1.0000000000000007
210
0
220
0
230
1
0
CIRCLE
5
126
100
AcDbEntity
8
0
100
AcDbCircle
10
-256.68122994915359
20
9.9345727074727748
30
0
40
1.0000000000000007
210
0
220
0
230
1
0
CIRCLE
5
127
100
AcDbEntity
8
0
100
AcDbCircle
10
-286.68122994915359
20
9.9345727074727748
30
0
40
1.0000000000000007
210
0
220
0
230
1
0
ENDSEC
0
SECTION
2
OBJECTS
0
DICTIONARY
5
C
100
AcDbDictionary
3
ACAD_GROUP
350
D
3
ACAD_MLINESTYLE
350
17
0
DICTIONARY
5
D
100
AcDbDictionary
0
DICTIONARY
5
1A
330
C
100
AcDbDictionary
0
DICTIONARY
5
17
100
AcDbDictionary
0
ENDSEC
0
EOF
