 0
SECTION
 2
ENTITIES
  0
POLYLINE
 8
Layer0
 66
     1
70
    8
 10
0.0
 20
 0.0
 30
0.0
  0
VERTEX
  8
MY3DLAYER
10
6026.197697814482
20
-108.13731185044155
30
2.9627836850565357e-10
 70
     32
  0
VERTEX
  8
MY3DLAYER
10
6017.917937676545
20
-93.3403122008219
30
2.685573929905871e-10
 70
     32
  0
VERTEX
  8
MY3DLAYER
10
6015.30002162095
20
-94.80541135305896
30
2.713110902607951e-10
 70
     32
  0
VERTEX
  8
MY3DLAYER
10
6007.043398385742
20
-80.05204363769916
30
2.4358165484628103e-10
 70
     32
  0
VERTEX
  8
MY3DLAYER
10
6009.661314441337
20
-78.58694448546207
30
2.40827957576073e-10
 70
     32
  0
VERTEX
  8
MY3DLAYER
10
6001.433993189175
20
-63.885935091214215
30
2.1309570219507634e-10
 70
     32
  0
VERTEX
  8
MY3DLAYER
10
6001.4339931891745
20
-65.1383751029851
30
2.15438389350453e-10
 70
     32
  0
VERTEX
  8
MY3DLAYER
10
5998.4339931891745
20
-65.13837510298511
30
2.15438389350453e-10
 70
     32
  0
VERTEX
  8
MY3DLAYER
10
5998.4339931891745
20
-50.80539618716605
30
1.8846540994488237e-10
 70
     32
  0
VERTEX
  8
MY3DLAYER
10
6001.4339931891745
20
-50.80539618716603
30
1.8846540994488237e-10
 70
     32
  0
VERTEX
  8
MY3DLAYER
10
6001.433993189174
20
-36.47241727134685
30
1.6141347147780036e-10
 70
     32
  0
VERTEX
  8
MY3DLAYER
10
5998.433993189174
20
-36.4724172713469
30
1.6141347147780036e-10
 70
     32
  0
VERTEX
  8
MY3DLAYER
10
5998.433993189174
20
-22.139438355527773
30
1.3457585046339204e-10
 70
     32
  0
VERTEX
  8
MY3DLAYER
10
5989.2585609672315
20
-22.13943835552782
30
1.3464352965897318e-10
 70
     32
  0
VERTEX
  8
MY3DLAYER
10
5989.2585609672315
20
-19.139438355527506
30
1.2901628654304885e-10
 70
     32
  0
VERTEX
  8
MY3DLAYER
10
6001.433993189174
20
-19.13943835552737
30
1.2901628654304885e-10
 70
     32
  0
VERTEX
  8
MY3DLAYER
10
6001.433993189174
20
-7.806459439708603
30
1.0762543078968178e-10
 70
     32
  0
VERTEX
  8
MY3DLAYER
10
5998.433993189174
20
-7.806459439708648
30
1.0762543078968178e-10
 70
     32
  0
VERTEX
  8
MY3DLAYER
10
5998.433993189174
20
6.526519476110476
30
8.065245138411114e-11
 70
     32
  0
VERTEX
  8
MY3DLAYER
10
6001.433993189174
20
6.526519476110521
30
8.065245138411114e-11
 70
     32
  0
VERTEX
  8
MY3DLAYER
10
6001.433993189174
20
20.859498391929645
30
5.3747151174121653e-11
 70
     32
  0
VERTEX
  8
MY3DLAYER
10
5998.433993189174
20
20.8594983919296
30
5.3747151174121653e-11
 70
     32
  0
VERTEX
  8
MY3DLAYER
10
5998.433993189173
20
35.192477307748725
30
2.6808011366341586e-11
 70
     32
  0
VERTEX
  8
MY3DLAYER
10
6001.433993189173
20
35.19247730774877
30
2.6808011366341586e-11
 70
     32
  0
VERTEX
  8
MY3DLAYER
10
6001.433993189174
20
49.525456223567986
30
4.229949723821846e-15
 70
     32
  0
VERTEX
  8
MY3DLAYER
10
5891.855103191688
20
49.525456223566785
30
-1.8329782136561334e-14
 70
     32
  0
VERTEX
  8
MY3DLAYER
10
5891.8551031916895
20
-164.43731171453112
30
4.021289828903818e-10
 70
     32
  0
VERTEX
  8
MY3DLAYER
10
6130.589525184602
20
-164.43731171452868
30
4.0215154262224214e-10
 70
     32
  0
VERTEX
  8
MY3DLAYER
10
6130.5895251845905
20
-140.80989809652434
30
3.7376383350211465e-10
 70
     32
  0
VERTEX
  8
MY3DLAYER
10
6130.589525184601
20
-123.90328145709015
30
3.723538502608407e-10
 70
     32
  0
VERTEX
  8
MY3DLAYER
10
6130.589525184601
20
-111.13731185044045
30
3.0197329081715903e-10
 70
     32
  0
VERTEX
  8
MY3DLAYER
10
6119.221219375415
20
-111.13731185044072
30
3.0222144786762326e-10
 70
     32
  0
VERTEX
  8
MY3DLAYER
10
6119.221219375415
20
-108.13731185044074
30
2.9654908528797816e-10
 70
     32
  0
VERTEX
  8
MY3DLAYER
10
6107.852913566228
20
-108.13731185044101
30
2.967972423384424e-10
 70
     32
  0
VERTEX
  8
MY3DLAYER
10
6107.852913566228
20
-111.137311850441
30
3.024696049180875e-10
 70
     32
  0
VERTEX
  8
MY3DLAYER
10
6096.484607757041
20
-111.1373118504413
30
3.027177619685517e-10
 70
     32
  0
VERTEX
  8
MY3DLAYER
10
6096.484607757041
20
-108.1373118504413
30
2.970453993889066e-10
 70
     32
  0
VERTEX
  8
MY3DLAYER
10
6085.1163019478545
20
-108.13731185044158
30
2.972935564393708e-10
 70
     32
  0
VERTEX
  8
MY3DLAYER
10
6085.1163019478545
20
-111.13731185044156
30
3.029659190190159e-10
 70
     32
  0
VERTEX
  8
MY3DLAYER
10
6073.747996138667
20
-111.13731185044183
30
3.032140760694801e-10
 70
     32
  0
VERTEX
  8
MY3DLAYER
10
6073.747996138667
20
-108.13731185044185
30
2.9754171348983505e-10
 70
     32
  0
VERTEX
  8
MY3DLAYER
10
6062.379690329481
20
-108.13731185044213
30
2.9778987054029923e-10
 70
     32
  0
VERTEX
  8
MY3DLAYER
10
6062.379690329481
20
-111.13731185044213
30
3.0346223311994434e-10
 70
     32
  0
VERTEX
  8
MY3DLAYER
10
6051.011384520293
20
-111.1373118504424
30
3.0371039017040857e-10
 70
     32
  0
VERTEX
  8
MY3DLAYER
10
6051.011384520293
20
-108.1373118504424
30
2.9803802759076347e-10
 70
     32
  0
VERTEX
  8
MY3DLAYER
10
6039.643078711107
20
-108.13731185044267
30
2.9828618464122765e-10
 70
     32
  0
VERTEX
  8
MY3DLAYER
10
6039.643078711107
20
-111.13731185044267
30
3.0395854722087276e-10
 70
     32
  0
VERTEX
  8
MY3DLAYER
10
6028.27477290192
20
-111.13731185044294
30
3.04206704271337e-10
 70
     32
  0
VERTEX
  8
MY3DLAYER
10
6028.27477290192
20
-108.13731185044294
30
2.985343416916919e-10
 70
     32
  0
VERTEX
  8
MY3DLAYER
10
6026.197697814482
20
-108.13731185044155
30
2.9627836850565357e-10
 70
     32
  0
SEQEND
  0
POLYLINE
 8
Layer0
 66
     1
70
    8
 10
0.0
 20
 0.0
 30
0.0
  0
VERTEX
  8
MY3DLAYER
10
5903.929817713189
20
-22.141129508058558
30
1.3469182158498682e-10
 70
     32
  0
VERTEX
  8
MY3DLAYER
10
5894.754385491246
20
-22.14112950805865
30
1.3468054171905662e-10
 70
     32
  0
VERTEX
  8
MY3DLAYER
10
5894.754385491246
20
-19.141129508058654
30
1.2904201873720212e-10
 70
     32
  0
VERTEX
  8
MY3DLAYER
10
5903.929817713189
20
-19.141129508058565
30
1.290532986031323e-10
 70
     32
  0
VERTEX
  8
MY3DLAYER
10
5903.929817713189
20
-22.141129508058558
30
1.3469182158498682e-10
 70
     32
  0
SEQEND
  0
POLYLINE
 8
Layer0
 66
     1
70
    8
 10
0.0
 20
 0.0
 30
0.0
  0
VERTEX
  8
MY3DLAYER
10
5928.280682157074
20
-19.141129508058317
30
1.290532986031323e-10
 70
     32
  0
VERTEX
  8
MY3DLAYER
10
5928.280682157074
20
-22.141129508058313
30
1.3469182158498682e-10
 70
     32
  0
VERTEX
  8
MY3DLAYER
10
5916.105249935132
20
-22.141129508058448
30
1.3469182158498682e-10
 70
     32
  0
VERTEX
  8
MY3DLAYER
10
5916.105249935132
20
-19.14112950805845
30
1.290532986031323e-10
 70
     32
  0
VERTEX
  8
MY3DLAYER
10
5928.280682157074
20
-19.141129508058317
30
1.290532986031323e-10
 70
     32
  0
SEQEND
  0
POLYLINE
 8
Layer0
 66
     1
70
    8
 10
0.0
 20
 0.0
 30
0.0
  0
VERTEX
  8
MY3DLAYER
10
5952.63154660096
20
-19.141129508058068
30
1.290532986031323e-10
 70
     32
  0
VERTEX
  8
MY3DLAYER
10
5952.63154660096
20
-22.141129508058064
30
1.3469182158498682e-10
 70
     32
  0
VERTEX
  8
MY3DLAYER
10
5940.456114379017
20
-22.141129508058174
30
1.3469182158498682e-10
 70
     32
  0
VERTEX
  8
MY3DLAYER
10
5940.456114379017
20
-19.14112950805818
30
1.290532986031323e-10
 70
     32
  0
VERTEX
  8
MY3DLAYER
10
5952.63154660096
20
-19.141129508058068
30
1.290532986031323e-10
 70
     32
  0
SEQEND
  0
POLYLINE
 8
Layer0
 66
     1
70
    8
 10
0.0
 20
 0.0
 30
0.0
  0
VERTEX
  8
MY3DLAYER
10
5976.982411044845
20
-19.14112950805782
30
1.290532986031323e-10
 70
     32
  0
VERTEX
  8
MY3DLAYER
10
5976.982411044845
20
-22.141129508057816
30
1.3469182158498682e-10
 70
     32
  0
VERTEX
  8
MY3DLAYER
10
5964.806978822903
20
-22.14112950805793
30
1.3469182158498682e-10
 70
     32
  0
VERTEX
  8
MY3DLAYER
10
5964.806978822903
20
-19.141129508057933
30
1.290532986031323e-10
 70
     32
  0
VERTEX
  8
MY3DLAYER
10
5976.982411044845
20
-19.14112950805782
30
1.290532986031323e-10
 70
     32
  0
SEQEND
  0
POLYLINE
 8
Layer0
 66
     1
70
    8
 10
0.0
 20
 0.0
 30
0.0
  0
VERTEX
  8
MY3DLAYER
10
5998.4339931891745
20
-79.47135401880423
30
2.4338143722602014e-10
 70
     32
  0
VERTEX
  8
MY3DLAYER
10
6001.4339931891745
20
-79.47135401880422
30
2.433927170919503e-10
 70
     32
  0
VERTEX
  8
MY3DLAYER
10
6001.4339931891745
20
-93.80433293462336
30
2.7033185689973037e-10
 70
     32
  0
VERTEX
  8
MY3DLAYER
10
5998.4339931891745
20
-93.80433293462339
30
2.7033185689973037e-10
 70
     32
  0
VERTEX
  8
MY3DLAYER
10
5998.4339931891745
20
-79.47135401880423
30
2.4338143722602014e-10
 70
     32
  0
SEQEND
  0
POLYLINE
 8
Layer0
 66
     1
70
    8
 10
0.0
 20
 0.0
 30
0.0
  0
VERTEX
  8
MY3DLAYER
10
5903.223409000876
20
-111.13731185042278
30
3.0224400759948367e-10
 70
     32
  0
VERTEX
  8
MY3DLAYER
10
5894.855103191688
20
-111.1373118504429
30
3.0222144786762326e-10
 70
     32
  0
VERTEX
  8
MY3DLAYER
10
5894.855103191688
20
-108.13731185044288
30
2.9654908528797816e-10
 70
     32
  0
VERTEX
  8
MY3DLAYER
10
5903.223409000876
20
-108.13731185044281
30
2.9654908528797816e-10
 70
     32
  0
VERTEX
  8
MY3DLAYER
10
5903.223409000876
20
-111.13731185042278
30
3.0224400759948367e-10
 70
     32
  0
SEQEND
  0
POLYLINE
 8
Layer0
 66
     1
70
    8
 10
0.0
 20
 0.0
 30
0.0
  0
VERTEX
  8
MY3DLAYER
10
5914.591714810061
20
-111.13731185042327
30
3.009806626153022e-10
 70
     32
  0
VERTEX
  8
MY3DLAYER
10
5914.591714810061
20
-108.13731185044331
30
2.9654908528797816e-10
 70
     32
  0
VERTEX
  8
MY3DLAYER
10
5925.960020619248
20
-108.1373118504432
30
2.9654908528797816e-10
 70
     32
  0
VERTEX
  8
MY3DLAYER
10
5925.960020619248
20
-111.13731185042316
30
3.0224400759948367e-10
 70
     32
  0
VERTEX
  8
MY3DLAYER
10
5914.591714810061
20
-111.13731185042327
30
3.009806626153022e-10
 70
     32
  0
SEQEND
  0
POLYLINE
 8
Layer0
 66
     1
70
    8
 10
0.0
 20
 0.0
 30
0.0
  0
VERTEX
  8
MY3DLAYER
10
5937.328326428433
20
-111.13731185042305
30
3.009806626153022e-10
 70
     32
  0
VERTEX
  8
MY3DLAYER
10
5937.328326428433
20
-108.13731185044308
30
2.9654908528797816e-10
 70
     32
  0
VERTEX
  8
MY3DLAYER
10
5948.69663223762
20
-108.13731185044294
30
2.9654908528797816e-10
 70
     32
  0
VERTEX
  8
MY3DLAYER
10
5948.69663223762
20
-111.1373118504229
30
3.0224400759948367e-10
 70
     32
  0
VERTEX
  8
MY3DLAYER
10
5937.328326428433
20
-111.13731185042305
30
3.009806626153022e-10
 70
     32
  0
SEQEND
  0
POLYLINE
 8
Layer0
 66
     1
70
    8
 10
0.0
 20
 0.0
 30
0.0
  0
VERTEX
  8
MY3DLAYER
10
5960.064938046805
20
-111.13731185042279
30
3.009806626153022e-10
 70
     32
  0
VERTEX
  8
MY3DLAYER
10
5960.064938046805
20
-108.13731185044283
30
2.9654908528797816e-10
 70
     32
  0
VERTEX
  8
MY3DLAYER
10
5971.433243855992
20
-108.13731185044271
30
2.9654908528797816e-10
 70
     32
  0
VERTEX
  8
MY3DLAYER
10
5971.433243855992
20
-111.13731185042268
30
3.0224400759948367e-10
 70
     32
  0
VERTEX
  8
MY3DLAYER
10
5960.064938046805
20
-111.13731185042279
30
3.009806626153022e-10
 70
     32
  0
SEQEND
  0
POLYLINE
 8
Layer0
 66
     1
70
    8
 10
0.0
 20
 0.0
 30
0.0
  0
VERTEX
  8
MY3DLAYER
10
5982.801549665178
20
-111.13731185042256
30
3.009806626153022e-10
 70
     32
  0
VERTEX
  8
MY3DLAYER
10
5982.801549665178
20
-108.13731185044261
30
2.9654908528797816e-10
 70
     32
  0
VERTEX
  8
MY3DLAYER
10
5994.169855474365
20
-108.1373118504425
30
2.9654908528797816e-10
 70
     32
  0
VERTEX
  8
MY3DLAYER
10
5994.169855474365
20
-111.13731185042246
30
3.0224400759948367e-10
 70
     32
  0
VERTEX
  8
MY3DLAYER
10
5982.801549665178
20
-111.13731185042256
30
3.009806626153022e-10
 70
     32
  0
SEQEND
  0
POLYLINE
 8
Layer0
 66
     1
70
    8
 10
0.0
 20
 0.0
 30
0.0
  0
VERTEX
  8
MY3DLAYER
10
6005.53816128355
20
-111.13731185042232
30
3.009806626153022e-10
 70
     32
  0
VERTEX
  8
MY3DLAYER
10
6005.53816128355
20
-108.13731185044236
30
2.9654908528797816e-10
 70
     32
  0
VERTEX
  8
MY3DLAYER
10
6016.906467092737
20
-108.13731185044225
30
2.9654908528797816e-10
 70
     32
  0
VERTEX
  8
MY3DLAYER
10
6016.906467092737
20
-111.13731185042221
30
3.0224400759948367e-10
 70
     32
  0
VERTEX
  8
MY3DLAYER
10
6005.53816128355
20
-111.13731185042232
30
3.009806626153022e-10
 70
     32
  0
SEQEND
  0
POLYLINE
 8
Layer0
 66
     1
70
    8
 10
0.0
 20
 0.0
 30
0.0
  0
VERTEX
  8
MY3DLAYER
10
6484.58460416023
20
120.36945136577728
30
1.2765600521102982e-10
 70
     32
  0
VERTEX
  8
MY3DLAYER
10
6484.5846041602435
20
128.7377571749634
30
1.2765600521102982e-10
 70
     32
  0
VERTEX
  8
MY3DLAYER
10
6364.5846041602435
20
128.73775717515647
30
1.2765600521102982e-10
 70
     32
  0
VERTEX
  8
MY3DLAYER
10
6364.58460416023
20
120.36945136597033
30
1.2583994679626896e-10
 70
     32
  0
VERTEX
  8
MY3DLAYER
10
6367.58460416023
20
120.36945136596552
30
1.2803952065265632e-10
 70
     32
  0
VERTEX
  8
MY3DLAYER
10
6367.584604160212
20
109.00114555677864
30
1.2804516058562142e-10
 70
     32
  0
VERTEX
  8
MY3DLAYER
10
6364.584604160212
20
109.00114555678346
30
1.2584558672923406e-10
 70
     32
  0
VERTEX
  8
MY3DLAYER
10
6364.5846041601935
20
97.63283974759658
30
1.2584558672923406e-10
 70
     32
  0
VERTEX
  8
MY3DLAYER
10
6367.584604160193
20
97.63283974759175
30
1.278195632670176e-10
 70
     32
  0
VERTEX
  8
MY3DLAYER
10
6367.584604160175
20
86.26453393840632
30
1.278195632670176e-10
 70
     32
  0
VERTEX
  8
MY3DLAYER
10
6364.584604160175
20
86.26453393841115
30
1.2584558672923406e-10
 70
     32
  0
VERTEX
  8
MY3DLAYER
10
6364.584604160157
20
74.89622812922426
30
1.2584558672923406e-10
 70
     32
  0
VERTEX
  8
MY3DLAYER
10
6367.584604160157
20
74.89622812921944
30
1.2759396594841376e-10
 70
     32
  0
VERTEX
  8
MY3DLAYER
10
6367.584604160138
20
63.527922320033994
30
1.2759396594841376e-10
 70
     32
  0
VERTEX
  8
MY3DLAYER
10
6364.584604160139
20
63.527922320038826
30
1.2584558672923406e-10
 70
     32
  0
VERTEX
  8
MY3DLAYER
10
6364.58460416012
20
52.15961651085194
30
1.2584558672923406e-10
 70
     32
  0
VERTEX
  8
MY3DLAYER
10
6367.58460416012
20
52.159616510847115
30
1.2736836862980993e-10
 70
     32
  0
VERTEX
  8
MY3DLAYER
10
6367.584604160102
20
40.79131070166024
30
1.2736836862980993e-10
 70
     32
  0
VERTEX
  8
MY3DLAYER
10
6364.584604160102
20
40.79131070166506
30
1.2584558672923406e-10
 70
     32
  0
VERTEX
  8
MY3DLAYER
10
6364.584604160084
20
29.423004892479625
30
1.2584558672923406e-10
 70
     32
  0
VERTEX
  8
MY3DLAYER
10
6367.5846041600835
20
29.423004892474797
30
1.271427713112061e-10
 70
     32
  0
VERTEX
  8
MY3DLAYER
10
6367.584604160065
20
18.054699083287918
30
1.271427713112061e-10
 70
     32
  0
VERTEX
  8
MY3DLAYER
10
6364.584604160065
20
18.054699083292743
30
1.2584558672923406e-10
 70
     32
  0
VERTEX
  8
MY3DLAYER
10
6364.584604160047
20
6.686393274107307
30
1.2584558672923406e-10
 70
     32
  0
VERTEX
  8
MY3DLAYER
10
6367.584604160047
20
6.686393274102479
30
1.2691717399260226e-10
 70
     32
  0
VERTEX
  8
MY3DLAYER
10
6367.584604160028
20
-4.681912535084401
30
1.2691717399260226e-10
 70
     32
  0
VERTEX
  8
MY3DLAYER
10
6364.584604160029
20
-4.681912535079574
30
1.2584558672923406e-10
 70
     32
  0
VERTEX
  8
MY3DLAYER
10
6364.584604160011
20
-16.050218344266444
30
1.2584558672923406e-10
 70
     32
  0
VERTEX
  8
MY3DLAYER
10
6367.584604160011
20
-16.050218344271272
30
1.2669157667399843e-10
 70
     32
  0
VERTEX
  8
MY3DLAYER
10
6367.5846041599925
20
-27.41852415345671
30
1.2669157667399843e-10
 70
     32
  0
VERTEX
  8
MY3DLAYER
10
6364.5846041599925
20
-27.41852415345188
30
1.2584558672923406e-10
 70
     32
  0
VERTEX
  8
MY3DLAYER
10
6364.584604159974
20
-38.78682996263876
30
1.2584558672923406e-10
 70
     32
  0
VERTEX
  8
MY3DLAYER
10
6367.584604159973
20
-38.78682996264359
30
1.264659793553946e-10
 70
     32
  0
VERTEX
  8
MY3DLAYER
10
6367.584604159955
20
-50.15513577182902
30
1.264659793553946e-10
 70
     32
  0
VERTEX
  8
MY3DLAYER
10
6364.584604159955
20
-50.1551357718242
30
1.2584558672923406e-10
 70
     32
  0
VERTEX
  8
MY3DLAYER
10
6364.584604159937
20
-61.52344158101108
30
1.2584558672923406e-10
 70
     32
  0
VERTEX
  8
MY3DLAYER
10
6367.584604159937
20
-61.52344158101591
30
1.2624038203679077e-10
 70
     32
  0
VERTEX
  8
MY3DLAYER
10
6367.584604159919
20
-72.8917473902028
30
1.2624038203679077e-10
 70
     32
  0
VERTEX
  8
MY3DLAYER
10
6364.58460415992
20
-72.89174739019796
30
1.2584558672923406e-10
 70
     32
  0
VERTEX
  8
MY3DLAYER
10
6364.584604159901
20
-84.26005319938484
30
1.2584558672923406e-10
 70
     32
  0
VERTEX
  8
MY3DLAYER
10
6367.584604159901
20
-84.26005319938967
30
1.2601478471818693e-10
 70
     32
  0
VERTEX
  8
MY3DLAYER
10
6367.5846041598825
20
-95.6283590085751
30
1.2601478471818693e-10
 70
     32
  0
VERTEX
  8
MY3DLAYER
10
6364.5846041598825
20
-95.62835900857029
30
1.2584558672923406e-10
 70
     32
  0
VERTEX
  8
MY3DLAYER
10
6364.584604159864
20
-106.99666481775716
30
1.2765600521102982e-10
 70
     32
  0
VERTEX
  8
MY3DLAYER
10
6484.584604159864
20
-106.99666481795023
30
1.2765600521102982e-10
 70
     32
  0
VERTEX
  8
MY3DLAYER
10
6484.5846041598825
20
-95.62835900876335
30
1.2765600521102982e-10
 70
     32
  0
VERTEX
  8
MY3DLAYER
10
6481.5846041598825
20
-95.62835900875852
30
1.2748680722207694e-10
 70
     32
  0
VERTEX
  8
MY3DLAYER
10
6481.584604159901
20
-84.2600531995731
30
1.2748680722207694e-10
 70
     32
  0
VERTEX
  8
MY3DLAYER
10
6484.584604159901
20
-84.26005319957792
30
1.2765600521102982e-10
 70
     32
  0
VERTEX
  8
MY3DLAYER
10
6484.584604159919
20
-72.89174739039103
30
1.2765600521102982e-10
 70
     32
  0
VERTEX
  8
MY3DLAYER
10
6481.584604159919
20
-72.89174739038621
30
1.272612099034731e-10
 70
     32
  0
VERTEX
  8
MY3DLAYER
10
6481.584604159938
20
-61.52344158119933
30
1.272612099034731e-10
 70
     32
  0
VERTEX
  8
MY3DLAYER
10
6484.584604159938
20
-61.52344158120416
30
1.2765600521102982e-10
 70
     32
  0
VERTEX
  8
MY3DLAYER
10
6484.584604159955
20
-50.155135772017275
30
1.2765600521102982e-10
 70
     32
  0
VERTEX
  8
MY3DLAYER
10
6481.584604159955
20
-50.15513577201245
30
1.2703561258486928e-10
 70
     32
  0
VERTEX
  8
MY3DLAYER
10
6481.584604159974
20
-38.786829962827014
30
1.2703561258486928e-10
 70
     32
  0
VERTEX
  8
MY3DLAYER
10
6484.584604159973
20
-38.78682996283184
30
1.2765600521102982e-10
 70
     32
  0
VERTEX
  8
MY3DLAYER
10
6484.5846041599925
20
-27.41852415364496
30
1.2765600521102982e-10
 70
     32
  0
VERTEX
  8
MY3DLAYER
10
6481.5846041599925
20
-27.41852415364013
30
1.2681001526626545e-10
 70
     32
  0
VERTEX
  8
MY3DLAYER
10
6481.584604160011
20
-16.05021834445469
30
1.2681001526626545e-10
 70
     32
  0
VERTEX
  8
MY3DLAYER
10
6484.584604160011
20
-16.05021834445952
30
1.2765600521102982e-10
 70
     32
  0
VERTEX
  8
MY3DLAYER
10
6484.584604160029
20
-4.68191253527264
30
1.2765600521102982e-10
 70
     32
  0
VERTEX
  8
MY3DLAYER
10
6481.584604160029
20
-4.681912535267812
30
1.2658441794766162e-10
 70
     32
  0
VERTEX
  8
MY3DLAYER
10
6481.584604160047
20
6.686393273919069
30
1.2658441794766162e-10
 70
     32
  0
VERTEX
  8
MY3DLAYER
10
6484.584604160047
20
6.686393273914241
30
1.2765600521102982e-10
 70
     32
  0
VERTEX
  8
MY3DLAYER
10
6484.584604160065
20
18.054699083099678
30
1.2765600521102982e-10
 70
     32
  0
VERTEX
  8
MY3DLAYER
10
6481.584604160065
20
18.054699083104506
30
1.2635882062905778e-10
 70
     32
  0
VERTEX
  8
MY3DLAYER
10
6481.584604160084
20
29.423004892291388
30
1.2635882062905778e-10
 70
     32
  0
VERTEX
  8
MY3DLAYER
10
6484.5846041600835
20
29.42300489228656
30
1.2765600521102982e-10
 70
     32
  0
VERTEX
  8
MY3DLAYER
10
6484.584604160103
20
40.79131070147199
30
1.2765600521102982e-10
 70
     32
  0
VERTEX
  8
MY3DLAYER
10
6481.584604160102
20
40.791310701476824
30
1.2613322331045395e-10
 70
     32
  0
VERTEX
  8
MY3DLAYER
10
6481.58460416012
20
52.1596165106637
30
1.2613322331045395e-10
 70
     32
  0
VERTEX
  8
MY3DLAYER
10
6484.58460416012
20
52.15961651065888
30
1.2765600521102982e-10
 70
     32
  0
VERTEX
  8
MY3DLAYER
10
6484.584604160138
20
63.52792231984576
30
1.2765600521102982e-10
 70
     32
  0
VERTEX
  8
MY3DLAYER
10
6481.584604160139
20
63.52792231985059
30
1.2590762599185012e-10
 70
     32
  0
VERTEX
  8
MY3DLAYER
10
6481.584604160157
20
74.89622812903602
30
1.2590762599185012e-10
 70
     32
  0
VERTEX
  8
MY3DLAYER
10
6484.584604160157
20
74.8962281290312
30
1.2765600521102982e-10
 70
     32
  0
VERTEX
  8
MY3DLAYER
10
6484.584604160175
20
86.26453393821808
30
1.2765600521102982e-10
 70
     32
  0
VERTEX
  8
MY3DLAYER
10
6481.584604160175
20
86.2645339382229
30
1.256820286732463e-10
 70
     32
  0
VERTEX
  8
MY3DLAYER
10
6481.5846041601935
20
97.63283974740834
30
1.256820286732463e-10
 70
     32
  0
VERTEX
  8
MY3DLAYER
10
6484.5846041601935
20
97.63283974740351
30
1.2765600521102982e-10
 70
     32
  0
VERTEX
  8
MY3DLAYER
10
6484.584604160212
20
109.00114555659039
30
1.2765600521102982e-10
 70
     32
  0
VERTEX
  8
MY3DLAYER
10
6481.584604160212
20
109.00114555659522
30
1.2545643135464246e-10
 70
     32
  0
VERTEX
  8
MY3DLAYER
10
6481.58460416023
20
120.3694513657821
30
1.2545643135464246e-10
 70
     32
  0
VERTEX
  8
MY3DLAYER
10
6484.58460416023
20
120.36945136577728
30
1.2765600521102982e-10
 70
     32
  0
SEQEND
  0
POLYLINE
 8
Layer0
 66
     1
70
    8
 10
0.0
 20
 0.0
 30
0.0
  0
VERTEX
  8
MY3DLAYER
10
6364.5846041602435
20
128.73775717515647
30
1.2765600521102982e-10
 70
     32
  0
VERTEX
  8
MY3DLAYER
10
6250.5846041602435
20
128.7377571752135
30
7.925233802552611e-11
 70
     32
  0
VERTEX
  8
MY3DLAYER
10
6250.58460416024
20
120.36945136602738
30
7.924951805904356e-11
 70
     32
  0
VERTEX
  8
MY3DLAYER
10
6250.584604160235
20
109.00114555684121
30
7.925233802552611e-11
 70
     32
  0
VERTEX
  8
MY3DLAYER
10
6250.584604160233
20
97.63283974765433
30
7.925233802552611e-11
 70
     32
  0
VERTEX
  8
MY3DLAYER
10
6250.584604160227
20
86.26453393846818
30
7.925233802552611e-11
 70
     32
  0
VERTEX
  8
MY3DLAYER
10
6250.5846041602235
20
74.8962281292813
30
7.925233802552611e-11
 70
     32
  0
VERTEX
  8
MY3DLAYER
10
6250.584604160219
20
63.527922320095854
30
7.925233802552611e-11
 70
     32
  0
VERTEX
  8
MY3DLAYER
10
6250.584604160216
20
52.159616510908975
30
7.925233802552611e-11
 70
     32
  0
VERTEX
  8
MY3DLAYER
10
6250.584604160211
20
40.791310701722814
30
7.925233802552611e-11
 70
     32
  0
VERTEX
  8
MY3DLAYER
10
6250.584604160206
20
29.423004892536657
30
7.925233802552611e-11
 70
     32
  0
VERTEX
  8
MY3DLAYER
10
6250.584604160203
20
18.054699083349774
30
7.925233802552611e-11
 70
     32
  0
VERTEX
  8
MY3DLAYER
10
6250.584604160199
20
6.686393274164338
30
7.925233802552611e-11
 70
     32
  0
VERTEX
  8
MY3DLAYER
10
6250.584604160194
20
-4.681912535022543
30
7.925233802552611e-11
 70
     32
  0
VERTEX
  8
MY3DLAYER
10
6250.58460416019
20
-16.050218344208712
30
7.925233802552611e-11
 70
     32
  0
VERTEX
  8
MY3DLAYER
10
6250.584604160185
20
-27.418524153394873
30
7.925233802552611e-11
 70
     32
  0
VERTEX
  8
MY3DLAYER
10
6250.584604160182
20
-38.786829962581756
30
7.925233802552611e-11
 70
     32
  0
VERTEX
  8
MY3DLAYER
10
6250.584604160178
20
-50.15513577176791
30
7.925233802552611e-11
 70
     32
  0
VERTEX
  8
MY3DLAYER
10
6250.5846041601735
20
-61.523441580954795
30
7.925233802552611e-11
 70
     32
  0
VERTEX
  8
MY3DLAYER
10
6250.584604160169
20
-72.89174739014022
30
7.925233802552611e-11
 70
     32
  0
VERTEX
  8
MY3DLAYER
10
6250.584604160165
20
-84.26005319932712
30
7.925233802552611e-11
 70
     32
  0
VERTEX
  8
MY3DLAYER
10
6250.584604160136
20
-85.2250107628849
30
7.925233802552611e-11
 70
     32
  0
VERTEX
  8
MY3DLAYER
10
6364.584604160136
20
-85.22501076294195
30
1.2765600521102982e-10
 70
     32
  0
VERTEX
  8
MY3DLAYER
10
6364.584604159901
20
-84.26005319938484
30
1.2584558672923406e-10
 70
     32
  0
VERTEX
  8
MY3DLAYER
10
6364.58460415992
20
-72.89174739019796
30
1.2584558672923406e-10
 70
     32
  0
VERTEX
  8
MY3DLAYER
10
6364.584604159937
20
-61.52344158101108
30
1.2584558672923406e-10
 70
     32
  0
VERTEX
  8
MY3DLAYER
10
6364.584604159955
20
-50.1551357718242
30
1.2584558672923406e-10
 70
     32
  0
VERTEX
  8
MY3DLAYER
10
6364.584604159974
20
-38.78682996263876
30
1.2584558672923406e-10
 70
     32
  0
VERTEX
  8
MY3DLAYER
10
6364.5846041599925
20
-27.41852415345188
30
1.2584558672923406e-10
 70
     32
  0
VERTEX
  8
MY3DLAYER
10
6364.584604160011
20
-16.050218344266444
30
1.2584558672923406e-10
 70
     32
  0
VERTEX
  8
MY3DLAYER
10
6364.584604160029
20
-4.681912535079574
30
1.2584558672923406e-10
 70
     32
  0
VERTEX
  8
MY3DLAYER
10
6364.584604160047
20
6.686393274107307
30
1.2584558672923406e-10
 70
     32
  0
VERTEX
  8
MY3DLAYER
10
6364.584604160065
20
18.054699083292743
30
1.2584558672923406e-10
 70
     32
  0
VERTEX
  8
MY3DLAYER
10
6364.584604160084
20
29.423004892479625
30
1.2584558672923406e-10
 70
     32
  0
VERTEX
  8
MY3DLAYER
10
6364.584604160102
20
40.79131070166506
30
1.2584558672923406e-10
 70
     32
  0
VERTEX
  8
MY3DLAYER
10
6364.58460416012
20
52.15961651085194
30
1.2584558672923406e-10
 70
     32
  0
VERTEX
  8
MY3DLAYER
10
6364.584604160139
20
63.527922320038826
30
1.2584558672923406e-10
 70
     32
  0
VERTEX
  8
MY3DLAYER
10
6364.584604160157
20
74.89622812922426
30
1.2584558672923406e-10
 70
     32
  0
VERTEX
  8
MY3DLAYER
10
6364.584604160175
20
86.26453393841115
30
1.2584558672923406e-10
 70
     32
  0
VERTEX
  8
MY3DLAYER
10
6364.5846041601935
20
97.63283974759658
30
1.2584558672923406e-10
 70
     32
  0
VERTEX
  8
MY3DLAYER
10
6364.584604160212
20
109.00114555678346
30
1.2584558672923406e-10
 70
     32
  0
VERTEX
  8
MY3DLAYER
10
6364.58460416023
20
120.36945136597033
30
1.2583994679626896e-10
 70
     32
  0
VERTEX
  8
MY3DLAYER
10
6364.5846041602435
20
128.73775717515647
30
1.2765600521102982e-10
 70
     32
  0
SEQEND
  0
POLYLINE
 8
Layer0
 66
     1
70
    8
 10
0.0
 20
 0.0
 30
0.0
  0
VERTEX
  8
MY3DLAYER
10
6133.589525184579
20
-157.71651473596063
30
3.7516253687745845e-10
 70
     32
  0
VERTEX
  8
MY3DLAYER
10
6175.109421026914
20
-157.7165147359895
30
3.750948576818773e-10
 70
     32
  0
VERTEX
  8
MY3DLAYER
10
6175.109421026939
20
-119.71682591406312
30
3.72782485166188e-10
 70
     32
  0
VERTEX
  8
MY3DLAYER
10
6206.069629342271
20
-119.71682591408467
30
3.7272608583653706e-10
 70
     32
  0
VERTEX
  8
MY3DLAYER
10
6206.069629342243
20
-157.71651473601105
30
3.7503845835222633e-10
 70
     32
  0
VERTEX
  8
MY3DLAYER
10
6247.589525184579
20
-157.71651473603993
30
3.7495949929071497e-10
 70
     32
  0
VERTEX
  8
MY3DLAYER
10
6247.5895251845905
20
-140.80989809660505
30
3.732449596693259e-10
 70
     32
  0
VERTEX
  8
MY3DLAYER
10
6250.5895251845905
20
-140.80989809660713
30
3.732336798033957e-10
 70
     32
  0
VERTEX
  8
MY3DLAYER
10
6250.589525184602
20
-123.90328145717366
30
3.721508126740973e-10
 70
     32
  0
VERTEX
  8
MY3DLAYER
10
6247.589525184602
20
-123.90328145717159
30
3.721508126740973e-10
 70
     32
  0
VERTEX
  8
MY3DLAYER
10
6247.589525184614
20
-106.99666481773596
30
3.707859488965441e-10
 70
     32
  0
VERTEX
  8
MY3DLAYER
10
6133.589525184614
20
-106.99666481765662
30
3.7097770661735736e-10
 70
     32
  0
VERTEX
  8
MY3DLAYER
10
6133.589525184602
20
-123.90328145709225
30
3.723538502608407e-10
 70
     32
  0
VERTEX
  8
MY3DLAYER
10
6130.589525184601
20
-123.90328145709015
30
3.723538502608407e-10
 70
     32
  0
VERTEX
  8
MY3DLAYER
10
6130.5895251845905
20
-140.80989809652434
30
3.7376383350211465e-10
 70
     32
  0
VERTEX
  8
MY3DLAYER
10
6133.5895251845905
20
-140.80989809652715
30
3.737187140383939e-10
 70
     32
  0
VERTEX
  8
MY3DLAYER
10
6133.589525184579
20
-157.71651473596063
30
3.7516253687745845e-10
 70
     32
  0
SEQEND
  0
POLYLINE
 8
Layer0
 66
     1
70
    8
 10
0.0
 20
 0.0
 30
0.0
  0
VERTEX
  8
MY3DLAYER
10
6407.323295256408
20
-109.22335242513877
30
1.3484897858507262e-10
 70
     32
  0
VERTEX
  8
MY3DLAYER
10
6393.129360736764
20
-109.22335242513877
30
1.271579286310498e-10
 70
     32
  0
VERTEX
  8
MY3DLAYER
10
6393.129360736765
20
-140.18356074046886
30
1.2711280916732902e-10
 70
     32
  0
VERTEX
  8
MY3DLAYER
10
6407.323295256408
20
-140.18356074046886
30
1.3484897858507262e-10
 70
     32
  0
VERTEX
  8
MY3DLAYER
10
6407.323295256408
20
-137.18356074046886
30
1.3484897858507262e-10
 70
     32
  0
VERTEX
  8
MY3DLAYER
10
6421.51722977605
20
-137.18356074046886
30
1.4254002853909547e-10
 70
     32
  0
VERTEX
  8
MY3DLAYER
10
6421.51722977605
20
-140.1835607404689
30
1.4254002853909547e-10
 70
     32
  0
VERTEX
  8
MY3DLAYER
10
6438.711164295693
20
-140.1835607404689
30
1.5185664255572154e-10
 70
     32
  0
VERTEX
  8
MY3DLAYER
10
6438.711164295693
20
-129.86349130202552
30
1.5185664255572154e-10
 70
     32
  0
VERTEX
  8
MY3DLAYER
10
6441.7111642956925
20
-129.86349130202552
30
1.5348220661832396e-10
 70
     32
  0
VERTEX
  8
MY3DLAYER
10
6441.7111642956925
20
-119.54342186358217
30
1.5348220661832396e-10
 70
     32
  0
VERTEX
  8
MY3DLAYER
10
6438.711164295693
20
-119.54342186358217
30
1.5185664255572154e-10
 70
     32
  0
VERTEX
  8
MY3DLAYER
10
6438.711164295693
20
-109.2233524251388
30
1.5185664255572154e-10
 70
     32
  0
VERTEX
  8
MY3DLAYER
10
6421.51722977605
20
-109.2233524251388
30
1.4254002853909547e-10
 70
     32
  0
VERTEX
  8
MY3DLAYER
10
6421.51722977605
20
-112.22335242513878
30
1.4254002853909547e-10
 70
     32
  0
VERTEX
  8
MY3DLAYER
10
6407.323295256408
20
-112.22335242513878
30
1.3484897858507262e-10
 70
     32
  0
VERTEX
  8
MY3DLAYER
10
6407.323295256408
20
-109.22335242513877
30
1.3484897858507262e-10
 70
     32
  0
SEQEND
  0
POLYLINE
 8
Layer0
 66
     1
70
    8
 10
0.0
 20
 0.0
 30
0.0
  0
VERTEX
  8
MY3DLAYER
10
6153.4200696492235
20
-41.066098005120466
30
7.968167792249403e-11
 70
     32
  0
VERTEX
  8
MY3DLAYER
10
6153.4200696492235
20
-66.02630632045054
30
7.971481252866396e-11
 70
     32
  0
VERTEX
  8
MY3DLAYER
10
6167.960979432955
20
-66.02630632045046
30
7.982620120472461e-11
 70
     32
  0
VERTEX
  8
MY3DLAYER
10
6167.960979432955
20
-69.02630632045046
30
7.95343346737809e-11
 70
     32
  0
VERTEX
  8
MY3DLAYER
10
6182.501889216685
20
-69.02630632045019
30
7.959073400343186e-11
 70
     32
  0
VERTEX
  8
MY3DLAYER
10
6182.501889216685
20
-66.02630632045019
30
7.958650405370804e-11
 70
     32
  0
VERTEX
  8
MY3DLAYER
10
6197.042799000417
20
-66.0263063204497
30
7.981915128851824e-11
 70
     32
  0
VERTEX
  8
MY3DLAYER
10
6197.042799000417
20
-69.0263063204497
30
7.982197125500078e-11
 70
     32
  0
VERTEX
  8
MY3DLAYER
10
6211.583708784147
20
-69.02630632044946
30
8.017164709883673e-11
 70
     32
  0
VERTEX
  8
MY3DLAYER
10
6211.583708784147
20
-66.02630632044946
30
8.016600716587163e-11
 70
     32
  0
VERTEX
  8
MY3DLAYER
10
6226.124618567877
20
-66.02630632044917
30
8.063976153493967e-11
 70
     32
  0
VERTEX
  8
MY3DLAYER
10
6226.1246185678765
20
-41.066098005119066
30
8.06059219371491e-11
 70
     32
  0
VERTEX
  8
MY3DLAYER
10
6211.583708784146
20
-41.06609800511937
30
7.983889105389607e-11
 70
     32
  0
VERTEX
  8
MY3DLAYER
10
6211.583708784146
20
-38.06609800511938
30
7.983889105389607e-11
 70
     32
  0
VERTEX
  8
MY3DLAYER
10
6197.042799000416
20
-38.06609800511961
30
7.978249172424511e-11
 70
     32
  0
VERTEX
  8
MY3DLAYER
10
6197.042799000416
20
-41.066098005119606
30
7.978531169072766e-11
 70
     32
  0
VERTEX
  8
MY3DLAYER
10
6182.501889216685
20
-41.06609800512012
30
7.955407443915873e-11
 70
     32
  0
VERTEX
  8
MY3DLAYER
10
6182.501889216685
20
-38.066098005120104
30
7.954984448943491e-11
 70
     32
  0
VERTEX
  8
MY3DLAYER
10
6167.960979432956
20
-38.06609800512034
30
7.866367002229424e-11
 70
     32
  0
VERTEX
  8
MY3DLAYER
10
6167.960979432956
20
-41.06609800512036
30
7.866789997201806e-11
 70
     32
  0
VERTEX
  8
MY3DLAYER
10
6153.4200696492235
20
-41.066098005120466
30
7.968167792249403e-11
 70
     32
  0
SEQEND
  0
POLYLINE
 8
Layer0
 66
     1
70
    8
 10
0.0
 20
 0.0
 30
0.0
  0
VERTEX
  8
MY3DLAYER
10
6393.129360736764
20
-109.22335242513877
30
1.271579286310498e-10
 70
     32
  0
VERTEX
  8
MY3DLAYER
10
6380.887496653068
20
-109.2233524251388
30
1.2632744850193944e-10
 70
     32
  0
VERTEX
  8
MY3DLAYER
10
6380.887496653068
20
-112.22335242513878
30
1.2633308843490454e-10
 70
     32
  0
VERTEX
  8
MY3DLAYER
10
6368.645632569372
20
-112.22335242513886
30
1.258981086049715e-10
 70
     32
  0
VERTEX
  8
MY3DLAYER
10
6368.645632569372
20
-109.22335242513886
30
1.2589317366362706e-10
 70
     32
  0
VERTEX
  8
MY3DLAYER
10
6356.403768485673
20
-109.22335242513888
30
1.2594693194259566e-10
 70
     32
  0
VERTEX
  8
MY3DLAYER
10
6356.403768485673
20
-140.18356074046898
30
1.2599610244024007e-10
 70
     32
  0
VERTEX
  8
MY3DLAYER
10
6368.645632569372
20
-140.18356074046892
30
1.2594252307707164e-10
 70
     32
  0
VERTEX
  8
MY3DLAYER
10
6368.645632569372
20
-137.18356074046895
30
1.259375881357272e-10
 70
     32
  0
VERTEX
  8
MY3DLAYER
10
6380.887496653068
20
-137.18356074046892
30
1.2697745077616673e-10
 70
     32
  0
VERTEX
  8
MY3DLAYER
10
6380.887496653068
20
-140.1835607404689
30
1.2698168072589056e-10
 70
     32
  0
VERTEX
  8
MY3DLAYER
10
6393.129360736765
20
-140.18356074046886
30
1.2711280916732902e-10
 70
     32
  0
VERTEX
  8
MY3DLAYER
10
6393.129360736764
20
-109.22335242513877
30
1.271579286310498e-10
 70
     32
  0
SEQEND
  0
POLYLINE
 8
Layer0
 66
     1
70
    8
 10
0.0
 20
 0.0
 30
0.0
  0
VERTEX
  8
MY3DLAYER
10
6250.584604160139
20
-87.22501076288557
30
7.925233802552611e-11
 70
     32
  0
VERTEX
  8
MY3DLAYER
10
6265.4424966151
20
-100.65034089281933
30
2.9109828782736266e-07
 70
     32
  0
VERTEX
  8
MY3DLAYER
10
6265.442496615102
20
-97.65034089281941
30
2.5451411606314257e-07
 70
     32
  0
VERTEX
  8
MY3DLAYER
10
6277.684360698799
20
-97.6503408928256
30
3.5940107281917655e-07
 70
     32
  0
VERTEX
  8
MY3DLAYER
10
6277.684360698798
20
-100.65034089282551
30
3.959852558632626e-07
 70
     32
  0
VERTEX
  8
MY3DLAYER
10
6289.9262247824945
20
-100.6503408928317
30
5.008722126192965e-07
 70
     32
  0
VERTEX
  8
MY3DLAYER
10
6289.926224782496
20
-97.65034089283178
30
4.6428805213494237e-07
 70
     32
  0
VERTEX
  8
MY3DLAYER
10
6302.168088866193
20
-97.65034089283796
30
5.691750201708423e-07
 70
     32
  0
VERTEX
  8
MY3DLAYER
10
6302.168088866192
20
-100.65034089283786
30
6.057591919350624e-07
 70
     32
  0
VERTEX
  8
MY3DLAYER
10
6304.622793926034
20
-98.92568931376863
30
6.057591919350624e-07
 70
     32
  0
VERTEX
  8
MY3DLAYER
10
6312.78265778687
20
-110.5396636085799
30
8.17301229719125e-07
 70
     32
  0
VERTEX
  8
MY3DLAYER
10
6310.327952727028
20
-112.26431518764912
30
8.17301229719125e-07
 70
     32
  0
VERTEX
  8
MY3DLAYER
10
6318.487816587864
20
-123.87828948246033
30
1.0288432897104237e-06
 70
     32
  0
VERTEX
  8
MY3DLAYER
10
6320.942521647706
20
-122.1536379033911
30
1.0288432897104237e-06
 70
     32
  0
VERTEX
  8
MY3DLAYER
10
6330.827037087611
20
-136.2223172580444
30
1.2850964078992e-06
 70
     32
  0
VERTEX
  8
MY3DLAYER
10
6333.281742147452
20
-134.49766567897515
30
1.2850964078992e-06
 70
     32
  0
VERTEX
  8
MY3DLAYER
10
6335.006393726521
20
-136.9523707388172
30
1.3298074883039133e-06
 70
     32
  0
VERTEX
  8
MY3DLAYER
10
6350.552859105521
20
-126.0295774047122
30
1.3298074770240476e-06
 70
     32
  0
VERTEX
  8
MY3DLAYER
10
6347.103555947383
20
-121.12016728502813
30
1.2403853162146205e-06
 70
     32
  0
VERTEX
  8
MY3DLAYER
10
6347.6119937503145
20
-120.75037227832023
30
1.2402320087367968e-06
 70
     32
  0
VERTEX
  8
MY3DLAYER
10
6348.108059975827
20
-120.36413964590601
30
1.2397722505663731e-06
 70
     32
  0
VERTEX
  8
MY3DLAYER
10
6348.591223423783
20
-119.96188297536271
30
1.2390065344924926e-06
 70
     32
  0
VERTEX
  8
MY3DLAYER
10
6349.060966710657
20
-119.54403301320856
30
1.2379356793629225e-06
 70
     32
  0
VERTEX
  8
MY3DLAYER
10
6349.516786823575
20
-119.11103720364888
30
1.236560832904021e-06
 70
     32
  0
VERTEX
  8
MY3DLAYER
10
6349.95819565894
20
-118.66335920944205
30
1.2348834671382924e-06
 70
     32
  0
VERTEX
  8
MY3DLAYER
10
6350.3847205451175
20
-118.20147841539729
30
1.2329053776793941e-06
 70
     32
  0
VERTEX
  8
MY3DLAYER
10
6350.795904748575
20
-117.72588941503724
30
1.230628683379642e-06
 70
     32
  0
VERTEX
  8
MY3DLAYER
10
6351.191307962969
20
-117.23710148097634
30
1.2280558108201944e-06
 70
     32
  0
VERTEX
  8
MY3DLAYER
10
6351.570506780632
20
-116.7356380195775
30
1.225189536963045e-06
 70
     32
  0
VERTEX
  8
MY3DLAYER
10
6351.933095145975
20
-116.22203601047445
30
1.2220329316942058e-06
 70
     32
  0
VERTEX
  8
MY3DLAYER
10
6352.278684790292
20
-115.69684543156377
30
1.2185893528887658e-06
 70
     32
  0
VERTEX
  8
MY3DLAYER
10
6352.606905647537
20
-115.16062867007106
30
1.2148624985802713e-06
 70
     32
  0
VERTEX
  8
MY3DLAYER
10
6352.917406250596
20
-114.61395992033583
30
1.2108563487989166e-06
 70
     32
  0
VERTEX
  8
MY3DLAYER
10
6353.209854107643
20
-114.05742456894824
30
1.2065752269058149e-06
 70
     32
  0
VERTEX
  8
MY3DLAYER
10
6353.483936058191
20
-113.49161856790172
30
1.2020236723420118e-06
 70
     32
  0
VERTEX
  8
MY3DLAYER
10
6353.73935860842
20
-112.91714779643405
30
1.1972065929066744e-06
 70
     32
  0
VERTEX
  8
MY3DLAYER
10
6353.975848245466
20
-112.33462741223671
30
1.1921291357436247e-06
 70
     32
  0
VERTEX
  8
MY3DLAYER
10
6354.193151730304
20
-111.74468119272701
30
1.1867967486756113e-06
 70
     32
  0
VERTEX
  8
MY3DLAYER
10
6354.391036368917
20
-111.14794086709367
30
1.1812151082951639e-06
 70
     32
  0
VERTEX
  8
MY3DLAYER
10
6354.569290261479
20
-110.54504543982405
30
1.1753902362882095e-06
 70
     32
  0
VERTEX
  8
MY3DLAYER
10
6354.727722529258
20
-109.93664050644279
30
1.1693283256536402e-06
 70
     32
  0
VERTEX
  8
MY3DLAYER
10
6354.866163519011
20
-109.32337756219088
30
1.1630359007364087e-06
 70
     32
  0
VERTEX
  8
MY3DLAYER
10
6354.984464984661
20
-108.7059133043901
30
1.1565196889190554e-06
 70
     32
  0
VERTEX
  8
MY3DLAYER
10
6355.082500246033
20
-108.08490892923355
30
1.1497866678561451e-06
 70
     32
  0
VERTEX
  8
MY3DLAYER
10
6355.160164324515
20
-107.46102942376015
30
1.1428440467919908e-06
 70
     32
  0
VERTEX
  8
MY3DLAYER
10
6355.217374055467
20
-106.83494285377115
30
1.1356992609207194e-06
 70
     32
  0
VERTEX
  8
MY3DLAYER
10
6355.254068177275
20
-106.20731964844751
30
1.1283599604589022e-06
 70
     32
  0
VERTEX
  8
MY3DLAYER
10
6355.270207396956
20
-105.57883188243717
30
1.1208340046531262e-06
 70
     32
  0
VERTEX
  8
MY3DLAYER
10
6355.265774432227
20
-104.95015255618249
30
1.1131294529675982e-06
 70
     32
  0
VERTEX
  8
MY3DLAYER
10
6355.240774030019
20
-104.32195487525262
30
1.1052545548617676e-06
 70
     32
  0
VERTEX
  8
MY3DLAYER
10
6355.195232961388
20
-103.69491152945898
30
1.097217732165534e-06
 70
     32
  0
VERTEX
  8
MY3DLAYER
10
6355.129199992853
20
-103.06969397252176
30
1.0890276132713427e-06
 70
     32
  0
VERTEX
  8
MY3DLAYER
10
6355.042745834168
20
-102.44697170306084
30
1.0806929682749543e-06
 70
     32
  0
VERTEX
  8
MY3DLAYER
10
6354.935963062612
20
-101.82741154768073
30
1.0722226885306884e-06
 70
     32
  0
VERTEX
  8
MY3DLAYER
10
6354.808966023854
20
-101.21167694691277
30
1.0636258895801996e-06
 70
     32
  0
VERTEX
  8
MY3DLAYER
10
6354.661890709502
20
-100.60042724479058
30
1.054911742659481e-06
 70
     32
  0
VERTEX
  8
MY3DLAYER
10
6354.494894611486
20
-99.99431698280544
30
1.0460895906699852e-06
 70
     32
  0
VERTEX
  8
MY3DLAYER
10
6354.308156553412
20
-99.39399519900692
30
1.0371688692195624e-06
 70
     32
  0
VERTEX
  8
MY3DLAYER
10
6354.101876499069
20
-98.80010473299829
30
1.0281591647842702e-06
 70
     32
  0
VERTEX
  8
MY3DLAYER
10
6353.876275338305
20
-98.21328153756492
30
1.0190700800549735e-06
 70
     32
  0
VERTEX
  8
MY3DLAYER
10
6353.631594650496
20
-97.63415399768351
30
1.0099113932654502e-06
 70
     32
  0
VERTEX
  8
MY3DLAYER
10
6353.36809644585
20
-97.06334225762868
30
1.0006928657296798e-06
 70
     32
  0
VERTEX
  8
MY3DLAYER
10
6353.086062884843
20
-96.5014575569094
30
9.914244149172856e-07
 70
     32
  0
VERTEX
  8
MY3DLAYER
10
6352.785795976079
20
-95.94910157573713
30
9.821159315082096e-07
 70
     32
  0
VERTEX
  8
MY3DLAYER
10
6352.467617252882
20
-95.40686579073088
30
9.727773833789755e-07
 70
     32
  0
VERTEX
  8
MY3DLAYER
10
6352.131867429
20
-94.87533084155115
30
9.634188043228241e-07
 70
     32
  0
VERTEX
  8
MY3DLAYER
10
6351.778906033754
20
-94.35506590913516
30
9.540501816035496e-07
 70
     32
  0
VERTEX
  8
MY3DLAYER
10
6351.409111027046
20
-93.8466281062033
30
9.446815592367708e-07
 70
     32
  0
VERTEX
  8
MY3DLAYER
10
6351.022878394631
20
-93.35056188069038
30
9.353229685482578e-07
 70
     32
  0
VERTEX
  8
MY3DLAYER
10
6350.620621724088
20
-92.86739843273567
30
9.259844204190237e-07
 70
     32
  0
VERTEX
  8
MY3DLAYER
10
6350.202771761934
20
-92.39765514586077
30
9.166759370099475e-07
 70
     32
  0
VERTEX
  8
MY3DLAYER
10
6349.769775952374
20
-91.94183503294362
30
9.074074749176875e-07
 70
     32
  0
VERTEX
  8
MY3DLAYER
10
6349.322097958167
20
-91.5004261975776
30
8.981889590142789e-07
 70
     32
  0
VERTEX
  8
MY3DLAYER
10
6348.860217164122
20
-91.07390131140049
30
8.890302605923938e-07
 70
     32
  0
VERTEX
  8
MY3DLAYER
10
6348.3846281637625
20
-90.66271710794307
30
8.799411871429629e-07
 70
     32
  0
VERTEX
  8
MY3DLAYER
10
6347.895840229702
20
-90.26731389354913
30
8.709314830601666e-07
 70
     32
  0
VERTEX
  8
MY3DLAYER
10
6347.394376768303
20
-89.8881150758854
30
8.620107616097438e-07
 70
     32
  0
VERTEX
  8
MY3DLAYER
10
6346.8807747592
20
-89.52552671054296
30
8.531886209001138e-07
 70
     32
  0
VERTEX
  8
MY3DLAYER
10
6346.355584180289
20
-89.17993706622568
30
8.444744739793952e-07
 70
     32
  0
VERTEX
  8
MY3DLAYER
10
6345.819367418796
20
-88.85171620898065
30
8.358776633965447e-07
 70
     32
  0
VERTEX
  8
MY3DLAYER
10
6345.272698669061
20
-88.54121560592213
30
8.274073949321448e-07
 70
     32
  0
VERTEX
  8
MY3DLAYER
10
6344.716163317674
20
-88.24876774887446
30
8.190727390083863e-07
 70
     32
  0
VERTEX
  8
MY3DLAYER
10
6344.150357316627
20
-87.97468579832709
30
8.10882620114195e-07
 70
     32
  0
VERTEX
  8
MY3DLAYER
10
6343.57588654516
20
-87.71926324809775
30
8.028457974179614e-07
 70
     32
  0
VERTEX
  8
MY3DLAYER
10
6342.993366160962
20
-87.48277361105109
30
7.949709105919966e-07
 70
     32
  0
VERTEX
  8
MY3DLAYER
10
6342.403419941453
20
-87.26547012621384
30
7.872663585539729e-07
 70
     32
  0
VERTEX
  8
MY3DLAYER
10
6341.806679615818
20
-87.06758548760043
30
7.797403918208267e-07
 70
     32
  0
VERTEX
  8
MY3DLAYER
10
6341.203784188549
20
-86.8893315950379
30
7.724010913590096e-07
 70
     32
  0
VERTEX
  8
MY3DLAYER
10
6340.595379255168
20
-86.73089932725964
30
7.652563164151082e-07
 70
     32
  0
VERTEX
  8
MY3DLAYER
10
6339.982116310916
20
-86.59245833750629
30
7.583136957034497e-07
 70
     32
  0
VERTEX
  8
MY3DLAYER
10
6339.364652053116
20
-86.47415687185685
30
7.515806742880437e-07
 70
     32
  0
VERTEX
  8
MY3DLAYER
10
6338.7436476779585
20
-86.37612161048439
30
7.450644624706903e-07
 70
     32
  0
VERTEX
  8
MY3DLAYER
10
6338.119768172485
20
-86.29845753200222
30
7.387720379059548e-07
 70
     32
  0
VERTEX
  8
MY3DLAYER
10
6337.4936816024965
20
-86.2412478010504
30
7.327101381987555e-07
 70
     32
  0
VERTEX
  8
MY3DLAYER
10
6336.866058397172
20
-86.20455367924224
30
7.268852552644312e-07
 70
     32
  0
VERTEX
  8
MY3DLAYER
10
6336.237570631162
20
-86.18841445956227
30
7.213036261638494e-07
 70
     32
  0
VERTEX
  8
MY3DLAYER
10
6335.608891304908
20
-86.19284742429124
30
7.159712278159702e-07
 70
     32
  0
VERTEX
  8
MY3DLAYER
10
6334.980693623978
20
-86.21784782649911
30
7.108937703004247e-07
 70
     32
  0
VERTEX
  8
MY3DLAYER
10
6334.353650278184
20
-86.26338889512967
30
7.060766908650873e-07
 70
     32
  0
VERTEX
  8
MY3DLAYER
10
6333.728432721247
20
-86.32942186366547
30
7.015251479336459e-07
 70
     32
  0
VERTEX
  8
MY3DLAYER
10
6333.105710451787
20
-86.41587602234985
30
6.972440147606784e-07
 70
     32
  0
VERTEX
  8
MY3DLAYER
10
6332.486150296406
20
-86.52265879390487
30
6.932378762591895e-07
 70
     32
  0
VERTEX
  8
MY3DLAYER
10
6331.870415695637
20
-86.64965583266368
30
6.895110219506949e-07
 70
     32
  0
VERTEX
  8
MY3DLAYER
10
6331.259165993516
20
-86.79673114701575
30
6.860674427927592e-07
 70
     32
  0
VERTEX
  8
MY3DLAYER
10
6330.653055731531
20
-86.96372724503146
30
6.8291083752392e-07
 70
     32
  0
VERTEX
  8
MY3DLAYER
10
6330.052733947733
20
-87.15046530310538
30
6.800445527394006e-07
 70
     32
  0
VERTEX
  8
MY3DLAYER
10
6329.458843481723
20
-87.35674535744917
30
6.774716911073231e-07
 70
     32
  0
VERTEX
  8
MY3DLAYER
10
6328.87202028629
20
-87.58234651821218
30
6.751949968075709e-07
 70
     32
  0
VERTEX
  8
MY3DLAYER
10
6328.292892746408
20
-87.82702720602147
30
6.732169189810343e-07
 70
     32
  0
VERTEX
  8
MY3DLAYER
10
6327.7220810063545
20
-88.09052541066802
30
6.715395415829439e-07
 70
     32
  0
VERTEX
  8
MY3DLAYER
10
6327.160196305635
20
-88.37255897167442
30
6.701646951240425e-07
 70
     32
  0
VERTEX
  8
MY3DLAYER
10
6326.607840324463
20
-88.67282588043925
30
6.690938403469682e-07
 70
     32
  0
VERTEX
  8
MY3DLAYER
10
6326.065604539456
20
-88.99100460363587
30
6.683281352004577e-07
 70
     32
  0
VERTEX
  8
MY3DLAYER
10
6325.534069590277
20
-89.32675442751807
30
6.678683770300341e-07
 70
     32
  0
VERTEX
  8
MY3DLAYER
10
6325.01380465786
20
-89.67971582276432
30
6.677150586248403e-07
 70
     32
  0
VERTEX
  8
MY3DLAYER
10
6323.289153078791
20
-87.2250107629223
30
6.230039894999927e-07
 70
     32
  0
VERTEX
  8
MY3DLAYER
10
6308.74824329506
20
-87.22501076291488
30
4.984190328322091e-07
 70
     32
  0
VERTEX
  8
MY3DLAYER
10
6308.74824329506
20
-90.22501076291478
30
5.350032158762952e-07
 70
     32
  0
VERTEX
  8
MY3DLAYER
10
6294.207333511329
20
-90.22501076290733
30
4.1041827084087323e-07
 70
     32
  0
VERTEX
  8
MY3DLAYER
10
6294.20733351133
20
-87.22501076290746
30
3.7383408779678717e-07
 70
     32
  0
VERTEX
  8
MY3DLAYER
10
6279.6664237276
20
-87.22501076290044
30
2.492491427613652e-07
 70
     32
  0
VERTEX
  8
MY3DLAYER
10
6279.666423727598
20
-90.2250107629003
30
2.8583313404773046e-07
 70
     32
  0
VERTEX
  8
MY3DLAYER
10
6265.125513943868
20
-90.22501076289248
30
1.612481886598127e-07
 70
     32
  0
VERTEX
  8
MY3DLAYER
10
6265.12551394387
20
-87.22501076289261
30
1.2466419737344747e-07
 70
     32
  0
VERTEX
  8
MY3DLAYER
10
6250.584604160139
20
-87.22501076288557
30
7.925233802552611e-11
 70
     32
  0
SEQEND
  0
POLYLINE
 8
Layer0
 66
     1
70
    8
 10
0.0
 20
 0.0
 30
0.0
  0
VERTEX
  8
MY3DLAYER
10
6250.58460416024
20
120.36945136602738
30
7.924951805904356e-11
 70
     32
  0
VERTEX
  8
MY3DLAYER
10
6250.5846041602435
20
128.7377571752135
30
7.925233802552611e-11
 70
     32
  0
VERTEX
  8
MY3DLAYER
10
6130.584604160244
20
128.73775717525734
30
7.925233802552611e-11
 70
     32
  0
VERTEX
  8
MY3DLAYER
10
6130.58460416024
20
120.36945136607123
30
7.74390995772478e-11
 70
     32
  0
VERTEX
  8
MY3DLAYER
10
6133.58460416024
20
120.3694513660702
30
7.963867343363517e-11
 70
     32
  0
VERTEX
  8
MY3DLAYER
10
6133.584604160236
20
109.00114555688403
30
7.964149340011772e-11
 70
     32
  0
VERTEX
  8
MY3DLAYER
10
6130.584604160237
20
109.00114555688506
30
7.744191954373036e-11
 70
     32
  0
VERTEX
  8
MY3DLAYER
10
6130.584604160233
20
97.63283974769818
30
7.744191954373036e-11
 70
     32
  0
VERTEX
  8
MY3DLAYER
10
6133.584604160233
20
97.63283974769715
30
7.941589608151388e-11
 70
     32
  0
VERTEX
  8
MY3DLAYER
10
6133.584604160227
20
86.264533938511
30
7.941589608151388e-11
 70
     32
  0
VERTEX
  8
MY3DLAYER
10
6130.584604160227
20
86.26453393851203
30
7.744191954373036e-11
 70
     32
  0
VERTEX
  8
MY3DLAYER
10
6130.5846041602235
20
74.89622812932515
30
7.744191954373036e-11
 70
     32
  0
VERTEX
  8
MY3DLAYER
10
6133.5846041602235
20
74.89622812932411
30
7.919029876291005e-11
 70
     32
  0
VERTEX
  8
MY3DLAYER
10
6133.584604160219
20
63.52792232013867
30
7.919029876291005e-11
 70
     32
  0
VERTEX
  8
MY3DLAYER
10
6130.58460416022
20
63.52792232013971
30
7.744191954373036e-11
 70
     32
  0
VERTEX
  8
MY3DLAYER
10
6130.584604160216
20
52.15961651095283
30
7.744191954373036e-11
 70
     32
  0
VERTEX
  8
MY3DLAYER
10
6133.584604160216
20
52.15961651095179
30
7.896470144430622e-11
 70
     32
  0
VERTEX
  8
MY3DLAYER
10
6133.584604160211
20
40.79131070176563
30
7.896470144430622e-11
 70
     32
  0
VERTEX
  8
MY3DLAYER
10
6130.584604160211
20
40.79131070176667
30
7.744191954373036e-11
 70
     32
  0
VERTEX
  8
MY3DLAYER
10
6130.584604160206
20
29.42300489258051
30
7.744191954373036e-11
 70
     32
  0
VERTEX
  8
MY3DLAYER
10
6133.584604160206
20
29.423004892579474
30
7.873910412570239e-11
 70
     32
  0
VERTEX
  8
MY3DLAYER
10
6133.584604160203
20
18.054699083392595
30
7.873910412570239e-11
 70
     32
  0
VERTEX
  8
MY3DLAYER
10
6130.584604160203
20
18.054699083393633
30
7.744191954373036e-11
 70
     32
  0
VERTEX
  8
MY3DLAYER
10
6130.584604160199
20
6.686393274208195
30
7.744191954373036e-11
 70
     32
  0
VERTEX
  8
MY3DLAYER
10
6133.584604160199
20
6.686393274207156
30
7.851350680709856e-11
 70
     32
  0
VERTEX
  8
MY3DLAYER
10
6133.584604160194
20
-4.681912534979724
30
7.851350680709856e-11
 70
     32
  0
VERTEX
  8
MY3DLAYER
10
6130.584604160194
20
-4.6819125349786415
30
7.744191954373036e-11
 70
     32
  0
VERTEX
  8
MY3DLAYER
10
6130.58460416019
20
-16.0502183441648
30
7.744191954373036e-11
 70
     32
  0
VERTEX
  8
MY3DLAYER
10
6133.58460416019
20
-16.050218344165884
30
7.828790948849473e-11
 70
     32
  0
VERTEX
  8
MY3DLAYER
10
6133.584604160185
20
-27.418524153352042
30
7.828790948849473e-11
 70
     32
  0
VERTEX
  8
MY3DLAYER
10
6130.584604160185
20
-27.41852415335096
30
7.744191954373036e-11
 70
     32
  0
VERTEX
  8
MY3DLAYER
10
6130.584604160183
20
-38.78682996253784
30
7.744191954373036e-11
 70
     32
  0
VERTEX
  8
MY3DLAYER
10
6133.584604160182
20
-38.786829962538924
30
7.80623121698909e-11
 70
     32
  0
VERTEX
  8
MY3DLAYER
10
6133.584604160178
20
-50.155135771725085
30
7.80623121698909e-11
 70
     32
  0
VERTEX
  8
MY3DLAYER
10
6130.584604160178
20
-50.155135771724
30
7.744191954373036e-11
 70
     32
  0
VERTEX
  8
MY3DLAYER
10
6130.5846041601735
20
-61.523441580910884
30
7.744191954373036e-11
 70
     32
  0
VERTEX
  8
MY3DLAYER
10
6133.5846041601735
20
-61.523441580911964
30
7.783671485128706e-11
 70
     32
  0
VERTEX
  8
MY3DLAYER
10
6133.584604160169
20
-72.89174739009741
30
7.783671485128706e-11
 70
     32
  0
VERTEX
  8
MY3DLAYER
10
6130.584604160169
20
-72.89174739009631
30
7.744191954373036e-11
 70
     32
  0
VERTEX
  8
MY3DLAYER
10
6130.584604160166
20
-84.26005319928319
30
7.744191954373036e-11
 70
     32
  0
VERTEX
  8
MY3DLAYER
10
6133.584604160165
20
-84.26005319928429
30
7.761111753268323e-11
 70
     32
  0
VERTEX
  8
MY3DLAYER
10
6133.584604160162
20
-95.62835900847044
30
7.761111753268323e-11
 70
     32
  0
VERTEX
  8
MY3DLAYER
10
6130.584604160162
20
-95.62835900846936
30
7.744191954373036e-11
 70
     32
  0
VERTEX
  8
MY3DLAYER
10
6130.584604160156
20
-106.99666481765551
30
7.925233802552611e-11
 70
     32
  0
VERTEX
  8
MY3DLAYER
10
6133.589525184614
20
-106.99666481765662
30
3.7097770661735736e-10
 70
     32
  0
VERTEX
  8
MY3DLAYER
10
6247.589525184614
20
-106.99666481773596
30
3.707859488965441e-10
 70
     32
  0
VERTEX
  8
MY3DLAYER
10
6250.584604160157
20
-106.99666481769941
30
7.925233802552611e-11
 70
     32
  0
VERTEX
  8
MY3DLAYER
10
6250.584604160162
20
-95.62835900851327
30
7.925233802552611e-11
 70
     32
  0
VERTEX
  8
MY3DLAYER
10
6247.584604160162
20
-95.62835900851215
30
7.908314003657324e-11
 70
     32
  0
VERTEX
  8
MY3DLAYER
10
6247.584604160165
20
-84.260053199326
30
7.908314003657324e-11
 70
     32
  0
VERTEX
  8
MY3DLAYER
10
6250.584604160165
20
-84.26005319932712
30
7.925233802552611e-11
 70
     32
  0
VERTEX
  8
MY3DLAYER
10
6250.584604160169
20
-72.89174739014022
30
7.925233802552611e-11
 70
     32
  0
VERTEX
  8
MY3DLAYER
10
6247.584604160169
20
-72.89174739013912
30
7.88575427179694e-11
 70
     32
  0
VERTEX
  8
MY3DLAYER
10
6247.5846041601735
20
-61.52344158095367
30
7.88575427179694e-11
 70
     32
  0
VERTEX
  8
MY3DLAYER
10
6250.5846041601735
20
-61.523441580954795
30
7.925233802552611e-11
 70
     32
  0
VERTEX
  8
MY3DLAYER
10
6250.584604160178
20
-50.15513577176791
30
7.925233802552611e-11
 70
     32
  0
VERTEX
  8
MY3DLAYER
10
6247.584604160178
20
-50.155135771766815
30
7.862912543288302e-11
 70
     32
  0
VERTEX
  8
MY3DLAYER
10
6247.584604160183
20
-38.78682996258066
30
7.862912543288302e-11
 70
     32
  0
VERTEX
  8
MY3DLAYER
10
6250.584604160182
20
-38.786829962581756
30
7.925233802552611e-11
 70
     32
  0
VERTEX
  8
MY3DLAYER
10
6250.584604160185
20
-27.418524153394873
30
7.925233802552611e-11
 70
     32
  0
VERTEX
  8
MY3DLAYER
10
6247.584604160186
20
-27.41852415339378
30
7.840634808076174e-11
 70
     32
  0
VERTEX
  8
MY3DLAYER
10
6247.58460416019
20
-16.050218344207618
30
7.840634808076174e-11
 70
     32
  0
VERTEX
  8
MY3DLAYER
10
6250.58460416019
20
-16.050218344208712
30
7.925233802552611e-11
 70
     32
  0
VERTEX
  8
MY3DLAYER
10
6250.584604160194
20
-4.681912535022543
30
7.925233802552611e-11
 70
     32
  0
VERTEX
  8
MY3DLAYER
10
6247.584604160194
20
-4.6819125350214374
30
7.818075076215791e-11
 70
     32
  0
VERTEX
  8
MY3DLAYER
10
6247.584604160199
20
6.686393274165399
30
7.818075076215791e-11
 70
     32
  0
VERTEX
  8
MY3DLAYER
10
6250.584604160199
20
6.686393274164338
30
7.925233802552611e-11
 70
     32
  0
VERTEX
  8
MY3DLAYER
10
6250.584604160203
20
18.054699083349774
30
7.925233802552611e-11
 70
     32
  0
VERTEX
  8
MY3DLAYER
10
6247.584604160203
20
18.054699083350837
30
7.795515344355408e-11
 70
     32
  0
VERTEX
  8
MY3DLAYER
10
6247.584604160206
20
29.423004892537715
30
7.795515344355408e-11
 70
     32
  0
VERTEX
  8
MY3DLAYER
10
6250.584604160206
20
29.423004892536657
30
7.925233802552611e-11
 70
     32
  0
VERTEX
  8
MY3DLAYER
10
6250.584604160211
20
40.791310701722814
30
7.925233802552611e-11
 70
     32
  0
VERTEX
  8
MY3DLAYER
10
6247.584604160211
20
40.79131070172387
30
7.772955612495025e-11
 70
     32
  0
VERTEX
  8
MY3DLAYER
10
6247.584604160216
20
52.159616510910034
30
7.772955612495025e-11
 70
     32
  0
VERTEX
  8
MY3DLAYER
10
6250.584604160216
20
52.159616510908975
30
7.925233802552611e-11
 70
     32
  0
VERTEX
  8
MY3DLAYER
10
6250.584604160219
20
63.527922320095854
30
7.925233802552611e-11
 70
     32
  0
VERTEX
  8
MY3DLAYER
10
6247.58460416022
20
63.52792232009691
30
7.750395880634642e-11
 70
     32
  0
VERTEX
  8
MY3DLAYER
10
6247.5846041602235
20
74.89622812928235
30
7.750395880634642e-11
 70
     32
  0
VERTEX
  8
MY3DLAYER
10
6250.5846041602235
20
74.8962281292813
30
7.925233802552611e-11
 70
     32
  0
VERTEX
  8
MY3DLAYER
10
6250.584604160227
20
86.26453393846818
30
7.925233802552611e-11
 70
     32
  0
VERTEX
  8
MY3DLAYER
10
6247.584604160227
20
86.26453393846923
30
7.727836148774258e-11
 70
     32
  0
VERTEX
  8
MY3DLAYER
10
6247.584604160233
20
97.63283974765537
30
7.727836148774258e-11
 70
     32
  0
VERTEX
  8
MY3DLAYER
10
6250.584604160233
20
97.63283974765433
30
7.925233802552611e-11
 70
     32
  0
VERTEX
  8
MY3DLAYER
10
6250.584604160235
20
109.00114555684121
30
7.925233802552611e-11
 70
     32
  0
VERTEX
  8
MY3DLAYER
10
6247.584604160236
20
109.00114555684225
30
7.705276416913875e-11
 70
     32
  0
VERTEX
  8
MY3DLAYER
10
6247.58460416024
20
120.36945136602841
30
7.70499442026562e-11
 70
     32
  0
VERTEX
  8
MY3DLAYER
10
6250.58460416024
20
120.36945136602738
30
7.924951805904356e-11
 70
     32
  0
SEQEND
  0
POLYLINE
 8
Layer0
 66
     1
70
    8
 10
0.0
 20
 0.0
 30
0.0
  0
VERTEX
  8
MY3DLAYER
10
6221.02267561063
20
-9.328997803127994
30
7.925233802552611e-11
 70
     32
  0
VERTEX
  8
MY3DLAYER
10
6223.551894915196
20
-11.404674443740605
30
7.925233802552611e-11
 70
     32
  0
VERTEX
  8
MY3DLAYER
10
6225.939943219519
20
-13.641325758363397
30
7.925233802552611e-11
 70
     32
  0
VERTEX
  8
MY3DLAYER
10
6228.176594534139
20
-16.029374062688124
30
7.925233802552611e-11
 70
     32
  0
VERTEX
  8
MY3DLAYER
10
6230.2522711747515
20
-18.558593367256496
30
7.925233802552611e-11
 70
     32
  0
VERTEX
  8
MY3DLAYER
10
6232.158084775316
20
-21.218153166712654
30
7.925233802552611e-11
 70
     32
  0
VERTEX
  8
MY3DLAYER
10
6233.885874349409
20
-23.99666481769342
30
7.925233802552611e-11
 70
     32
  0
VERTEX
  8
MY3DLAYER
10
6235.428241236821
20
-26.882230306744386
30
7.925233802552611e-11
 70
     32
  0
VERTEX
  8
MY3DLAYER
10
6236.778580785749
20
-29.862493199439882
30
7.925233802552611e-11
 70
     32
  0
VERTEX
  8
MY3DLAYER
10
6237.9311106349405
20
-32.92469155253686
30
7.925233802552611e-11
 70
     32
  0
VERTEX
  8
MY3DLAYER
10
6238.880895474636
20
-36.05571256256972
30
7.925233802552611e-11
 70
     32
  0
VERTEX
  8
MY3DLAYER
10
6239.623868180343
20
-39.24214871688938
30
7.925233802552611e-11
 70
     32
  0
VERTEX
  8
MY3DLAYER
10
6240.156847228872
20
-42.470355206693796
30
7.925233802552611e-11
 70
     32
  0
VERTEX
  8
MY3DLAYER
10
6240.47755032211
20
-45.7265083561889
30
7.925233802552611e-11
 70
     32
  0
VERTEX
  8
MY3DLAYER
10
6240.584604160178
20
-48.99666481769597
30
7.925233802552611e-11
 70
     32
  0
VERTEX
  8
MY3DLAYER
10
6240.477550322107
20
-52.26682127920295
30
7.925233802552611e-11
 70
     32
  0
VERTEX
  8
MY3DLAYER
10
6240.156847228865
20
-55.522974428698554
30
7.925233802552611e-11
 70
     32
  0
VERTEX
  8
MY3DLAYER
10
6239.623868180336
20
-58.7511809185018
30
7.925233802552611e-11
 70
     32
  0
VERTEX
  8
MY3DLAYER
10
6238.880895474627
20
-61.937617072821695
30
7.925233802552611e-11
 70
     32
  0
VERTEX
  8
MY3DLAYER
10
6237.931110634927
20
-65.06863808285313
30
7.925233802552611e-11
 70
     32
  0
VERTEX
  8
MY3DLAYER
10
6236.778580785736
20
-68.13083643594854
30
7.925233802552611e-11
 70
     32
  0
VERTEX
  8
MY3DLAYER
10
6235.428241236805
20
-71.1110993286445
30
7.925233802552611e-11
 70
     32
  0
VERTEX
  8
MY3DLAYER
10
6233.885874349391
20
-73.99666481769361
30
7.925233802552611e-11
 70
     32
  0
VERTEX
  8
MY3DLAYER
10
6232.158084775295
20
-76.77517646867311
30
7.925233802552611e-11
 70
     32
  0
VERTEX
  8
MY3DLAYER
10
6230.252271174729
20
-79.43473626812784
30
7.925233802552611e-11
 70
     32
  0
VERTEX
  8
MY3DLAYER
10
6228.176594534115
20
-81.96395557269469
30
7.925233802552611e-11
 70
     32
  0
VERTEX
  8
MY3DLAYER
10
6225.939943219492
20
-84.35200387701778
30
7.925233802552611e-11
 70
     32
  0
VERTEX
  8
MY3DLAYER
10
6223.551894915168
20
-86.58865519163814
30
7.925233802552611e-11
 70
     32
  0
VERTEX
  8
MY3DLAYER
10
6221.022675610599
20
-88.6643318322503
30
7.925233802552611e-11
 70
     32
  0
VERTEX
  8
MY3DLAYER
10
6218.363115811143
20
-90.57014543281498
30
7.925233802552611e-11
 70
     32
  0
VERTEX
  8
MY3DLAYER
10
6215.584604160162
20
-92.29793500690839
30
7.925233802552611e-11
 70
     32
  0
VERTEX
  8
MY3DLAYER
10
6212.699038671112
20
-93.84030189432069
30
7.925233802552611e-11
 70
     32
  0
VERTEX
  8
MY3DLAYER
10
6209.718775778416
20
-95.19064144324892
30
7.925233802552611e-11
 70
     32
  0
VERTEX
  8
MY3DLAYER
10
6206.656577425319
20
-96.34317129243888
30
7.925233802552611e-11
 70
     32
  0
VERTEX
  8
MY3DLAYER
10
6203.525556415287
20
-97.29295613213594
30
7.925233802552611e-11
 70
     32
  0
VERTEX
  8
MY3DLAYER
10
6200.339120260967
20
-98.03592883784266
30
7.925233802552611e-11
 70
     32
  0
VERTEX
  8
MY3DLAYER
10
6197.110913771163
20
-98.56890788637114
30
7.925233802552611e-11
 70
     32
  0
VERTEX
  8
MY3DLAYER
10
6193.854760621667
20
-98.88961097960879
30
7.925233802552611e-11
 70
     32
  0
VERTEX
  8
MY3DLAYER
10
6190.58460416016
20
-98.99666481767785
30
7.925233802552611e-11
 70
     32
  0
VERTEX
  8
MY3DLAYER
10
6187.314447698653
20
-98.8896109796071
30
7.925233802552611e-11
 70
     32
  0
VERTEX
  8
MY3DLAYER
10
6184.058294549158
20
-98.56890788636636
30
7.925233802552611e-11
 70
     32
  0
VERTEX
  8
MY3DLAYER
10
6180.830088059354
20
-98.03592883783551
30
7.925233802552611e-11
 70
     32
  0
VERTEX
  8
MY3DLAYER
10
6177.643651905034
20
-97.29295613212648
30
7.925233802552611e-11
 70
     32
  0
VERTEX
  8
MY3DLAYER
10
6174.512630895003
20
-96.34317129242712
30
7.925233802552611e-11
 70
     32
  0
VERTEX
  8
MY3DLAYER
10
6171.450432541907
20
-95.1906414432349
30
7.925233802552611e-11
 70
     32
  0
VERTEX
  8
MY3DLAYER
10
6168.470169649212
20
-93.84030189430378
30
7.925233802552611e-11
 70
     32
  0
VERTEX
  8
MY3DLAYER
10
6165.584604160163
20
-92.29793500689009
30
7.925233802552611e-11
 70
     32
  0
VERTEX
  8
MY3DLAYER
10
6162.806092509183
20
-90.57014543279466
30
7.925233802552611e-11
 70
     32
  0
VERTEX
  8
MY3DLAYER
10
6160.146532709728
20
-88.66433183222804
30
7.925233802552611e-11
 70
     32
  0
VERTEX
  8
MY3DLAYER
10
6157.6173134051605
20
-86.58865519161473
30
7.925233802552611e-11
 70
     32
  0
VERTEX
  8
MY3DLAYER
10
6155.229265100837
20
-84.3520038769919
30
7.925233802552611e-11
 70
     32
  0
VERTEX
  8
MY3DLAYER
10
6152.992613786218
20
-81.96395557266719
30
7.925233802552611e-11
 70
     32
  0
VERTEX
  8
MY3DLAYER
10
6150.9169371456055
20
-79.43473626809882
30
7.925233802552611e-11
 70
     32
  0
VERTEX
  8
MY3DLAYER
10
6149.01112354504
20
-76.77517646864266
30
7.925233802552611e-11
 70
     32
  0
VERTEX
  8
MY3DLAYER
10
6147.283333970948
20
-73.9966648176619
30
7.925233802552611e-11
 70
     32
  0
VERTEX
  8
MY3DLAYER
10
6145.740967083536
20
-71.11109932861167
30
7.925233802552611e-11
 70
     32
  0
VERTEX
  8
MY3DLAYER
10
6144.390627534608
20
-68.13083643591546
30
7.925233802552611e-11
 70
     32
  0
VERTEX
  8
MY3DLAYER
10
6143.2380976854165
20
-65.06863808281848
30
7.925233802552611e-11
 70
     32
  0
VERTEX
  8
MY3DLAYER
10
6142.288312845721
20
-61.93761707278634
30
7.925233802552611e-11
 70
     32
  0
VERTEX
  8
MY3DLAYER
10
6141.545340140013
20
-58.751180918465934
30
7.925233802552611e-11
 70
     32
  0
VERTEX
  8
MY3DLAYER
10
6141.012361091485
20
-55.52297442866227
30
7.925233802552611e-11
 70
     32
  0
VERTEX
  8
MY3DLAYER
10
6140.691657998248
20
-52.266821279166436
30
7.925233802552611e-11
 70
     32
  0
VERTEX
  8
MY3DLAYER
10
6140.584604160178
20
-48.99666481765938
30
7.925233802552611e-11
 70
     32
  0
VERTEX
  8
MY3DLAYER
10
6140.691657998249
20
-45.72650835615239
30
7.925233802552611e-11
 70
     32
  0
VERTEX
  8
MY3DLAYER
10
6141.012361091491
20
-42.4703552066568
30
7.925233802552611e-11
 70
     32
  0
VERTEX
  8
MY3DLAYER
10
6141.54534014002
20
-39.24214871685352
30
7.925233802552611e-11
 70
     32
  0
VERTEX
  8
MY3DLAYER
10
6142.288312845729
20
-36.05571256253438
30
7.925233802552611e-11
 70
     32
  0
VERTEX
  8
MY3DLAYER
10
6143.238097685429
20
-32.92469155250221
30
7.925233802552611e-11
 70
     32
  0
VERTEX
  8
MY3DLAYER
10
6144.390627534621
20
-29.862493199406074
30
7.925233802552611e-11
 70
     32
  0
VERTEX
  8
MY3DLAYER
10
6145.740967083552
20
-26.882230306711573
30
7.925233802552611e-11
 70
     32
  0
VERTEX
  8
MY3DLAYER
10
6147.283333970965
20
-23.996664817661713
30
7.925233802552611e-11
 70
     32
  0
VERTEX
  8
MY3DLAYER
10
6149.011123545061
20
-21.21815316668221
30
7.925233802552611e-11
 70
     32
  0
VERTEX
  8
MY3DLAYER
10
6150.916937145628
20
-18.55859336722677
30
7.925233802552611e-11
 70
     32
  0
VERTEX
  8
MY3DLAYER
10
6152.992613786241
20
-16.029374062660636
30
7.925233802552611e-11
 70
     32
  0
VERTEX
  8
MY3DLAYER
10
6155.229265100864
20
-13.641325758336821
30
7.925233802552611e-11
 70
     32
  0
VERTEX
  8
MY3DLAYER
10
6157.617313405189
20
-11.404674443716477
30
7.925233802552611e-11
 70
     32
  0
VERTEX
  8
MY3DLAYER
10
6160.146532709758
20
-9.328997803104295
30
7.925233802552611e-11
 70
     32
  0
VERTEX
  8
MY3DLAYER
10
6162.806092509213
20
-7.4231842025403045
30
7.925233802552611e-11
 70
     32
  0
VERTEX
  8
MY3DLAYER
10
6165.584604160194
20
-5.695394628446196
30
7.925233802552611e-11
 70
     32
  0
VERTEX
  8
MY3DLAYER
10
6168.470169649245
20
-4.153027741035366
30
7.925233802552611e-11
 70
     32
  0
VERTEX
  8
MY3DLAYER
10
6171.450432541942
20
-2.802688192105673
30
7.925233802552611e-11
 70
     32
  0
VERTEX
  8
MY3DLAYER
10
6174.512630895038
20
-1.6501583429164426
30
7.925233802552611e-11
 70
     32
  0
VERTEX
  8
MY3DLAYER
10
6177.64365190507
20
-0.700373503219391
30
7.925233802552611e-11
 70
     32
  0
VERTEX
  8
MY3DLAYER
10
6180.830088059391
20
0.042599202488039896
30
7.925233802552611e-11
 70
     32
  0
VERTEX
  8
MY3DLAYER
10
6184.058294549194
20
0.5755782510150828
30
7.925233802552611e-11
 70
     32
  0
VERTEX
  8
MY3DLAYER
10
6187.31444769869
20
0.8962813442534454
30
7.925233802552611e-11
 70
     32
  0
VERTEX
  8
MY3DLAYER
10
6190.584604160197
20
1.0033351823224703
30
7.925233802552611e-11
 70
     32
  0
VERTEX
  8
MY3DLAYER
10
6193.854760621705
20
0.896281344251054
30
7.925233802552611e-11
 70
     32
  0
VERTEX
  8
MY3DLAYER
10
6197.1109137712
20
0.5755782510103001
30
7.925233802552611e-11
 70
     32
  0
VERTEX
  8
MY3DLAYER
10
6200.339120261003
20
0.04259920248018911
30
7.925233802552611e-11
 70
     32
  0
VERTEX
  8
MY3DLAYER
10
6203.525556415322
20
-0.700373503229588
30
7.925233802552611e-11
 70
     32
  0
VERTEX
  8
MY3DLAYER
10
6206.656577425354
20
-1.6501583429282414
30
7.925233802552611e-11
 70
     32
  0
VERTEX
  8
MY3DLAYER
10
6209.71877577845
20
-2.8026881921204043
30
7.925233802552611e-11
 70
     32
  0
VERTEX
  8
MY3DLAYER
10
6212.699038671145
20
-4.153027741051564
30
7.925233802552611e-11
 70
     32
  0
VERTEX
  8
MY3DLAYER
10
6215.584604160194
20
-5.695394628464492
30
7.925233802552611e-11
 70
     32
  0
VERTEX
  8
MY3DLAYER
10
6218.363115811174
20
-7.423184202560665
30
7.925233802552611e-11
 70
     32
  0
VERTEX
  8
MY3DLAYER
10
6221.02267561063
20
-9.328997803127994
30
7.925233802552611e-11
 70
     32
  0
SEQEND
  0
POLYLINE
 8
Layer0
 66
     1
70
    8
 10
0.0
 20
 0.0
 30
0.0
  0
VERTEX
  8
MY3DLAYER
10
6233.744638879427
20
25.158867177733963
30
7.880678332128354e-11
 70
     32
  0
VERTEX
  8
MY3DLAYER
10
6233.744638879426
20
22.158867177733203
30
7.856426620378443e-11
 70
     32
  0
VERTEX
  8
MY3DLAYER
10
6219.904673598648
20
22.158867177738323
30
7.856426620378443e-11
 70
     32
  0
VERTEX
  8
MY3DLAYER
10
6219.9046735986485
20
25.158867177739086
30
7.856426620378443e-11
 70
     32
  0
VERTEX
  8
MY3DLAYER
10
6233.744638879427
20
25.158867177733963
30
7.880678332128354e-11
 70
     32
  0
SEQEND
  0
POLYLINE
 8
Layer0
 66
     1
70
    8
 10
0.0
 20
 0.0
 30
0.0
  0
VERTEX
  8
MY3DLAYER
10
6147.424569440982
20
22.158867177764787
30
7.856426620378443e-11
 70
     32
  0
VERTEX
  8
MY3DLAYER
10
6147.424569440984
20
25.158867177764826
30
7.880678332128354e-11
 70
     32
  0
VERTEX
  8
MY3DLAYER
10
6161.264534721761
20
25.158867177759774
30
7.856426620378443e-11
 70
     32
  0
VERTEX
  8
MY3DLAYER
10
6161.26453472176
20
22.158867177759735
30
7.856426620378443e-11
 70
     32
  0
VERTEX
  8
MY3DLAYER
10
6147.424569440982
20
22.158867177764787
30
7.856426620378443e-11
 70
     32
  0
SEQEND
  0
POLYLINE
 8
Layer0
 66
     1
70
    8
 10
0.0
 20
 0.0
 30
0.0
  0
VERTEX
  8
MY3DLAYER
10
6356.046215018632
20
-149.0716417207373
30
1.330743225091968e-06
 70
     32
  0
VERTEX
  8
MY3DLAYER
10
6341.209780568155
20
-135.62260197443496
30
1.0396189294187285e-06
 70
     32
  0
VERTEX
  8
MY3DLAYER
10
6341.204989834626
20
-138.62259814924445
30
1.076162008278869e-06
 70
     32
  0
VERTEX
  8
MY3DLAYER
10
6328.963141360082
20
-138.6030489796651
30
9.710367432053113e-07
 70
     32
  0
VERTEX
  8
MY3DLAYER
10
6328.967932093612
20
-135.60305280485562
30
9.344936759775324e-07
 70
     32
  0
VERTEX
  8
MY3DLAYER
10
6316.726083619068
20
-135.58350363527626
30
8.293684109039744e-07
 70
     32
  0
VERTEX
  8
MY3DLAYER
10
6316.721292885538
20
-138.58349981008578
30
8.659115010439811e-07
 70
     32
  0
VERTEX
  8
MY3DLAYER
10
6304.479444410995
20
-138.56395064050648
30
7.607862472502891e-07
 70
     32
  0
VERTEX
  8
MY3DLAYER
10
6304.484235144525
20
-135.56395446569695
30
7.2424316909514e-07
 70
     32
  0
VERTEX
  8
MY3DLAYER
10
6302.026779099206
20
-137.28468389978156
30
7.241717693062809e-07
 70
     32
  0
VERTEX
  8
MY3DLAYER
10
6293.885472128066
20
-125.65769383572871
30
5.126299786217813e-07
 70
     32
  0
VERTEX
  8
MY3DLAYER
10
6296.342928173385
20
-123.9369644016441
30
5.127013784106404e-07
 70
     32
  0
VERTEX
  8
MY3DLAYER
10
6288.201621202245
20
-112.3099743375913
30
3.011596106383685e-07
 70
     32
  0
VERTEX
  8
MY3DLAYER
10
6285.744165156927
20
-114.0307037716759
30
3.0108821084950943e-07
 70
     32
  0
VERTEX
  8
MY3DLAYER
10
6275.882128751702
20
-99.94625766230406
30
4.483539686461757e-08
 70
     32
  0
VERTEX
  8
MY3DLAYER
10
6273.424672706384
20
-101.66698709638867
30
4.476399742825432e-08
 70
     32
  0
VERTEX
  8
MY3DLAYER
10
6271.703943272299
20
-99.20953105106966
30
5.297412786209321e-11
 70
     32
  0
VERTEX
  8
MY3DLAYER
10
6256.140054985278
20
-110.10748413360533
30
-3.99234992287667e-10
 70
     32
  0
VERTEX
  8
MY3DLAYER
10
6259.581513853447
20
-115.02239622424335
30
8.902281196099259e-08
 70
     32
  0
VERTEX
  8
MY3DLAYER
10
6259.072486169027
20
-115.39137882942924
30
8.916115845913896e-08
 70
     32
  0
VERTEX
  8
MY3DLAYER
10
6258.575803796823
20
-115.77681879567267
30
8.9605970807205e-08
 70
     32
  0
VERTEX
  8
MY3DLAYER
10
6258.0919985967585
20
-116.17830338420318
30
9.035677348834258e-08
 70
     32
  0
VERTEX
  8
MY3DLAYER
10
6257.621588639562
20
-116.59540267526732
30
9.141276210711257e-08
 70
     32
  0
VERTEX
  8
MY3DLAYER
10
6257.165077651997
20
-117.02767002849723
30
9.277280585695546e-08
 70
     32
  0
VERTEX
  8
MY3DLAYER
10
6256.722954477464
20
-117.47464256118373
30
9.443544857767882e-08
 70
     32
  0
VERTEX
  8
MY3DLAYER
10
6256.29569255253
20
-117.93584164394346
30
9.639890981294474e-08
 70
     32
  0
VERTEX
  8
MY3DLAYER
10
6255.883749399968
20
-118.41077341324737
30
9.866108657274885e-08
 70
     32
  0
VERTEX
  8
MY3DLAYER
10
6255.487566138824
20
-118.89892930026048
30
1.0121954593100834e-07
 70
     32
  0
VERTEX
  8
MY3DLAYER
10
6255.107567012057
20
-119.39978657543163
30
1.0407157014502565e-07
 70
     32
  0
VERTEX
  8
MY3DLAYER
10
6254.74415893225
20
-119.91280890824649
30
1.072141058960918e-07
 70
     32
  0
VERTEX
  8
MY3DLAYER
10
6254.397731045876
20
-120.43744694154047
30
1.1064376499447802e-07
 70
     32
  0
VERTEX
  8
MY3DLAYER
10
6254.068654316594
20
-120.9731388797676
30
1.1435688571370672e-07
 70
     32
  0
VERTEX
  8
MY3DLAYER
10
6253.757281128007
20
-121.51931109058222
30
1.183494820311548e-07
 70
     32
  0
VERTEX
  8
MY3DLAYER
10
6253.463944906327
20
-122.07537871910051
30
1.2261731095475347e-07
 70
     32
  0
VERTEX
  8
MY3DLAYER
10
6253.188959763324
20
-122.64074631417846
30
1.2715575831434565e-07
 70
     32
  0
VERTEX
  8
MY3DLAYER
10
6252.93262015998
20
-123.2148084660343
30
1.3195999738480068e-07
 70
     32
  0
VERTEX
  8
MY3DLAYER
10
6252.695200591161
20
-123.79695045453673
30
1.3702487291489263e-07
 70
     32
  0
VERTEX
  8
MY3DLAYER
10
6252.476955291687
20
-124.38654890746396
30
1.4234497233145402e-07
 70
     32
  0
VERTEX
  8
MY3DLAYER
10
6252.278117964094
20
-124.98297246802451
30
1.4791456475760076e-07
 70
     32
  0
VERTEX
  8
MY3DLAYER
10
6252.098901528371
20
-125.58558247093094
30
1.5372773143618178e-07
 70
     32
  0
VERTEX
  8
MY3DLAYER
10
6251.939497893966
20
-126.19373362629825
30
1.597782025242189e-07
 70
     32
  0
VERTEX
  8
MY3DLAYER
10
6251.800077754284
20
-126.8067747106372
30
1.660595319308289e-07
 70
     32
  0
VERTEX
  8
MY3DLAYER
10
6251.680790403902
20
-127.42404926419921
30
1.7256498381357232e-07
 70
     32
  0
VERTEX
  8
MY3DLAYER
10
6251.581763578703
20
-128.04489629393123
30
1.7928759074026244e-07
 70
     32
  0
VERTEX
  8
MY3DLAYER
10
6251.5031033190935
20
-128.66865098128375
30
1.8622015404146095e-07
 70
     32
  0
VERTEX
  8
MY3DLAYER
10
6251.4448938564465
20
-129.29464539411387
30
1.9335525086039416e-07
 70
     32
  0
VERTEX
  8
MY3DLAYER
10
6251.407197522915
20
-129.9222092019249
30
2.00685239792886e-07
 70
     32
  0
VERTEX
  8
MY3DLAYER
10
6251.390054684675
20
-130.55067039367316
30
2.0820227287221548e-07
 70
     32
  0
VERTEX
  8
MY3DLAYER
10
6251.393483698709
20
-131.1793559973727
30
2.158982994465708e-07
 70
     32
  0
VERTEX
  8
MY3DLAYER
10
6251.417480893143
20
-131.80759280073238
30
2.237650792213941e-07
 70
     32
  0
VERTEX
  8
MY3DLAYER
10
6251.462020571179
20
-132.4347080720474
30
2.3179417661944866e-07
 70
     32
  0
VERTEX
  8
MY3DLAYER
10
6251.527055038614
20
-133.06003028057805
30
2.399770164751569e-07
 70
     32
  0
VERTEX
  8
MY3DLAYER
10
6251.612514654912
20
-133.68288981564075
30
2.483048371526575e-07
 70
     32
  0
VERTEX
  8
MY3DLAYER
10
6251.718307907776
20
-134.30261970364364
30
2.5676868596336e-07
 70
     32
  0
VERTEX
  8
MY3DLAYER
10
6251.84432151114
20
-134.9185563223015
30
2.6535954500694904e-07
 70
     32
  0
VERTEX
  8
MY3DLAYER
10
6251.990420526481
20
-135.53004011125472
30
2.740681817131607e-07
 70
     32
  0
VERTEX
  8
MY3DLAYER
10
6252.156448507315
20
-136.13641627834613
30
2.828852817327032e-07
 70
     32
  0
VERTEX
  8
MY3DLAYER
10
6252.34222766672
20
-136.73703550078824
30
2.918013918329354e-07
 70
     32
  0
VERTEX
  8
MY3DLAYER
10
6252.547559067721
20
-137.33125462047306
30
3.008069988569284e-07
 70
     32
  0
VERTEX
  8
MY3DLAYER
10
6252.772222836309
20
-137.9184373326846
30
3.09892413752344e-07
 70
     32
  0
VERTEX
  8
MY3DLAYER
10
6253.015978396894
20
-138.4979548674666
30
3.1904795275428106e-07
 70
     32
  0
VERTEX
  8
MY3DLAYER
10
6253.278564729916
20
-139.0691866629282
30
3.282637671297994e-07
 70
     32
  0
VERTEX
  8
MY3DLAYER
10
6253.5597006513535
20
-139.63152102975445
30
3.375300331731612e-07
 70
     32
  0
VERTEX
  8
MY3DLAYER
10
6253.85908511382
20
-140.18435580622025
30
3.46836794640204e-07
 70
     32
  0
VERTEX
  8
MY3DLAYER
10
6254.176397528933
20
-140.72709900300055
30
3.5617408541688266e-07
 70
     32
  0
VERTEX
  8
MY3DLAYER
10
6254.511298110611
20
-141.25916943708566
30
3.655319411516311e-07
 70
     32
  0
VERTEX
  8
MY3DLAYER
10
6254.863428238925
20
-141.7799973541277
30
3.7490030690146e-07
 70
     32
  0
VERTEX
  8
MY3DLAYER
10
6255.232410844111
20
-142.2890250385482
30
3.842691622679695e-07
 70
     32
  0
VERTEX
  8
MY3DLAYER
10
6255.617850810354
20
-142.78570741075256
30
3.9362847522039775e-07
 70
     32
  0
VERTEX
  8
MY3DLAYER
10
6256.019335398884
20
-143.2695126108161
30
4.029682116130084e-07
 70
     32
  0
VERTEX
  8
MY3DLAYER
10
6256.436434689949
20
-143.73992256801304
30
4.1227839299440294e-07
 70
     32
  0
VERTEX
  8
MY3DLAYER
10
6256.868702043178
20
-144.19643355557818
30
4.215490391507037e-07
 70
     32
  0
VERTEX
  8
MY3DLAYER
10
6257.315674575865
20
-144.6385567301122
30
4.307702220374132e-07
 70
     32
  0
VERTEX
  8
MY3DLAYER
10
6257.776873658625
20
-145.0658186550451
30
4.399320671893969e-07
 70
     32
  0
VERTEX
  8
MY3DLAYER
10
6258.251805427929
20
-145.47776180760656
30
4.490247646482537e-07
 70
     32
  0
VERTEX
  8
MY3DLAYER
10
6258.739961314941
20
-145.873945068751
30
4.5803858905457683e-07
 70
     32
  0
VERTEX
  8
MY3DLAYER
10
6259.240818590113
20
-146.2539441955182
30
4.66963853471003e-07
 70
     32
  0
VERTEX
  8
MY3DLAYER
10
6259.753840922928
20
-146.61735227532589
30
4.757910461505865e-07
 70
     32
  0
VERTEX
  8
MY3DLAYER
10
6260.278478956222
20
-146.96378016169956
30
4.845106810785759e-07
 70
     32
  0
VERTEX
  8
MY3DLAYER
10
6260.814170894449
20
-147.29285689098145
30
4.931134322733177e-07
 70
     32
  0
VERTEX
  8
MY3DLAYER
10
6261.360343105263
20
-147.60423007956817
30
5.015900872568091e-07
 70
     32
  0
VERTEX
  8
MY3DLAYER
10
6261.916410733781
20
-147.89756630124887
30
5.099315692619344e-07
 70
     32
  0
VERTEX
  8
MY3DLAYER
10
6262.48177832886
20
-148.17255144425098
30
5.181289460448602e-07
 70
     32
  0
VERTEX
  8
MY3DLAYER
10
6263.055840480715
20
-148.42889104759576
30
5.261734284750519e-07
 70
     32
  0
VERTEX
  8
MY3DLAYER
10
6263.6379824692185
20
-148.66631061641502
30
5.34056435746999e-07
 70
     32
  0
VERTEX
  8
MY3DLAYER
10
6264.2275809221455
20
-148.88455591588783
30
5.417694935089257e-07
 70
     32
  0
VERTEX
  8
MY3DLAYER
10
6264.824004482706
20
-149.0833932434811
30
5.493043417265087e-07
 70
     32
  0
VERTEX
  8
MY3DLAYER
10
6265.426614485612
20
-149.2626096792045
30
5.566529346828775e-07
 70
     32
  0
VERTEX
  8
MY3DLAYER
10
6266.03476564098
20
-149.42201331360937
30
5.638074032615625e-07
 70
     32
  0
VERTEX
  8
MY3DLAYER
10
6266.647806725318
20
-149.5614334532913
30
5.707600637588905e-07
 70
     32
  0
VERTEX
  8
MY3DLAYER
10
6267.265081278881
20
-149.68072080367307
30
5.775034820382218e-07
 70
     32
  0
VERTEX
  8
MY3DLAYER
10
6267.885928308613
20
-149.77974762887152
30
5.84030437575378e-07
 70
     32
  0
VERTEX
  8
MY3DLAYER
10
6268.509682995965
20
-149.858407888482
30
5.903339410834318e-07
 70
     32
  0
VERTEX
  8
MY3DLAYER
10
6269.135677408795
20
-149.91661735112865
30
5.964072426201117e-07
 70
     32
  0
VERTEX
  8
MY3DLAYER
10
6269.763241216607
20
-149.95431368466055
30
6.022438382852213e-07
 70
     32
  0
VERTEX
  8
MY3DLAYER
10
6270.391702408355
20
-149.97145652289962
30
6.078374786805395e-07
 70
     32
  0
VERTEX
  8
MY3DLAYER
10
6271.020388012054
20
-149.96802750886533
30
6.131821738447618e-07
 70
     32
  0
VERTEX
  8
MY3DLAYER
10
6271.648624815413
20
-149.94403031443213
30
6.1827219995092e-07
 70
     32
  0
VERTEX
  8
MY3DLAYER
10
6272.275740086729
20
-149.89949063639622
30
6.231021070612907e-07
 70
     32
  0
VERTEX
  8
MY3DLAYER
10
6272.901062295259
20
-149.83445616896088
30
6.27666723709841e-07
 70
     32
  0
VERTEX
  8
MY3DLAYER
10
6273.523921830321
20
-149.74899655266282
30
6.319611611321774e-07
 70
     32
  0
VERTEX
  8
MY3DLAYER
10
6274.143651718325
20
-149.64320329979913
30
6.359808206679584e-07
 70
     32
  0
VERTEX
  8
MY3DLAYER
10
6274.759588336983
20
-149.5171896964351
30
6.397213986958361e-07
 70
     32
  0
VERTEX
  8
MY3DLAYER
10
6275.371072125936
20
-149.3710906810942
30
6.431788887484302e-07
 70
     32
  0
VERTEX
  8
MY3DLAYER
10
6275.977448293028
20
-149.2050627002605
30
6.463496005471025e-07
 70
     32
  0
VERTEX
  8
MY3DLAYER
10
6276.578067515469
20
-149.01928354085535
30
6.492301050126103e-07
 70
     32
  0
VERTEX
  8
MY3DLAYER
10
6277.172286635156
20
-148.81395213985434
30
6.518173509412195e-07
 70
     32
  0
VERTEX
  8
MY3DLAYER
10
6277.759469347367
20
-148.5892883712664
30
6.541085571409865e-07
 70
     32
  0
VERTEX
  8
MY3DLAYER
10
6278.338986882149
20
-148.34553281068142
30
6.561012804634502e-07
 70
     32
  0
VERTEX
  8
MY3DLAYER
10
6278.910218677609
20
-148.08294647765902
30
6.577933544693603e-07
 70
     32
  0
VERTEX
  8
MY3DLAYER
10
6279.472553044436
20
-147.80181055622162
30
6.591830001123621e-07
 70
     32
  0
VERTEX
  8
MY3DLAYER
10
6280.025387820901
20
-147.50242609375576
30
6.602687182277744e-07
 70
     32
  0
VERTEX
  8
MY3DLAYER
10
6280.5681310176815
20
-147.18511367864244
30
6.610493575642805e-07
 70
     32
  0
VERTEX
  8
MY3DLAYER
10
6281.100201451767
20
-146.85021309696344
30
6.615240601470783e-07
 70
     32
  0
VERTEX
  8
MY3DLAYER
10
6281.621029368809
20
-146.49808296865055
30
6.616923166197219e-07
 70
     32
  0
VERTEX
  8
MY3DLAYER
10
6283.341758802894
20
-148.95553901396957
30
7.0640335119998e-07
 70
     32
  0
VERTEX
  8
MY3DLAYER
10
6297.882650046042
20
-148.9787595553232
30
8.312713168839857e-07
 70
     32
  0
VERTEX
  8
MY3DLAYER
10
6297.887440779571
20
-145.97876338051367
30
7.947282500087027e-07
 70
     32
  0
VERTEX
  8
MY3DLAYER
10
6312.42833202272
20
-146.00198392186732
30
9.195962266200785e-07
 70
     32
  0
VERTEX
  8
MY3DLAYER
10
6312.4235412891885
20
-149.00198009667682
30
9.561392942003532e-07
 70
     32
  0
VERTEX
  8
MY3DLAYER
10
6326.964432532337
20
-149.02520063803004
30
1.0810072711642248e-06
 70
     32
  0
VERTEX
  8
MY3DLAYER
10
6326.969223265867
20
-146.02520446322058
30
1.0444640118262293e-06
 70
     32
  0
VERTEX
  8
MY3DLAYER
10
6341.510114509015
20
-146.0484250045746
30
1.1693319891425968e-06
 70
     32
  0
VERTEX
  8
MY3DLAYER
10
6341.505323775484
20
-149.04842117938406
30
1.2058752477756006e-06
 70
     32
  0
VERTEX
  8
MY3DLAYER
10
6356.046215018632
20
-149.0716417207373
30
1.330743225091968e-06
 70
     32
  0
SEQEND
  0
POLYLINE
 8
Layer0
 66
     1
70
    8
 10
0.0
 20
 0.0
 30
0.0
  0
VERTEX
  8
MY3DLAYER
10
5996.246930561807
20
72.43775731116916
30
1.057649579028208e-10
 70
     32
  0
VERTEX
  8
MY3DLAYER
10
6004.526690699745
20
57.64075766154942
30
1.3366641127277035e-10
 70
     32
  0
VERTEX
  8
MY3DLAYER
10
6007.144606755339
20
59.10585681378646
30
1.3091271400256231e-10
 70
     32
  0
VERTEX
  8
MY3DLAYER
10
6015.401229990547
20
44.352489098426574
30
1.5864214941707643e-10
 70
     32
  0
VERTEX
  8
MY3DLAYER
10
6012.783313934952
20
42.887389946189515
30
1.6139584668728444e-10
 70
     32
  0
VERTEX
  8
MY3DLAYER
10
6021.010635187114
20
28.186380551941575
30
1.8892506448153767e-10
 70
     32
  0
VERTEX
  8
MY3DLAYER
10
6021.0106351871145
20
29.438820563712447
30
1.8655981759430062e-10
 70
     32
  0
VERTEX
  8
MY3DLAYER
10
6024.0106351871145
20
29.438820563712447
30
1.8655981759430062e-10
 70
     32
  0
VERTEX
  8
MY3DLAYER
10
6024.0106351871145
20
15.10584164789339
30
2.134651178042901e-10
 70
     32
  0
VERTEX
  8
MY3DLAYER
10
6021.0106351871145
20
15.10584164789339
30
2.134651178042901e-10
 70
     32
  0
VERTEX
  8
MY3DLAYER
10
6021.0106351871145
20
0.7728627320742202
30
2.4029145895276825e-10
 70
     32
  0
VERTEX
  8
MY3DLAYER
10
6024.0106351871145
20
0.7728627320742202
30
2.4029145895276825e-10
 70
     32
  0
VERTEX
  8
MY3DLAYER
10
6024.0106351871145
20
-13.560116183744904
30
2.6733211755392005e-10
 70
     32
  0
VERTEX
  8
MY3DLAYER
10
6033.186067409058
20
-13.560116183744949
30
2.673997967495012e-10
 70
     32
  0
VERTEX
  8
MY3DLAYER
10
6033.186067409058
20
-16.560116183745258
30
2.730495995972859e-10
 70
     32
  0
VERTEX
  8
MY3DLAYER
10
6021.0106351871145
20
-16.560116183745258
30
2.730495995972859e-10
 70
     32
  0
VERTEX
  8
MY3DLAYER
10
6021.0106351871145
20
-27.89309509956403
30
2.9425997749576993e-10
 70
     32
  0
VERTEX
  8
MY3DLAYER
10
6024.0106351871145
20
-27.89309509956403
30
2.9425997749576993e-10
 70
     32
  0
VERTEX
  8
MY3DLAYER
10
6024.0106351871145
20
-42.226074015383155
30
3.211652777057594e-10
 70
     32
  0
VERTEX
  8
MY3DLAYER
10
6021.0106351871145
20
-42.226074015383155
30
3.211652777057594e-10
 70
     32
  0
VERTEX
  8
MY3DLAYER
10
6021.0106351871145
20
-56.559052931202274
30
3.4813825711133005e-10
 70
     32
  0
VERTEX
  8
MY3DLAYER
10
6024.0106351871145
20
-56.559052931202274
30
3.4813825711133005e-10
 70
     32
  0
VERTEX
  8
MY3DLAYER
10
6024.0106351871145
20
-70.8920318470214
30
3.750773969191101e-10
 70
     32
  0
VERTEX
  8
MY3DLAYER
10
6021.0106351871145
20
-70.8920318470214
30
3.750773969191101e-10
 70
     32
  0
VERTEX
  8
MY3DLAYER
10
6021.010635187114
20
-85.22501076284061
30
4.021518951180525e-10
 70
     32
  0
VERTEX
  8
MY3DLAYER
10
6130.5895251846005
20
-85.22501076284057
30
4.021293353861921e-10
 70
     32
  0
VERTEX
  8
MY3DLAYER
10
6130.584604160166
20
-84.26005319928319
30
7.744191954373036e-11
 70
     32
  0
VERTEX
  8
MY3DLAYER
10
6130.584604160169
20
-72.89174739009631
30
7.744191954373036e-11
 70
     32
  0
VERTEX
  8
MY3DLAYER
10
6130.5846041601735
20
-61.523441580910884
30
7.744191954373036e-11
 70
     32
  0
VERTEX
  8
MY3DLAYER
10
6130.584604160178
20
-50.155135771724
30
7.744191954373036e-11
 70
     32
  0
VERTEX
  8
MY3DLAYER
10
6130.584604160183
20
-38.78682996253784
30
7.744191954373036e-11
 70
     32
  0
VERTEX
  8
MY3DLAYER
10
6130.584604160185
20
-27.41852415335096
30
7.744191954373036e-11
 70
     32
  0
VERTEX
  8
MY3DLAYER
10
6130.58460416019
20
-16.0502183441648
30
7.744191954373036e-11
 70
     32
  0
VERTEX
  8
MY3DLAYER
10
6130.584604160194
20
-4.6819125349786415
30
7.744191954373036e-11
 70
     32
  0
VERTEX
  8
MY3DLAYER
10
6130.584604160199
20
6.686393274208195
30
7.744191954373036e-11
 70
     32
  0
VERTEX
  8
MY3DLAYER
10
6130.584604160203
20
18.054699083393633
30
7.744191954373036e-11
 70
     32
  0
VERTEX
  8
MY3DLAYER
10
6130.584604160206
20
29.42300489258051
30
7.744191954373036e-11
 70
     32
  0
VERTEX
  8
MY3DLAYER
10
6130.584604160211
20
40.79131070176667
30
7.744191954373036e-11
 70
     32
  0
VERTEX
  8
MY3DLAYER
10
6130.584604160216
20
52.15961651095283
30
7.744191954373036e-11
 70
     32
  0
VERTEX
  8
MY3DLAYER
10
6130.58460416022
20
63.52792232013971
30
7.744191954373036e-11
 70
     32
  0
VERTEX
  8
MY3DLAYER
10
6130.5846041602235
20
74.89622812932515
30
7.744191954373036e-11
 70
     32
  0
VERTEX
  8
MY3DLAYER
10
6130.584604160227
20
86.26453393851203
30
7.744191954373036e-11
 70
     32
  0
VERTEX
  8
MY3DLAYER
10
6130.584604160233
20
97.63283974769818
30
7.744191954373036e-11
 70
     32
  0
VERTEX
  8
MY3DLAYER
10
6130.584604160237
20
109.00114555688506
30
7.744191954373036e-11
 70
     32
  0
VERTEX
  8
MY3DLAYER
10
6130.58460416024
20
120.36945136607123
30
7.74390995772478e-11
 70
     32
  0
VERTEX
  8
MY3DLAYER
10
6130.584604160244
20
128.73775717525734
30
7.925233802552611e-11
 70
     32
  0
VERTEX
  8
MY3DLAYER
10
5891.855103191688
20
128.73775717525734
30
4.5824455341403335e-15
 70
     32
  0
VERTEX
  8
MY3DLAYER
10
5891.855103191688
20
75.43775731116916
30
1.0018283425061725e-10
 70
     32
  0
VERTEX
  8
MY3DLAYER
10
5903.223409000874
20
75.43775731116932
30
1.0043099130108146e-10
 70
     32
  0
VERTEX
  8
MY3DLAYER
10
5903.223409000874
20
72.43775731116932
30
1.060356746851454e-10
 70
     32
  0
VERTEX
  8
MY3DLAYER
10
5914.591714810062
20
72.43775731116948
30
1.0628383173560961e-10
 70
     32
  0
VERTEX
  8
MY3DLAYER
10
5914.591714810062
20
75.43775731116948
30
1.0067914835154567e-10
 70
     32
  0
VERTEX
  8
MY3DLAYER
10
5925.960020619248
20
75.43775731116963
30
1.0092730540200989e-10
 70
     32
  0
VERTEX
  8
MY3DLAYER
10
5925.960020619248
20
72.43775731116963
30
1.0653198878607384e-10
 70
     32
  0
VERTEX
  8
MY3DLAYER
10
5937.328326428435
20
72.43775731116979
30
1.0678014583653805e-10
 70
     32
  0
VERTEX
  8
MY3DLAYER
10
5937.328326428435
20
75.43775731116979
30
1.011754624524741e-10
 70
     32
  0
VERTEX
  8
MY3DLAYER
10
5948.696632237622
20
75.43775731116995
30
1.0142361950293832e-10
 70
     32
  0
VERTEX
  8
MY3DLAYER
10
5948.696632237622
20
72.43775731116996
30
1.0702830288700227e-10
 70
     32
  0
VERTEX
  8
MY3DLAYER
10
5960.0649380468085
20
72.43775731117012
30
1.0727645993746648e-10
 70
     32
  0
VERTEX
  8
MY3DLAYER
10
5960.0649380468085
20
75.4377573111701
30
1.0167177655340253e-10
 70
     32
  0
VERTEX
  8
MY3DLAYER
10
5971.433243855996
20
75.43775731117026
30
1.0191993360386674e-10
 70
     32
  0
VERTEX
  8
MY3DLAYER
10
5971.433243855996
20
72.43775731117027
30
1.0752461698793069e-10
 70
     32
  0
VERTEX
  8
MY3DLAYER
10
5982.801549665182
20
72.43775731117043
30
1.0777277403839491e-10
 70
     32
  0
VERTEX
  8
MY3DLAYER
10
5982.801549665182
20
75.43775731117043
30
1.0216809065433096e-10
 70
     32
  0
VERTEX
  8
MY3DLAYER
10
5994.169855474369
20
75.43775731117059
30
1.0241624770479517e-10
 70
     32
  0
VERTEX
  8
MY3DLAYER
10
5994.169855474369
20
72.43775731117059
30
1.0802093108885912e-10
 70
     32
  0
VERTEX
  8
MY3DLAYER
10
5996.246930561807
20
72.43775731116916
30
1.057649579028208e-10
 70
     32
  0
SEQEND
  0
POLYLINE
 8
Layer0
 66
     1
70
    8
 10
0.0
 20
 0.0
 30
0.0
  0
VERTEX
  8
MY3DLAYER
10
6118.5148106631
20
-13.558425031215087
30
2.674417437509291e-10
 70
     32
  0
VERTEX
  8
MY3DLAYER
10
6127.690242885043
20
-13.558425031215087
30
2.674304638849989e-10
 70
     32
  0
VERTEX
  8
MY3DLAYER
10
6127.690242885043
20
-16.558425031215084
30
2.730689868668534e-10
 70
     32
  0
VERTEX
  8
MY3DLAYER
10
6118.5148106631
20
-16.558425031215084
30
2.7308026673278363e-10
 70
     32
  0
VERTEX
  8
MY3DLAYER
10
6118.5148106631
20
-13.558425031215087
30
2.674417437509291e-10
 70
     32
  0
SEQEND
  0
POLYLINE
 8
Layer0
 66
     1
70
    8
 10
0.0
 20
 0.0
 30
0.0
  0
VERTEX
  8
MY3DLAYER
10
6094.163946219214
20
-16.558425031215084
30
2.7308026673278363e-10
 70
     32
  0
VERTEX
  8
MY3DLAYER
10
6094.163946219214
20
-13.558425031215087
30
2.674417437509291e-10
 70
     32
  0
VERTEX
  8
MY3DLAYER
10
6106.339378441156
20
-13.558425031215087
30
2.674417437509291e-10
 70
     32
  0
VERTEX
  8
MY3DLAYER
10
6106.339378441156
20
-16.558425031215084
30
2.7308026673278363e-10
 70
     32
  0
VERTEX
  8
MY3DLAYER
10
6094.163946219214
20
-16.558425031215084
30
2.7308026673278363e-10
 70
     32
  0
SEQEND
  0
POLYLINE
 8
Layer0
 66
     1
70
    8
 10
0.0
 20
 0.0
 30
0.0
  0
VERTEX
  8
MY3DLAYER
10
6069.813081775329
20
-16.558425031215084
30
2.7308026673278363e-10
 70
     32
  0
VERTEX
  8
MY3DLAYER
10
6069.813081775329
20
-13.558425031215087
30
2.674417437509291e-10
 70
     32
  0
VERTEX
  8
MY3DLAYER
10
6081.988513997271
20
-13.558425031215087
30
2.674417437509291e-10
 70
     32
  0
VERTEX
  8
MY3DLAYER
10
6081.988513997271
20
-16.558425031215084
30
2.7308026673278363e-10
 70
     32
  0
VERTEX
  8
MY3DLAYER
10
6069.813081775329
20
-16.558425031215084
30
2.7308026673278363e-10
 70
     32
  0
SEQEND
  0
POLYLINE
 8
Layer0
 66
     1
70
    8
 10
0.0
 20
 0.0
 30
0.0
  0
VERTEX
  8
MY3DLAYER
10
6045.462217331443
20
-16.558425031215084
30
2.7308026673278363e-10
 70
     32
  0
VERTEX
  8
MY3DLAYER
10
6045.462217331443
20
-13.558425031215087
30
2.674417437509291e-10
 70
     32
  0
VERTEX
  8
MY3DLAYER
10
6057.637649553385
20
-13.558425031215087
30
2.674417437509291e-10
 70
     32
  0
VERTEX
  8
MY3DLAYER
10
6057.637649553385
20
-16.558425031215084
30
2.7308026673278363e-10
 70
     32
  0
VERTEX
  8
MY3DLAYER
10
6045.462217331443
20
-16.558425031215084
30
2.7308026673278363e-10
 70
     32
  0
SEQEND
  0
POLYLINE
 8
Layer0
 66
     1
70
    8
 10
0.0
 20
 0.0
 30
0.0
  0
VERTEX
  8
MY3DLAYER
10
6024.0106351871145
20
43.77179947953157
30
1.606245858543076e-10
 70
     32
  0
VERTEX
  8
MY3DLAYER
10
6021.0106351871145
20
43.77179947953157
30
1.606358657202378e-10
 70
     32
  0
VERTEX
  8
MY3DLAYER
10
6021.0106351871145
20
58.10477839535071
30
1.3369672591245774e-10
 70
     32
  0
VERTEX
  8
MY3DLAYER
10
6024.0106351871145
20
58.10477839535071
30
1.3369672591245774e-10
 70
     32
  0
VERTEX
  8
MY3DLAYER
10
6024.0106351871145
20
43.77179947953157
30
1.606245858543076e-10
 70
     32
  0
SEQEND
  0
POLYLINE
 8
Layer0
 66
     1
70
    8
 10
0.0
 20
 0.0
 30
0.0
  0
VERTEX
  8
MY3DLAYER
10
6119.221219375413
20
75.4377573111491
30
1.0045355103294184e-10
 70
     32
  0
VERTEX
  8
MY3DLAYER
10
6127.589525184601
20
75.43775731116916
30
1.0043099130108146e-10
 70
     32
  0
VERTEX
  8
MY3DLAYER
10
6127.589525184601
20
72.43775731116914
30
1.060356746851454e-10
 70
     32
  0
VERTEX
  8
MY3DLAYER
10
6119.221219375413
20
72.43775731116914
30
1.060356746851454e-10
 70
     32
  0
VERTEX
  8
MY3DLAYER
10
6119.221219375413
20
75.4377573111491
30
1.0045355103294184e-10
 70
     32
  0
SEQEND
  0
POLYLINE
 8
Layer0
 66
     1
70
    8
 10
0.0
 20
 0.0
 30
0.0
  0
VERTEX
  8
MY3DLAYER
10
6107.852913566228
20
75.43775731114974
30
9.919020604876038e-11
 70
     32
  0
VERTEX
  8
MY3DLAYER
10
6107.852913566228
20
72.43775731116978
30
1.060356746851454e-10
 70
     32
  0
VERTEX
  8
MY3DLAYER
10
6096.484607757041
20
72.43775731116978
30
1.060356746851454e-10
 70
     32
  0
VERTEX
  8
MY3DLAYER
10
6096.484607757041
20
75.43775731114974
30
1.0045355103294184e-10
 70
     32
  0
VERTEX
  8
MY3DLAYER
10
6107.852913566228
20
75.43775731114974
30
9.919020604876038e-11
 70
     32
  0
SEQEND
  0
POLYLINE
 8
Layer0
 66
     1
70
    8
 10
0.0
 20
 0.0
 30
0.0
  0
VERTEX
  8
MY3DLAYER
10
6085.116301947856
20
75.43775731114974
30
9.919020604876038e-11
 70
     32
  0
VERTEX
  8
MY3DLAYER
10
6085.116301947856
20
72.43775731116978
30
1.060356746851454e-10
 70
     32
  0
VERTEX
  8
MY3DLAYER
10
6073.747996138669
20
72.43775731116978
30
1.060356746851454e-10
 70
     32
  0
VERTEX
  8
MY3DLAYER
10
6073.747996138669
20
75.43775731114974
30
1.0045355103294184e-10
 70
     32
  0
VERTEX
  8
MY3DLAYER
10
6085.116301947856
20
75.43775731114974
30
9.919020604876038e-11
 70
     32
  0
SEQEND
  0
POLYLINE
 8
Layer0
 66
     1
70
    8
 10
0.0
 20
 0.0
 30
0.0
  0
VERTEX
  8
MY3DLAYER
10
6062.379690329484
20
75.43775731114974
30
9.919020604876038e-11
 70
     32
  0
VERTEX
  8
MY3DLAYER
10
6062.379690329484
20
72.43775731116978
30
1.060356746851454e-10
 70
     32
  0
VERTEX
  8
MY3DLAYER
10
6051.011384520297
20
72.43775731116978
30
1.060356746851454e-10
 70
     32
  0
VERTEX
  8
MY3DLAYER
10
6051.011384520297
20
75.43775731114974
30
1.0045355103294184e-10
 70
     32
  0
VERTEX
  8
MY3DLAYER
10
6062.379690329484
20
75.43775731114974
30
9.919020604876038e-11
 70
     32
  0
SEQEND
  0
POLYLINE
 8
Layer0
 66
     1
70
    8
 10
0.0
 20
 0.0
 30
0.0
  0
VERTEX
  8
MY3DLAYER
10
6039.643078711112
20
75.43775731114974
30
9.919020604876038e-11
 70
     32
  0
VERTEX
  8
MY3DLAYER
10
6039.643078711112
20
72.43775731116978
30
1.060356746851454e-10
 70
     32
  0
VERTEX
  8
MY3DLAYER
10
6028.274772901924
20
72.43775731116978
30
1.060356746851454e-10
 70
     32
  0
VERTEX
  8
MY3DLAYER
10
6028.274772901924
20
75.43775731114974
30
1.0045355103294184e-10
 70
     32
  0
VERTEX
  8
MY3DLAYER
10
6039.643078711112
20
75.43775731114974
30
9.919020604876038e-11
 70
     32
  0
SEQEND
  0
POLYLINE
 8
Layer0
 66
     1
70
    8
 10
0.0
 20
 0.0
 30
0.0
  0
VERTEX
  8
MY3DLAYER
10
6016.906467092739
20
75.43775731114974
30
9.919020604876038e-11
 70
     32
  0
VERTEX
  8
MY3DLAYER
10
6016.906467092739
20
72.43775731116978
30
1.060356746851454e-10
 70
     32
  0
VERTEX
  8
MY3DLAYER
10
6005.538161283552
20
72.43775731116978
30
1.060356746851454e-10
 70
     32
  0
VERTEX
  8
MY3DLAYER
10
6005.538161283552
20
75.43775731114974
30
1.0045355103294184e-10
 70
     32
  0
VERTEX
  8
MY3DLAYER
10
6016.906467092739
20
75.43775731114974
30
9.919020604876038e-11
 70
     32
  0
SEQEND
 0
ENDSEC
 0
EOF
