  0
SECTION
  2
HEADER
  9
$ACADVER
  1
AC1009
  9
$EXTMIN
 10
0.0
 20
0.0
 30
0.0
  9
$EXTMAX
 10
1000.0
 20
1000.0
 30
0.0
  9
$FILLMODE
 70
 0
  9
$SPLFRAME
 70
 1
  0
ENDSEC
  0
SECTION
  2
TABLES
  0
TABLE
  2
LAYER
 70
1
  0
LAYER
  2
0
 70
     0
 62
     7
  6
CONTINUOUS
  0
ENDTAB
  0
ENDSEC
  0
SECTION
  2
ENTITIES
  0
POLYLINE
  8
0
 62
     0
 66
     1
 10
0
 20
0
 30
0.0
 70
     1
 40
0
 41
0
  0
VERTEX
  8
0
 10
0
 20
140.7
 30
0.0
 40
0
 41
0
  0
VERTEX
  8
0
 10
8.42692
 20
152.517
 30
0.0
 40
0
 41
0
  0
VERTEX
  8
0
 10
16.4269
 20
152.517
 30
0.0
 40
0
 41
0
  0
VERTEX
  8
0
 10
16.4269
 20
153.017
 30
0.0
 40
0
 41
0
  0
VERTEX
  8
0
 10
20.4269
 20
152.517
 30
0.0
 40
0
 41
0
  0
VERTEX
  8
0
 10
20.4269
 20
145.186
 30
0.0
 40
0
 41
0
  0
VERTEX
  8
0
 10
16.4269
 20
144.686
 30
0.0
 40
0
 41
0
  0
VERTEX
  8
0
 10
16.4269
 20
145.186
 30
0.0
 40
0
 41
0
  0
VERTEX
  8
0
 10
12.4269
 20
145.186
 30
0.0
 40
0
 41
0
  0
VERTEX
  8
0
 10
12.4269
 20
140.751
 30
0.0
 40
0
 41
0
  0
VERTEX
  8
0
 10
8.23443
 20
139.307
 30
0.0
 40
0
 41
0
  0
VERTEX
  8
0
 10
9.5376
 20
135.525
 30
0.0
 40
0
 41
0
  0
VERTEX
  8
0
 10
10.0103
 20
135.688
 30
0.0
 40
0
 41
0
  0
VERTEX
  8
0
 10
10.8407
 20
131.743
 30
0.0
 40
0
 41
0
  0
VERTEX
  8
0
 10
3.9094
 20
129.355
 30
0.0
 40
0
 41
0
  0
VERTEX
  8
0
 10
2.13351
 20
132.974
 30
0.0
 40
0
 41
0
  0
VERTEX
  8
0
 10
2.60622
 20
133.137
 30
0.0
 40
0
 41
0
  0
VERTEX
  8
0
 10
1.30311
 20
136.918
 30
0.0
 40
0
 41
0
  0
VERTEX
  8
0
 10
0
 20
140.7
 30
0.0
 40
0
 41
0
  0
SEQEND
 8
0
  0
POLYLINE
  8
0
 62
     0
 66
     1
 10
0
 20
0
 30
0.0
 70
     1
 40
0
 41
0
  0
VERTEX
  8
0
 10
33.8101
 20
132.656
 30
0.0
 40
0
 41
0
  0
VERTEX
  8
0
 10
21.9933
 20
141.083
 30
0.0
 40
0
 41
0
  0
VERTEX
  8
0
 10
21.9933
 20
149.083
 30
0.0
 40
0
 41
0
  0
VERTEX
  8
0
 10
21.4933
 20
149.083
 30
0.0
 40
0
 41
0
  0
VERTEX
  8
0
 10
21.9933
 20
153.083
 30
0.0
 40
0
 41
0
  0
VERTEX
  8
0
 10
29.3246
 20
153.083
 30
0.0
 40
0
 41
0
  0
VERTEX
  8
0
 10
29.8246
 20
149.083
 30
0.0
 40
0
 41
0
  0
VERTEX
  8
0
 10
29.3246
 20
149.083
 30
0.0
 40
0
 41
0
  0
VERTEX
  8
0
 10
29.3246
 20
145.083
 30
0.0
 40
0
 41
0
  0
VERTEX
  8
0
 10
33.7589
 20
145.083
 30
0.0
 40
0
 41
0
  0
VERTEX
  8
0
 10
35.2036
 20
140.89
 30
0.0
 40
0
 41
0
  0
VERTEX
  8
0
 10
38.9854
 20
142.194
 30
0.0
 40
0
 41
0
  0
VERTEX
  8
0
 10
38.8224
 20
142.667
 30
0.0
 40
0
 41
0
  0
VERTEX
  8
0
 10
42.7671
 20
143.497
 30
0.0
 40
0
 41
0
  0
VERTEX
  8
0
 10
45.1556
 20
136.566
 30
0.0
 40
0
 41
0
  0
VERTEX
  8
0
 10
41.5367
 20
134.79
 30
0.0
 40
0
 41
0
  0
VERTEX
  8
0
 10
41.3737
 20
135.263
 30
0.0
 40
0
 41
0
  0
VERTEX
  8
0
 10
37.5919
 20
133.96
 30
0.0
 40
0
 41
0
  0
VERTEX
  8
0
 10
33.8101
 20
132.656
 30
0.0
 40
0
 41
0
  0
SEQEND
 8
0
  0
POLYLINE
  8
0
 62
     0
 66
     1
 10
0
 20
0
 30
0.0
 70
     1
 40
0
 41
0
  0
VERTEX
  8
0
 10
45.0789
 20
140.7
 30
0.0
 40
0
 41
0
  0
VERTEX
  8
0
 10
53.5058
 20
152.517
 30
0.0
 40
0
 41
0
  0
VERTEX
  8
0
 10
61.5058
 20
152.517
 30
0.0
 40
0
 41
0
  0
VERTEX
  8
0
 10
61.5058
 20
153.017
 30
0.0
 40
0
 41
0
  0
VERTEX
  8
0
 10
65.5058
 20
152.517
 30
0.0
 40
0
 41
0
  0
VERTEX
  8
0
 10
65.5058
 20
145.186
 30
0.0
 40
0
 41
0
  0
VERTEX
  8
0
 10
61.5058
 20
144.686
 30
0.0
 40
0
 41
0
  0
VERTEX
  8
0
 10
61.5058
 20
145.186
 30
0.0
 40
0
 41
0
  0
VERTEX
  8
0
 10
57.5058
 20
145.186
 30
0.0
 40
0
 41
0
  0
VERTEX
  8
0
 10
57.5058
 20
140.751
 30
0.0
 40
0
 41
0
  0
VERTEX
  8
0
 10
53.3133
 20
139.307
 30
0.0
 40
0
 41
0
  0
VERTEX
  8
0
 10
54.6165
 20
135.525
 30
0.0
 40
0
 41
0
  0
VERTEX
  8
0
 10
55.0892
 20
135.688
 30
0.0
 40
0
 41
0
  0
VERTEX
  8
0
 10
55.9196
 20
131.743
 30
0.0
 40
0
 41
0
  0
VERTEX
  8
0
 10
48.9883
 20
129.355
 30
0.0
 40
0
 41
0
  0
VERTEX
  8
0
 10
47.2124
 20
132.974
 30
0.0
 40
0
 41
0
  0
VERTEX
  8
0
 10
47.6851
 20
133.137
 30
0.0
 40
0
 41
0
  0
VERTEX
  8
0
 10
46.3819
 20
136.918
 30
0.0
 40
0
 41
0
  0
VERTEX
  8
0
 10
45.0789
 20
140.7
 30
0.0
 40
0
 41
0
  0
SEQEND
 8
0
  0
POLYLINE
  8
0
 62
     0
 66
     1
 10
0
 20
0
 30
0.0
 70
     1
 40
0
 41
0
  0
VERTEX
  8
0
 10
77.9676
 20
153.038
 30
0.0
 40
0
 41
0
  0
VERTEX
  8
0
 10
89.7846
 20
144.611
 30
0.0
 40
0
 41
0
  0
VERTEX
  8
0
 10
89.7846
 20
136.611
 30
0.0
 40
0
 41
0
  0
VERTEX
  8
0
 10
90.2846
 20
136.611
 30
0.0
 40
0
 41
0
  0
VERTEX
  8
0
 10
89.7846
 20
132.611
 30
0.0
 40
0
 41
0
  0
VERTEX
  8
0
 10
82.4532
 20
132.611
 30
0.0
 40
0
 41
0
  0
VERTEX
  8
0
 10
81.9532
 20
136.611
 30
0.0
 40
0
 41
0
  0
VERTEX
  8
0
 10
82.4532
 20
136.611
 30
0.0
 40
0
 41
0
  0
VERTEX
  8
0
 10
82.4532
 20
140.611
 30
0.0
 40
0
 41
0
  0
VERTEX
  8
0
 10
78.0189
 20
140.611
 30
0.0
 40
0
 41
0
  0
VERTEX
  8
0
 10
76.5743
 20
144.804
 30
0.0
 40
0
 41
0
  0
VERTEX
  8
0
 10
72.7925
 20
143.5
 30
0.0
 40
0
 41
0
  0
VERTEX
  8
0
 10
72.9554
 20
143.028
 30
0.0
 40
0
 41
0
  0
VERTEX
  8
0
 10
69.0107
 20
142.197
 30
0.0
 40
0
 41
0
  0
VERTEX
  8
0
 10
66.6222
 20
149.129
 30
0.0
 40
0
 41
0
  0
VERTEX
  8
0
 10
70.2413
 20
150.904
 30
0.0
 40
0
 41
0
  0
VERTEX
  8
0
 10
70.404
 20
150.432
 30
0.0
 40
0
 41
0
  0
VERTEX
  8
0
 10
77.9676
 20
153.038
 30
0.0
 40
0
 41
0
  0
SEQEND
 8
0
  0
POLYLINE
  8
0
 62
     0
 66
     1
 10
0
 20
0
 30
0.0
 70
     1
 40
0
 41
0
  0
VERTEX
  8
0
 10
111.778
 20
141.621
 30
0.0
 40
0
 41
0
  0
VERTEX
  8
0
 10
103.351
 20
129.805
 30
0.0
 40
0
 41
0
  0
VERTEX
  8
0
 10
95.351
 20
129.805
 30
0.0
 40
0
 41
0
  0
VERTEX
  8
0
 10
95.351
 20
129.305
 30
0.0
 40
0
 41
0
  0
VERTEX
  8
0
 10
91.351
 20
129.805
 30
0.0
 40
0
 41
0
  0
VERTEX
  8
0
 10
91.351
 20
137.136
 30
0.0
 40
0
 41
0
  0
VERTEX
  8
0
 10
95.351
 20
137.636
 30
0.0
 40
0
 41
0
  0
VERTEX
  8
0
 10
95.351
 20
137.136
 30
0.0
 40
0
 41
0
  0
VERTEX
  8
0
 10
99.351
 20
137.136
 30
0.0
 40
0
 41
0
  0
VERTEX
  8
0
 10
99.351
 20
141.571
 30
0.0
 40
0
 41
0
  0
VERTEX
  8
0
 10
103.543
 20
143.015
 30
0.0
 40
0
 41
0
  0
VERTEX
  8
0
 10
102.24
 20
146.797
 30
0.0
 40
0
 41
0
  0
VERTEX
  8
0
 10
101.767
 20
146.633
 30
0.0
 40
0
 41
0
  0
VERTEX
  8
0
 10
100.937
 20
150.578
 30
0.0
 40
0
 41
0
  0
VERTEX
  8
0
 10
107.868
 20
152.967
 30
0.0
 40
0
 41
0
  0
VERTEX
  8
0
 10
109.644
 20
149.349
 30
0.0
 40
0
 41
0
  0
VERTEX
  8
0
 10
109.172
 20
149.185
 30
0.0
 40
0
 41
0
  0
VERTEX
  8
0
 10
110.475
 20
145.403
 30
0.0
 40
0
 41
0
  0
VERTEX
  8
0
 10
111.778
 20
141.621
 30
0.0
 40
0
 41
0
  0
SEQEND
 8
0
  0
POLYLINE
  8
0
 62
     0
 66
     1
 10
0
 20
0
 30
0.0
 70
     1
 40
0
 41
0
  0
VERTEX
  8
0
 10
122.115
 20
153.038
 30
0.0
 40
0
 41
0
  0
VERTEX
  8
0
 10
133.932
 20
144.611
 30
0.0
 40
0
 41
0
  0
VERTEX
  8
0
 10
133.932
 20
136.611
 30
0.0
 40
0
 41
0
  0
VERTEX
  8
0
 10
134.432
 20
136.611
 30
0.0
 40
0
 41
0
  0
VERTEX
  8
0
 10
133.932
 20
132.611
 30
0.0
 40
0
 41
0
  0
VERTEX
  8
0
 10
126.601
 20
132.611
 30
0.0
 40
0
 41
0
  0
VERTEX
  8
0
 10
126.101
 20
136.611
 30
0.0
 40
0
 41
0
  0
VERTEX
  8
0
 10
126.601
 20
136.611
 30
0.0
 40
0
 41
0
  0
VERTEX
  8
0
 10
126.601
 20
140.611
 30
0.0
 40
0
 41
0
  0
VERTEX
  8
0
 10
122.166
 20
140.611
 30
0.0
 40
0
 41
0
  0
VERTEX
  8
0
 10
120.722
 20
144.804
 30
0.0
 40
0
 41
0
  0
VERTEX
  8
0
 10
116.94
 20
143.5
 30
0.0
 40
0
 41
0
  0
VERTEX
  8
0
 10
117.103
 20
143.028
 30
0.0
 40
0
 41
0
  0
VERTEX
  8
0
 10
113.158
 20
142.197
 30
0.0
 40
0
 41
0
  0
VERTEX
  8
0
 10
110.77
 20
149.129
 30
0.0
 40
0
 41
0
  0
VERTEX
  8
0
 10
114.389
 20
150.904
 30
0.0
 40
0
 41
0
  0
VERTEX
  8
0
 10
114.552
 20
150.432
 30
0.0
 40
0
 41
0
  0
VERTEX
  8
0
 10
122.115
 20
153.038
 30
0.0
 40
0
 41
0
  0
SEQEND
 8
0
  0
POLYLINE
  8
0
 62
     0
 66
     1
 10
0
 20
0
 30
0.0
 70
     1
 40
0
 41
0
  0
VERTEX
  8
0
 10
134.977
 20
140.7
 30
0.0
 40
0
 41
0
  0
VERTEX
  8
0
 10
143.404
 20
152.517
 30
0.0
 40
0
 41
0
  0
VERTEX
  8
0
 10
151.404
 20
152.517
 30
0.0
 40
0
 41
0
  0
VERTEX
  8
0
 10
151.404
 20
153.017
 30
0.0
 40
0
 41
0
  0
VERTEX
  8
0
 10
155.404
 20
152.517
 30
0.0
 40
0
 41
0
  0
VERTEX
  8
0
 10
155.404
 20
145.186
 30
0.0
 40
0
 41
0
  0
VERTEX
  8
0
 10
151.404
 20
144.686
 30
0.0
 40
0
 41
0
  0
VERTEX
  8
0
 10
151.404
 20
145.186
 30
0.0
 40
0
 41
0
  0
VERTEX
  8
0
 10
147.404
 20
145.186
 30
0.0
 40
0
 41
0
  0
VERTEX
  8
0
 10
147.404
 20
140.751
 30
0.0
 40
0
 41
0
  0
VERTEX
  8
0
 10
143.212
 20
139.307
 30
0.0
 40
0
 41
0
  0
VERTEX
  8
0
 10
144.515
 20
135.525
 30
0.0
 40
0
 41
0
  0
VERTEX
  8
0
 10
144.987
 20
135.688
 30
0.0
 40
0
 41
0
  0
VERTEX
  8
0
 10
145.818
 20
131.743
 30
0.0
 40
0
 41
0
  0
VERTEX
  8
0
 10
138.887
 20
129.355
 30
0.0
 40
0
 41
0
  0
VERTEX
  8
0
 10
137.111
 20
132.974
 30
0.0
 40
0
 41
0
  0
VERTEX
  8
0
 10
137.584
 20
133.137
 30
0.0
 40
0
 41
0
  0
VERTEX
  8
0
 10
136.281
 20
136.918
 30
0.0
 40
0
 41
0
  0
VERTEX
  8
0
 10
134.977
 20
140.7
 30
0.0
 40
0
 41
0
  0
SEQEND
 8
0
  0
POLYLINE
  8
0
 62
     0
 66
     1
 10
0
 20
0
 30
0.0
 70
     1
 40
0
 41
0
  0
VERTEX
  8
0
 10
168.788
 20
132.656
 30
0.0
 40
0
 41
0
  0
VERTEX
  8
0
 10
156.971
 20
141.083
 30
0.0
 40
0
 41
0
  0
VERTEX
  8
0
 10
156.971
 20
149.083
 30
0.0
 40
0
 41
0
  0
VERTEX
  8
0
 10
156.471
 20
149.083
 30
0.0
 40
0
 41
0
  0
VERTEX
  8
0
 10
156.971
 20
153.083
 30
0.0
 40
0
 41
0
  0
VERTEX
  8
0
 10
164.301
 20
153.083
 30
0.0
 40
0
 41
0
  0
VERTEX
  8
0
 10
164.801
 20
149.083
 30
0.0
 40
0
 41
0
  0
VERTEX
  8
0
 10
164.301
 20
149.083
 30
0.0
 40
0
 41
0
  0
VERTEX
  8
0
 10
164.301
 20
145.083
 30
0.0
 40
0
 41
0
  0
VERTEX
  8
0
 10
168.736
 20
145.083
 30
0.0
 40
0
 41
0
  0
VERTEX
  8
0
 10
170.181
 20
140.89
 30
0.0
 40
0
 41
0
  0
VERTEX
  8
0
 10
173.962
 20
142.194
 30
0.0
 40
0
 41
0
  0
VERTEX
  8
0
 10
173.8
 20
142.667
 30
0.0
 40
0
 41
0
  0
VERTEX
  8
0
 10
177.744
 20
143.497
 30
0.0
 40
0
 41
0
  0
VERTEX
  8
0
 10
180.133
 20
136.566
 30
0.0
 40
0
 41
0
  0
VERTEX
  8
0
 10
176.514
 20
134.79
 30
0.0
 40
0
 41
0
  0
VERTEX
  8
0
 10
176.351
 20
135.263
 30
0.0
 40
0
 41
0
  0
VERTEX
  8
0
 10
172.569
 20
133.96
 30
0.0
 40
0
 41
0
  0
VERTEX
  8
0
 10
168.788
 20
132.656
 30
0.0
 40
0
 41
0
  0
SEQEND
 8
0
  0
POLYLINE
  8
0
 62
     0
 66
     1
 10
0
 20
0
 30
0.0
 70
     1
 40
0
 41
0
  0
VERTEX
  8
0
 10
180.057
 20
140.7
 30
0.0
 40
0
 41
0
  0
VERTEX
  8
0
 10
188.483
 20
152.517
 30
0.0
 40
0
 41
0
  0
VERTEX
  8
0
 10
196.483
 20
152.517
 30
0.0
 40
0
 41
0
  0
VERTEX
  8
0
 10
196.483
 20
153.017
 30
0.0
 40
0
 41
0
  0
VERTEX
  8
0
 10
200.483
 20
152.517
 30
0.0
 40
0
 41
0
  0
VERTEX
  8
0
 10
200.483
 20
145.186
 30
0.0
 40
0
 41
0
  0
VERTEX
  8
0
 10
196.483
 20
144.686
 30
0.0
 40
0
 41
0
  0
VERTEX
  8
0
 10
196.483
 20
145.186
 30
0.0
 40
0
 41
0
  0
VERTEX
  8
0
 10
192.483
 20
145.186
 30
0.0
 40
0
 41
0
  0
VERTEX
  8
0
 10
192.483
 20
140.751
 30
0.0
 40
0
 41
0
  0
VERTEX
  8
0
 10
188.29
 20
139.307
 30
0.0
 40
0
 41
0
  0
VERTEX
  8
0
 10
189.594
 20
135.525
 30
0.0
 40
0
 41
0
  0
VERTEX
  8
0
 10
190.067
 20
135.688
 30
0.0
 40
0
 41
0
  0
VERTEX
  8
0
 10
190.897
 20
131.743
 30
0.0
 40
0
 41
0
  0
VERTEX
  8
0
 10
183.965
 20
129.355
 30
0.0
 40
0
 41
0
  0
VERTEX
  8
0
 10
182.19
 20
132.974
 30
0.0
 40
0
 41
0
  0
VERTEX
  8
0
 10
182.663
 20
133.137
 30
0.0
 40
0
 41
0
  0
VERTEX
  8
0
 10
181.36
 20
136.918
 30
0.0
 40
0
 41
0
  0
VERTEX
  8
0
 10
180.057
 20
140.7
 30
0.0
 40
0
 41
0
  0
SEQEND
 8
0
  0
POLYLINE
  8
0
 62
     0
 66
     1
 10
0
 20
0
 30
0.0
 70
     1
 40
0
 41
0
  0
VERTEX
  8
0
 10
198.714
 20
140.7
 30
0.0
 40
0
 41
0
  0
VERTEX
  8
0
 10
207.14
 20
152.517
 30
0.0
 40
0
 41
0
  0
VERTEX
  8
0
 10
215.14
 20
152.517
 30
0.0
 40
0
 41
0
  0
VERTEX
  8
0
 10
215.14
 20
153.017
 30
0.0
 40
0
 41
0
  0
VERTEX
  8
0
 10
219.14
 20
152.517
 30
0.0
 40
0
 41
0
  0
VERTEX
  8
0
 10
219.14
 20
145.186
 30
0.0
 40
0
 41
0
  0
VERTEX
  8
0
 10
215.14
 20
144.686
 30
0.0
 40
0
 41
0
  0
VERTEX
  8
0
 10
215.14
 20
145.186
 30
0.0
 40
0
 41
0
  0
VERTEX
  8
0
 10
211.14
 20
145.186
 30
0.0
 40
0
 41
0
  0
VERTEX
  8
0
 10
211.14
 20
140.751
 30
0.0
 40
0
 41
0
  0
VERTEX
  8
0
 10
206.947
 20
139.307
 30
0.0
 40
0
 41
0
  0
VERTEX
  8
0
 10
208.251
 20
135.525
 30
0.0
 40
0
 41
0
  0
VERTEX
  8
0
 10
208.724
 20
135.688
 30
0.0
 40
0
 41
0
  0
VERTEX
  8
0
 10
209.554
 20
131.743
 30
0.0
 40
0
 41
0
  0
VERTEX
  8
0
 10
202.622
 20
129.355
 30
0.0
 40
0
 41
0
  0
VERTEX
  8
0
 10
200.847
 20
132.974
 30
0.0
 40
0
 41
0
  0
VERTEX
  8
0
 10
201.319
 20
133.137
 30
0.0
 40
0
 41
0
  0
VERTEX
  8
0
 10
200.017
 20
136.918
 30
0.0
 40
0
 41
0
  0
VERTEX
  8
0
 10
198.714
 20
140.7
 30
0.0
 40
0
 41
0
  0
SEQEND
 8
0
  0
POLYLINE
  8
0
 62
     0
 66
     1
 10
0
 20
0
 30
0.0
 70
     1
 40
0
 41
0
  0
VERTEX
  8
0
 10
231.601
 20
153.038
 30
0.0
 40
0
 41
0
  0
VERTEX
  8
0
 10
243.419
 20
144.611
 30
0.0
 40
0
 41
0
  0
VERTEX
  8
0
 10
243.419
 20
136.611
 30
0.0
 40
0
 41
0
  0
VERTEX
  8
0
 10
243.919
 20
136.611
 30
0.0
 40
0
 41
0
  0
VERTEX
  8
0
 10
243.419
 20
132.611
 30
0.0
 40
0
 41
0
  0
VERTEX
  8
0
 10
236.088
 20
132.611
 30
0.0
 40
0
 41
0
  0
VERTEX
  8
0
 10
235.588
 20
136.611
 30
0.0
 40
0
 41
0
  0
VERTEX
  8
0
 10
236.088
 20
136.611
 30
0.0
 40
0
 41
0
  0
VERTEX
  8
0
 10
236.088
 20
140.611
 30
0.0
 40
0
 41
0
  0
VERTEX
  8
0
 10
231.653
 20
140.611
 30
0.0
 40
0
 41
0
  0
VERTEX
  8
0
 10
230.208
 20
144.804
 30
0.0
 40
0
 41
0
  0
VERTEX
  8
0
 10
226.426
 20
143.5
 30
0.0
 40
0
 41
0
  0
VERTEX
  8
0
 10
226.59
 20
143.028
 30
0.0
 40
0
 41
0
  0
VERTEX
  8
0
 10
222.644
 20
142.197
 30
0.0
 40
0
 41
0
  0
VERTEX
  8
0
 10
220.257
 20
149.129
 30
0.0
 40
0
 41
0
  0
VERTEX
  8
0
 10
223.875
 20
150.904
 30
0.0
 40
0
 41
0
  0
VERTEX
  8
0
 10
224.039
 20
150.432
 30
0.0
 40
0
 41
0
  0
VERTEX
  8
0
 10
231.601
 20
153.038
 30
0.0
 40
0
 41
0
  0
SEQEND
 8
0
  0
POLYLINE
  8
0
 62
     0
 66
     1
 10
0
 20
0
 30
0.0
 70
     1
 40
0
 41
0
  0
VERTEX
  8
0
 10
254.325
 20
153.038
 30
0.0
 40
0
 41
0
  0
VERTEX
  8
0
 10
266.142
 20
144.611
 30
0.0
 40
0
 41
0
  0
VERTEX
  8
0
 10
266.142
 20
136.611
 30
0.0
 40
0
 41
0
  0
VERTEX
  8
0
 10
266.642
 20
136.611
 30
0.0
 40
0
 41
0
  0
VERTEX
  8
0
 10
266.142
 20
132.611
 30
0.0
 40
0
 41
0
  0
VERTEX
  8
0
 10
258.811
 20
132.611
 30
0.0
 40
0
 41
0
  0
VERTEX
  8
0
 10
258.311
 20
136.611
 30
0.0
 40
0
 41
0
  0
VERTEX
  8
0
 10
258.811
 20
136.611
 30
0.0
 40
0
 41
0
  0
VERTEX
  8
0
 10
258.811
 20
140.611
 30
0.0
 40
0
 41
0
  0
VERTEX
  8
0
 10
254.376
 20
140.611
 30
0.0
 40
0
 41
0
  0
VERTEX
  8
0
 10
252.932
 20
144.804
 30
0.0
 40
0
 41
0
  0
VERTEX
  8
0
 10
249.15
 20
143.5
 30
0.0
 40
0
 41
0
  0
VERTEX
  8
0
 10
249.313
 20
143.028
 30
0.0
 40
0
 41
0
  0
VERTEX
  8
0
 10
245.368
 20
142.197
 30
0.0
 40
0
 41
0
  0
VERTEX
  8
0
 10
242.981
 20
149.129
 30
0.0
 40
0
 41
0
  0
VERTEX
  8
0
 10
246.599
 20
150.904
 30
0.0
 40
0
 41
0
  0
VERTEX
  8
0
 10
246.761
 20
150.432
 30
0.0
 40
0
 41
0
  0
VERTEX
  8
0
 10
250.543
 20
151.735
 30
0.0
 40
0
 41
0
  0
VERTEX
  8
0
 10
254.325
 20
153.038
 30
0.0
 40
0
 41
0
  0
SEQEND
 8
0
  0
POLYLINE
  8
0
 62
     0
 66
     1
 10
0
 20
0
 30
0.0
 70
     1
 40
0
 41
0
  0
VERTEX
  8
0
 10
66.6751
 20
142.433
 30
0.0
 40
0
 41
0
  0
VERTEX
  8
0
 10
78.4919
 20
134.007
 30
0.0
 40
0
 41
0
  0
VERTEX
  8
0
 10
78.4919
 20
126.007
 30
0.0
 40
0
 41
0
  0
VERTEX
  8
0
 10
78.9919
 20
126.007
 30
0.0
 40
0
 41
0
  0
VERTEX
  8
0
 10
78.4919
 20
122.007
 30
0.0
 40
0
 41
0
  0
VERTEX
  8
0
 10
71.1607
 20
122.007
 30
0.0
 40
0
 41
0
  0
VERTEX
  8
0
 10
70.6607
 20
126.007
 30
0.0
 40
0
 41
0
  0
VERTEX
  8
0
 10
71.1607
 20
126.007
 30
0.0
 40
0
 41
0
  0
VERTEX
  8
0
 10
71.1607
 20
130.007
 30
0.0
 40
0
 41
0
  0
VERTEX
  8
0
 10
66.7264
 20
130.007
 30
0.0
 40
0
 41
0
  0
VERTEX
  8
0
 10
65.2817
 20
134.2
 30
0.0
 40
0
 41
0
  0
VERTEX
  8
0
 10
61.5
 20
132.896
 30
0.0
 40
0
 41
0
  0
VERTEX
  8
0
 10
61.6628
 20
132.424
 30
0.0
 40
0
 41
0
  0
VERTEX
  8
0
 10
57.7182
 20
131.593
 30
0.0
 40
0
 41
0
  0
VERTEX
  8
0
 10
55.3297
 20
138.525
 30
0.0
 40
0
 41
0
  0
VERTEX
  8
0
 10
58.9486
 20
140.3
 30
0.0
 40
0
 41
0
  0
VERTEX
  8
0
 10
59.1115
 20
139.828
 30
0.0
 40
0
 41
0
  0
VERTEX
  8
0
 10
62.8933
 20
141.131
 30
0.0
 40
0
 41
0
  0
VERTEX
  8
0
 10
66.6751
 20
142.433
 30
0.0
 40
0
 41
0
  0
SEQEND
 8
0
  0
POLYLINE
  8
0
 62
     0
 66
     1
 10
0
 20
0
 30
0.0
 70
     1
 40
0
 41
0
  0
VERTEX
  8
0
 10
220.31
 20
142.433
 30
0.0
 40
0
 41
0
  0
VERTEX
  8
0
 10
232.126
 20
134.007
 30
0.0
 40
0
 41
0
  0
VERTEX
  8
0
 10
232.126
 20
126.007
 30
0.0
 40
0
 41
0
  0
VERTEX
  8
0
 10
232.626
 20
126.007
 30
0.0
 40
0
 41
0
  0
VERTEX
  8
0
 10
232.126
 20
122.007
 30
0.0
 40
0
 41
0
  0
VERTEX
  8
0
 10
224.794
 20
122.007
 30
0.0
 40
0
 41
0
  0
VERTEX
  8
0
 10
224.294
 20
126.007
 30
0.0
 40
0
 41
0
  0
VERTEX
  8
0
 10
224.794
 20
126.007
 30
0.0
 40
0
 41
0
  0
VERTEX
  8
0
 10
224.794
 20
130.007
 30
0.0
 40
0
 41
0
  0
VERTEX
  8
0
 10
220.361
 20
130.007
 30
0.0
 40
0
 41
0
  0
VERTEX
  8
0
 10
218.917
 20
134.2
 30
0.0
 40
0
 41
0
  0
VERTEX
  8
0
 10
215.135
 20
132.896
 30
0.0
 40
0
 41
0
  0
VERTEX
  8
0
 10
215.297
 20
132.424
 30
0.0
 40
0
 41
0
  0
VERTEX
  8
0
 10
211.353
 20
131.593
 30
0.0
 40
0
 41
0
  0
VERTEX
  8
0
 10
208.964
 20
138.525
 30
0.0
 40
0
 41
0
  0
VERTEX
  8
0
 10
212.583
 20
140.3
 30
0.0
 40
0
 41
0
  0
VERTEX
  8
0
 10
212.746
 20
139.828
 30
0.0
 40
0
 41
0
  0
VERTEX
  8
0
 10
216.528
 20
141.131
 30
0.0
 40
0
 41
0
  0
VERTEX
  8
0
 10
220.31
 20
142.433
 30
0.0
 40
0
 41
0
  0
SEQEND
 8
0
  0
POLYLINE
  8
0
 62
     0
 66
     1
 10
0
 20
0
 30
0.0
 70
     1
 40
0
 41
0
  0
VERTEX
  8
0
 10
25.4126
 20
120.898
 30
0.0
 40
0
 41
0
  0
VERTEX
  8
0
 10
13.5958
 20
129.324
 30
0.0
 40
0
 41
0
  0
VERTEX
  8
0
 10
13.5958
 20
137.324
 30
0.0
 40
0
 41
0
  0
VERTEX
  8
0
 10
13.0958
 20
137.324
 30
0.0
 40
0
 41
0
  0
VERTEX
  8
0
 10
13.5958
 20
141.325
 30
0.0
 40
0
 41
0
  0
VERTEX
  8
0
 10
20.9271
 20
141.325
 30
0.0
 40
0
 41
0
  0
VERTEX
  8
0
 10
21.4271
 20
137.324
 30
0.0
 40
0
 41
0
  0
VERTEX
  8
0
 10
20.9271
 20
137.324
 30
0.0
 40
0
 41
0
  0
VERTEX
  8
0
 10
20.9271
 20
133.324
 30
0.0
 40
0
 41
0
  0
VERTEX
  8
0
 10
25.3614
 20
133.324
 30
0.0
 40
0
 41
0
  0
VERTEX
  8
0
 10
26.8061
 20
129.132
 30
0.0
 40
0
 41
0
  0
VERTEX
  8
0
 10
30.5878
 20
130.435
 30
0.0
 40
0
 41
0
  0
VERTEX
  8
0
 10
30.425
 20
130.908
 30
0.0
 40
0
 41
0
  0
VERTEX
  8
0
 10
34.3696
 20
131.738
 30
0.0
 40
0
 41
0
  0
VERTEX
  8
0
 10
36.7581
 20
124.807
 30
0.0
 40
0
 41
0
  0
VERTEX
  8
0
 10
33.1392
 20
123.031
 30
0.0
 40
0
 41
0
  0
VERTEX
  8
0
 10
32.9763
 20
123.504
 30
0.0
 40
0
 41
0
  0
VERTEX
  8
0
 10
25.4126
 20
120.898
 30
0.0
 40
0
 41
0
  0
SEQEND
 8
0
  0
POLYLINE
  8
0
 62
     0
 66
     1
 10
0
 20
0
 30
0.0
 70
     1
 40
0
 41
0
  0
VERTEX
  8
0
 10
102.999
 20
127.588
 30
0.0
 40
0
 41
0
  0
VERTEX
  8
0
 10
111.426
 20
139.406
 30
0.0
 40
0
 41
0
  0
VERTEX
  8
0
 10
119.426
 20
139.406
 30
0.0
 40
0
 41
0
  0
VERTEX
  8
0
 10
119.426
 20
139.906
 30
0.0
 40
0
 41
0
  0
VERTEX
  8
0
 10
123.426
 20
139.406
 30
0.0
 40
0
 41
0
  0
VERTEX
  8
0
 10
123.426
 20
132.074
 30
0.0
 40
0
 41
0
  0
VERTEX
  8
0
 10
119.426
 20
131.574
 30
0.0
 40
0
 41
0
  0
VERTEX
  8
0
 10
119.426
 20
132.074
 30
0.0
 40
0
 41
0
  0
VERTEX
  8
0
 10
115.426
 20
132.074
 30
0.0
 40
0
 41
0
  0
VERTEX
  8
0
 10
115.426
 20
127.64
 30
0.0
 40
0
 41
0
  0
VERTEX
  8
0
 10
111.233
 20
126.195
 30
0.0
 40
0
 41
0
  0
VERTEX
  8
0
 10
112.536
 20
122.413
 30
0.0
 40
0
 41
0
  0
VERTEX
  8
0
 10
113.009
 20
122.576
 30
0.0
 40
0
 41
0
  0
VERTEX
  8
0
 10
113.839
 20
118.631
 30
0.0
 40
0
 41
0
  0
VERTEX
  8
0
 10
106.908
 20
116.243
 30
0.0
 40
0
 41
0
  0
VERTEX
  8
0
 10
105.132
 20
119.862
 30
0.0
 40
0
 41
0
  0
VERTEX
  8
0
 10
105.605
 20
120.025
 30
0.0
 40
0
 41
0
  0
VERTEX
  8
0
 10
104.302
 20
123.807
 30
0.0
 40
0
 41
0
  0
VERTEX
  8
0
 10
102.999
 20
127.588
 30
0.0
 40
0
 41
0
  0
SEQEND
 8
0
  0
POLYLINE
  8
0
 62
     0
 66
     1
 10
0
 20
0
 30
0.0
 70
     1
 40
0
 41
0
  0
VERTEX
  8
0
 10
157.415
 20
139.538
 30
0.0
 40
0
 41
0
  0
VERTEX
  8
0
 10
169.232
 20
131.111
 30
0.0
 40
0
 41
0
  0
VERTEX
  8
0
 10
169.232
 20
123.111
 30
0.0
 40
0
 41
0
  0
VERTEX
  8
0
 10
169.732
 20
123.111
 30
0.0
 40
0
 41
0
  0
VERTEX
  8
0
 10
169.232
 20
119.111
 30
0.0
 40
0
 41
0
  0
VERTEX
  8
0
 10
161.901
 20
119.111
 30
0.0
 40
0
 41
0
  0
VERTEX
  8
0
 10
161.401
 20
123.111
 30
0.0
 40
0
 41
0
  0
VERTEX
  8
0
 10
161.901
 20
123.111
 30
0.0
 40
0
 41
0
  0
VERTEX
  8
0
 10
161.901
 20
127.111
 30
0.0
 40
0
 41
0
  0
VERTEX
  8
0
 10
157.467
 20
127.111
 30
0.0
 40
0
 41
0
  0
VERTEX
  8
0
 10
156.022
 20
131.304
 30
0.0
 40
0
 41
0
  0
VERTEX
  8
0
 10
152.24
 20
130.001
 30
0.0
 40
0
 41
0
  0
VERTEX
  8
0
 10
152.403
 20
129.528
 30
0.0
 40
0
 41
0
  0
VERTEX
  8
0
 10
148.458
 20
128.697
 30
0.0
 40
0
 41
0
  0
VERTEX
  8
0
 10
146.069
 20
135.629
 30
0.0
 40
0
 41
0
  0
VERTEX
  8
0
 10
149.689
 20
137.405
 30
0.0
 40
0
 41
0
  0
VERTEX
  8
0
 10
149.851
 20
136.932
 30
0.0
 40
0
 41
0
  0
VERTEX
  8
0
 10
157.415
 20
139.538
 30
0.0
 40
0
 41
0
  0
SEQEND
 8
0
  0
POLYLINE
  8
0
 62
     0
 66
     1
 10
0
 20
0
 30
0.0
 70
     1
 40
0
 41
0
  0
VERTEX
  8
0
 10
257.307
 20
120.692
 30
0.0
 40
0
 41
0
  0
VERTEX
  8
0
 10
245.49
 20
129.119
 30
0.0
 40
0
 41
0
  0
VERTEX
  8
0
 10
245.49
 20
137.119
 30
0.0
 40
0
 41
0
  0
VERTEX
  8
0
 10
244.99
 20
137.119
 30
0.0
 40
0
 41
0
  0
VERTEX
  8
0
 10
245.49
 20
141.119
 30
0.0
 40
0
 41
0
  0
VERTEX
  8
0
 10
252.821
 20
141.119
 30
0.0
 40
0
 41
0
  0
VERTEX
  8
0
 10
253.321
 20
137.119
 30
0.0
 40
0
 41
0
  0
VERTEX
  8
0
 10
252.821
 20
137.119
 30
0.0
 40
0
 41
0
  0
VERTEX
  8
0
 10
252.821
 20
133.119
 30
0.0
 40
0
 41
0
  0
VERTEX
  8
0
 10
257.256
 20
133.119
 30
0.0
 40
0
 41
0
  0
VERTEX
  8
0
 10
258.7
 20
128.927
 30
0.0
 40
0
 41
0
  0
VERTEX
  8
0
 10
262.482
 20
130.23
 30
0.0
 40
0
 41
0
  0
VERTEX
  8
0
 10
262.319
 20
130.703
 30
0.0
 40
0
 41
0
  0
VERTEX
  8
0
 10
266.264
 20
131.533
 30
0.0
 40
0
 41
0
  0
VERTEX
  8
0
 10
268.653
 20
124.602
 30
0.0
 40
0
 41
0
  0
VERTEX
  8
0
 10
265.033
 20
122.826
 30
0.0
 40
0
 41
0
  0
VERTEX
  8
0
 10
264.871
 20
123.298
 30
0.0
 40
0
 41
0
  0
VERTEX
  8
0
 10
261.089
 20
121.995
 30
0.0
 40
0
 41
0
  0
VERTEX
  8
0
 10
257.307
 20
120.692
 30
0.0
 40
0
 41
0
  0
SEQEND
 8
0
  0
POLYLINE
  8
0
 62
     0
 66
     1
 10
0
 20
0
 30
0.0
 70
     1
 40
0
 41
0
  0
VERTEX
  8
0
 10
196.711
 20
132.158
 30
0.0
 40
0
 41
0
  0
VERTEX
  8
0
 10
208.528
 20
123.731
 30
0.0
 40
0
 41
0
  0
VERTEX
  8
0
 10
208.528
 20
115.731
 30
0.0
 40
0
 41
0
  0
VERTEX
  8
0
 10
209.028
 20
115.731
 30
0.0
 40
0
 41
0
  0
VERTEX
  8
0
 10
208.528
 20
111.731
 30
0.0
 40
0
 41
0
  0
VERTEX
  8
0
 10
201.197
 20
111.731
 30
0.0
 40
0
 41
0
  0
VERTEX
  8
0
 10
200.697
 20
115.731
 30
0.0
 40
0
 41
0
  0
VERTEX
  8
0
 10
201.197
 20
115.731
 30
0.0
 40
0
 41
0
  0
VERTEX
  8
0
 10
201.197
 20
119.731
 30
0.0
 40
0
 41
0
  0
VERTEX
  8
0
 10
196.763
 20
119.731
 30
0.0
 40
0
 41
0
  0
VERTEX
  8
0
 10
195.318
 20
123.924
 30
0.0
 40
0
 41
0
  0
VERTEX
  8
0
 10
191.536
 20
122.621
 30
0.0
 40
0
 41
0
  0
VERTEX
  8
0
 10
191.699
 20
122.148
 30
0.0
 40
0
 41
0
  0
VERTEX
  8
0
 10
187.754
 20
121.317
 30
0.0
 40
0
 41
0
  0
VERTEX
  8
0
 10
185.367
 20
128.249
 30
0.0
 40
0
 41
0
  0
VERTEX
  8
0
 10
188.985
 20
130.025
 30
0.0
 40
0
 41
0
  0
VERTEX
  8
0
 10
189.147
 20
129.552
 30
0.0
 40
0
 41
0
  0
VERTEX
  8
0
 10
196.711
 20
132.158
 30
0.0
 40
0
 41
0
  0
SEQEND
 8
0
  0
POLYLINE
  8
0
 62
     0
 66
     1
 10
0
 20
0
 30
0.0
 70
     1
 40
0
 41
0
  0
VERTEX
  8
0
 10
49.6914
 20
112.211
 30
0.0
 40
0
 41
0
  0
VERTEX
  8
0
 10
37.8744
 20
120.638
 30
0.0
 40
0
 41
0
  0
VERTEX
  8
0
 10
37.8744
 20
128.638
 30
0.0
 40
0
 41
0
  0
VERTEX
  8
0
 10
37.3744
 20
128.638
 30
0.0
 40
0
 41
0
  0
VERTEX
  8
0
 10
37.8744
 20
132.638
 30
0.0
 40
0
 41
0
  0
VERTEX
  8
0
 10
45.2058
 20
132.638
 30
0.0
 40
0
 41
0
  0
VERTEX
  8
0
 10
45.7058
 20
128.638
 30
0.0
 40
0
 41
0
  0
VERTEX
  8
0
 10
45.2058
 20
128.638
 30
0.0
 40
0
 41
0
  0
VERTEX
  8
0
 10
45.2058
 20
124.638
 30
0.0
 40
0
 41
0
  0
VERTEX
  8
0
 10
49.6401
 20
124.638
 30
0.0
 40
0
 41
0
  0
VERTEX
  8
0
 10
51.0849
 20
120.446
 30
0.0
 40
0
 41
0
  0
VERTEX
  8
0
 10
54.8665
 20
121.749
 30
0.0
 40
0
 41
0
  0
VERTEX
  8
0
 10
54.7036
 20
122.222
 30
0.0
 40
0
 41
0
  0
VERTEX
  8
0
 10
58.6483
 20
123.052
 30
0.0
 40
0
 41
0
  0
VERTEX
  8
0
 10
61.0368
 20
116.121
 30
0.0
 40
0
 41
0
  0
VERTEX
  8
0
 10
57.4179
 20
114.345
 30
0.0
 40
0
 41
0
  0
VERTEX
  8
0
 10
57.255
 20
114.818
 30
0.0
 40
0
 41
0
  0
VERTEX
  8
0
 10
49.6914
 20
112.211
 30
0.0
 40
0
 41
0
  0
SEQEND
 8
0
  0
POLYLINE
  8
0
 62
     0
 66
     1
 10
0
 20
0
 30
0.0
 70
     1
 40
0
 41
0
  0
VERTEX
  8
0
 10
91.8753
 20
111.184
 30
0.0
 40
0
 41
0
  0
VERTEX
  8
0
 10
80.0583
 20
119.611
 30
0.0
 40
0
 41
0
  0
VERTEX
  8
0
 10
80.0583
 20
127.611
 30
0.0
 40
0
 41
0
  0
VERTEX
  8
0
 10
79.5583
 20
127.611
 30
0.0
 40
0
 41
0
  0
VERTEX
  8
0
 10
80.0583
 20
131.611
 30
0.0
 40
0
 41
0
  0
VERTEX
  8
0
 10
87.3896
 20
131.611
 30
0.0
 40
0
 41
0
  0
VERTEX
  8
0
 10
87.8896
 20
127.611
 30
0.0
 40
0
 41
0
  0
VERTEX
  8
0
 10
87.3896
 20
127.611
 30
0.0
 40
0
 41
0
  0
VERTEX
  8
0
 10
87.3896
 20
123.611
 30
0.0
 40
0
 41
0
  0
VERTEX
  8
0
 10
91.824
 20
123.611
 30
0.0
 40
0
 41
0
  0
VERTEX
  8
0
 10
93.2686
 20
119.419
 30
0.0
 40
0
 41
0
  0
VERTEX
  8
0
 10
97.0504
 20
120.722
 30
0.0
 40
0
 41
0
  0
VERTEX
  8
0
 10
96.8875
 20
121.194
 30
0.0
 40
0
 41
0
  0
VERTEX
  8
0
 10
100.832
 20
122.025
 30
0.0
 40
0
 41
0
  0
VERTEX
  8
0
 10
103.221
 20
115.094
 30
0.0
 40
0
 41
0
  0
VERTEX
  8
0
 10
99.6017
 20
113.318
 30
0.0
 40
0
 41
0
  0
VERTEX
  8
0
 10
99.4387
 20
113.79
 30
0.0
 40
0
 41
0
  0
VERTEX
  8
0
 10
95.6571
 20
112.487
 30
0.0
 40
0
 41
0
  0
VERTEX
  8
0
 10
91.8753
 20
111.184
 30
0.0
 40
0
 41
0
  0
SEQEND
 8
0
  0
POLYLINE
  8
0
 62
     0
 66
     1
 10
0
 20
0
 30
0.0
 70
     1
 40
0
 41
0
  0
VERTEX
  8
0
 10
115.053
 20
119.228
 30
0.0
 40
0
 41
0
  0
VERTEX
  8
0
 10
123.48
 20
131.045
 30
0.0
 40
0
 41
0
  0
VERTEX
  8
0
 10
131.48
 20
131.045
 30
0.0
 40
0
 41
0
  0
VERTEX
  8
0
 10
131.48
 20
131.545
 30
0.0
 40
0
 41
0
  0
VERTEX
  8
0
 10
135.48
 20
131.045
 30
0.0
 40
0
 41
0
  0
VERTEX
  8
0
 10
135.48
 20
123.713
 30
0.0
 40
0
 41
0
  0
VERTEX
  8
0
 10
131.48
 20
123.213
 30
0.0
 40
0
 41
0
  0
VERTEX
  8
0
 10
131.48
 20
123.713
 30
0.0
 40
0
 41
0
  0
VERTEX
  8
0
 10
127.48
 20
123.713
 30
0.0
 40
0
 41
0
  0
VERTEX
  8
0
 10
127.48
 20
119.279
 30
0.0
 40
0
 41
0
  0
VERTEX
  8
0
 10
123.288
 20
117.834
 30
0.0
 40
0
 41
0
  0
VERTEX
  8
0
 10
124.591
 20
114.053
 30
0.0
 40
0
 41
0
  0
VERTEX
  8
0
 10
125.064
 20
114.216
 30
0.0
 40
0
 41
0
  0
VERTEX
  8
0
 10
125.894
 20
110.271
 30
0.0
 40
0
 41
0
  0
VERTEX
  8
0
 10
118.963
 20
107.883
 30
0.0
 40
0
 41
0
  0
VERTEX
  8
0
 10
117.187
 20
111.501
 30
0.0
 40
0
 41
0
  0
VERTEX
  8
0
 10
117.66
 20
111.664
 30
0.0
 40
0
 41
0
  0
VERTEX
  8
0
 10
116.357
 20
115.446
 30
0.0
 40
0
 41
0
  0
VERTEX
  8
0
 10
115.053
 20
119.228
 30
0.0
 40
0
 41
0
  0
SEQEND
 8
0
  0
POLYLINE
  8
0
 62
     0
 66
     1
 10
0
 20
0
 30
0.0
 70
     1
 40
0
 41
0
  0
VERTEX
  8
0
 10
183.065
 20
122.03
 30
0.0
 40
0
 41
0
  0
VERTEX
  8
0
 10
174.639
 20
110.214
 30
0.0
 40
0
 41
0
  0
VERTEX
  8
0
 10
166.639
 20
110.214
 30
0.0
 40
0
 41
0
  0
VERTEX
  8
0
 10
166.639
 20
109.714
 30
0.0
 40
0
 41
0
  0
VERTEX
  8
0
 10
162.639
 20
110.214
 30
0.0
 40
0
 41
0
  0
VERTEX
  8
0
 10
162.639
 20
117.545
 30
0.0
 40
0
 41
0
  0
VERTEX
  8
0
 10
166.639
 20
118.045
 30
0.0
 40
0
 41
0
  0
VERTEX
  8
0
 10
166.639
 20
117.545
 30
0.0
 40
0
 41
0
  0
VERTEX
  8
0
 10
170.639
 20
117.545
 30
0.0
 40
0
 41
0
  0
VERTEX
  8
0
 10
170.639
 20
121.979
 30
0.0
 40
0
 41
0
  0
VERTEX
  8
0
 10
174.832
 20
123.424
 30
0.0
 40
0
 41
0
  0
VERTEX
  8
0
 10
173.528
 20
127.206
 30
0.0
 40
0
 41
0
  0
VERTEX
  8
0
 10
173.056
 20
127.043
 30
0.0
 40
0
 41
0
  0
VERTEX
  8
0
 10
172.225
 20
130.987
 30
0.0
 40
0
 41
0
  0
VERTEX
  8
0
 10
179.157
 20
133.376
 30
0.0
 40
0
 41
0
  0
VERTEX
  8
0
 10
180.932
 20
129.757
 30
0.0
 40
0
 41
0
  0
VERTEX
  8
0
 10
180.46
 20
129.594
 30
0.0
 40
0
 41
0
  0
VERTEX
  8
0
 10
181.763
 20
125.812
 30
0.0
 40
0
 41
0
  0
VERTEX
  8
0
 10
183.065
 20
122.03
 30
0.0
 40
0
 41
0
  0
SEQEND
 8
0
  0
POLYLINE
  8
0
 62
     0
 66
     1
 10
0
 20
0
 30
0.0
 70
     1
 40
0
 41
0
  0
VERTEX
  8
0
 10
244.047
 20
120.149
 30
0.0
 40
0
 41
0
  0
VERTEX
  8
0
 10
235.621
 20
108.332
 30
0.0
 40
0
 41
0
  0
VERTEX
  8
0
 10
227.621
 20
108.332
 30
0.0
 40
0
 41
0
  0
VERTEX
  8
0
 10
227.621
 20
107.832
 30
0.0
 40
0
 41
0
  0
VERTEX
  8
0
 10
223.621
 20
108.332
 30
0.0
 40
0
 41
0
  0
VERTEX
  8
0
 10
223.621
 20
115.664
 30
0.0
 40
0
 41
0
  0
VERTEX
  8
0
 10
227.621
 20
116.164
 30
0.0
 40
0
 41
0
  0
VERTEX
  8
0
 10
227.621
 20
115.664
 30
0.0
 40
0
 41
0
  0
VERTEX
  8
0
 10
231.621
 20
115.664
 30
0.0
 40
0
 41
0
  0
VERTEX
  8
0
 10
231.621
 20
120.098
 30
0.0
 40
0
 41
0
  0
VERTEX
  8
0
 10
235.813
 20
121.543
 30
0.0
 40
0
 41
0
  0
VERTEX
  8
0
 10
234.51
 20
125.324
 30
0.0
 40
0
 41
0
  0
VERTEX
  8
0
 10
234.037
 20
125.162
 30
0.0
 40
0
 41
0
  0
VERTEX
  8
0
 10
233.207
 20
129.106
 30
0.0
 40
0
 41
0
  0
VERTEX
  8
0
 10
240.138
 20
131.495
 30
0.0
 40
0
 41
0
  0
VERTEX
  8
0
 10
241.914
 20
127.876
 30
0.0
 40
0
 41
0
  0
VERTEX
  8
0
 10
241.442
 20
127.713
 30
0.0
 40
0
 41
0
  0
VERTEX
  8
0
 10
242.744
 20
123.931
 30
0.0
 40
0
 41
0
  0
VERTEX
  8
0
 10
244.047
 20
120.149
 30
0.0
 40
0
 41
0
  0
SEQEND
 8
0
  0
POLYLINE
  8
0
 62
     0
 66
     1
 10
0
 20
0
 30
0.0
 70
     1
 40
0
 41
0
  0
VERTEX
  8
0
 10
12.3379
 20
107.811
 30
0.0
 40
0
 41
0
  0
VERTEX
  8
0
 10
0.52105
 20
116.238
 30
0.0
 40
0
 41
0
  0
VERTEX
  8
0
 10
0.52105
 20
124.238
 30
0.0
 40
0
 41
0
  0
VERTEX
  8
0
 10
0.0210504
 20
124.238
 30
0.0
 40
0
 41
0
  0
VERTEX
  8
0
 10
0.52105
 20
128.238
 30
0.0
 40
0
 41
0
  0
VERTEX
  8
0
 10
7.85232
 20
128.238
 30
0.0
 40
0
 41
0
  0
VERTEX
  8
0
 10
8.35232
 20
124.238
 30
0.0
 40
0
 41
0
  0
VERTEX
  8
0
 10
7.85232
 20
124.238
 30
0.0
 40
0
 41
0
  0
VERTEX
  8
0
 10
7.85232
 20
120.238
 30
0.0
 40
0
 41
0
  0
VERTEX
  8
0
 10
12.2867
 20
120.238
 30
0.0
 40
0
 41
0
  0
VERTEX
  8
0
 10
13.7313
 20
116.046
 30
0.0
 40
0
 41
0
  0
VERTEX
  8
0
 10
17.5132
 20
117.349
 30
0.0
 40
0
 41
0
  0
VERTEX
  8
0
 10
17.3501
 20
117.822
 30
0.0
 40
0
 41
0
  0
VERTEX
  8
0
 10
21.2949
 20
118.652
 30
0.0
 40
0
 41
0
  0
VERTEX
  8
0
 10
23.6833
 20
111.721
 30
0.0
 40
0
 41
0
  0
VERTEX
  8
0
 10
20.0644
 20
109.945
 30
0.0
 40
0
 41
0
  0
VERTEX
  8
0
 10
19.9015
 20
110.418
 30
0.0
 40
0
 41
0
  0
VERTEX
  8
0
 10
16.1197
 20
109.114
 30
0.0
 40
0
 41
0
  0
VERTEX
  8
0
 10
12.3379
 20
107.811
 30
0.0
 40
0
 41
0
  0
SEQEND
 8
0
  0
POLYLINE
  8
0
 62
     0
 66
     1
 10
0
 20
0
 30
0.0
 70
     1
 40
0
 41
0
  0
VERTEX
  8
0
 10
134.893
 20
115.8
 30
0.0
 40
0
 41
0
  0
VERTEX
  8
0
 10
143.319
 20
127.617
 30
0.0
 40
0
 41
0
  0
VERTEX
  8
0
 10
151.319
 20
127.617
 30
0.0
 40
0
 41
0
  0
VERTEX
  8
0
 10
151.319
 20
128.117
 30
0.0
 40
0
 41
0
  0
VERTEX
  8
0
 10
155.319
 20
127.617
 30
0.0
 40
0
 41
0
  0
VERTEX
  8
0
 10
155.319
 20
120.286
 30
0.0
 40
0
 41
0
  0
VERTEX
  8
0
 10
151.319
 20
119.786
 30
0.0
 40
0
 41
0
  0
VERTEX
  8
0
 10
151.319
 20
120.286
 30
0.0
 40
0
 41
0
  0
VERTEX
  8
0
 10
147.319
 20
120.286
 30
0.0
 40
0
 41
0
  0
VERTEX
  8
0
 10
147.319
 20
115.852
 30
0.0
 40
0
 41
0
  0
VERTEX
  8
0
 10
143.128
 20
114.407
 30
0.0
 40
0
 41
0
  0
VERTEX
  8
0
 10
144.431
 20
110.625
 30
0.0
 40
0
 41
0
  0
VERTEX
  8
0
 10
144.903
 20
110.788
 30
0.0
 40
0
 41
0
  0
VERTEX
  8
0
 10
145.733
 20
106.843
 30
0.0
 40
0
 41
0
  0
VERTEX
  8
0
 10
138.802
 20
104.455
 30
0.0
 40
0
 41
0
  0
VERTEX
  8
0
 10
137.027
 20
108.074
 30
0.0
 40
0
 41
0
  0
VERTEX
  8
0
 10
137.499
 20
108.237
 30
0.0
 40
0
 41
0
  0
VERTEX
  8
0
 10
136.196
 20
112.019
 30
0.0
 40
0
 41
0
  0
VERTEX
  8
0
 10
134.893
 20
115.8
 30
0.0
 40
0
 41
0
  0
SEQEND
 8
0
  0
POLYLINE
  8
0
 62
     0
 66
     1
 10
0
 20
0
 30
0.0
 70
     1
 40
0
 41
0
  0
VERTEX
  8
0
 10
278.769
 20
122.361
 30
0.0
 40
0
 41
0
  0
VERTEX
  8
0
 10
270.343
 20
110.544
 30
0.0
 40
0
 41
0
  0
VERTEX
  8
0
 10
262.343
 20
110.544
 30
0.0
 40
0
 41
0
  0
VERTEX
  8
0
 10
262.343
 20
110.044
 30
0.0
 40
0
 41
0
  0
VERTEX
  8
0
 10
258.343
 20
110.544
 30
0.0
 40
0
 41
0
  0
VERTEX
  8
0
 10
258.343
 20
117.875
 30
0.0
 40
0
 41
0
  0
VERTEX
  8
0
 10
262.343
 20
118.375
 30
0.0
 40
0
 41
0
  0
VERTEX
  8
0
 10
262.343
 20
117.875
 30
0.0
 40
0
 41
0
  0
VERTEX
  8
0
 10
266.343
 20
117.875
 30
0.0
 40
0
 41
0
  0
VERTEX
  8
0
 10
266.343
 20
122.309
 30
0.0
 40
0
 41
0
  0
VERTEX
  8
0
 10
270.535
 20
123.754
 30
0.0
 40
0
 41
0
  0
VERTEX
  8
0
 10
269.232
 20
127.536
 30
0.0
 40
0
 41
0
  0
VERTEX
  8
0
 10
268.76
 20
127.373
 30
0.0
 40
0
 41
0
  0
VERTEX
  8
0
 10
267.929
 20
131.318
 30
0.0
 40
0
 41
0
  0
VERTEX
  8
0
 10
274.86
 20
133.706
 30
0.0
 40
0
 41
0
  0
VERTEX
  8
0
 10
276.636
 20
130.087
 30
0.0
 40
0
 41
0
  0
VERTEX
  8
0
 10
276.164
 20
129.924
 30
0.0
 40
0
 41
0
  0
VERTEX
  8
0
 10
277.467
 20
126.142
 30
0.0
 40
0
 41
0
  0
VERTEX
  8
0
 10
278.769
 20
122.361
 30
0.0
 40
0
 41
0
  0
SEQEND
 8
0
  0
POLYLINE
  8
0
 62
     0
 66
     1
 10
0
 20
0
 30
0.0
 70
     1
 40
0
 41
0
  0
VERTEX
  8
0
 10
222.362
 20
114.65
 30
0.0
 40
0
 41
0
  0
VERTEX
  8
0
 10
213.935
 20
102.833
 30
0.0
 40
0
 41
0
  0
VERTEX
  8
0
 10
205.935
 20
102.833
 30
0.0
 40
0
 41
0
  0
VERTEX
  8
0
 10
205.935
 20
102.333
 30
0.0
 40
0
 41
0
  0
VERTEX
  8
0
 10
201.935
 20
102.833
 30
0.0
 40
0
 41
0
  0
VERTEX
  8
0
 10
201.935
 20
110.165
 30
0.0
 40
0
 41
0
  0
VERTEX
  8
0
 10
205.935
 20
110.665
 30
0.0
 40
0
 41
0
  0
VERTEX
  8
0
 10
205.935
 20
110.165
 30
0.0
 40
0
 41
0
  0
VERTEX
  8
0
 10
209.935
 20
110.165
 30
0.0
 40
0
 41
0
  0
VERTEX
  8
0
 10
209.935
 20
114.599
 30
0.0
 40
0
 41
0
  0
VERTEX
  8
0
 10
214.128
 20
116.044
 30
0.0
 40
0
 41
0
  0
VERTEX
  8
0
 10
212.825
 20
119.826
 30
0.0
 40
0
 41
0
  0
VERTEX
  8
0
 10
212.351
 20
119.663
 30
0.0
 40
0
 41
0
  0
VERTEX
  8
0
 10
211.521
 20
123.607
 30
0.0
 40
0
 41
0
  0
VERTEX
  8
0
 10
218.453
 20
125.996
 30
0.0
 40
0
 41
0
  0
VERTEX
  8
0
 10
220.229
 20
122.377
 30
0.0
 40
0
 41
0
  0
VERTEX
  8
0
 10
219.756
 20
122.214
 30
0.0
 40
0
 41
0
  0
VERTEX
  8
0
 10
221.06
 20
118.432
 30
0.0
 40
0
 41
0
  0
VERTEX
  8
0
 10
222.362
 20
114.65
 30
0.0
 40
0
 41
0
  0
SEQEND
 8
0
  0
POLYLINE
  8
0
 62
     0
 66
     1
 10
0
 20
0
 30
0.0
 70
     1
 40
0
 41
0
  0
VERTEX
  8
0
 10
57.1026
 20
108.624
 30
0.0
 40
0
 41
0
  0
VERTEX
  8
0
 10
65.5296
 20
120.441
 30
0.0
 40
0
 41
0
  0
VERTEX
  8
0
 10
73.5296
 20
120.441
 30
0.0
 40
0
 41
0
  0
VERTEX
  8
0
 10
73.5296
 20
120.941
 30
0.0
 40
0
 41
0
  0
VERTEX
  8
0
 10
77.5296
 20
120.441
 30
0.0
 40
0
 41
0
  0
VERTEX
  8
0
 10
77.5296
 20
113.109
 30
0.0
 40
0
 41
0
  0
VERTEX
  8
0
 10
73.5296
 20
112.609
 30
0.0
 40
0
 41
0
  0
VERTEX
  8
0
 10
73.5296
 20
113.109
 30
0.0
 40
0
 41
0
  0
VERTEX
  8
0
 10
69.5296
 20
113.109
 30
0.0
 40
0
 41
0
  0
VERTEX
  8
0
 10
69.5296
 20
108.675
 30
0.0
 40
0
 41
0
  0
VERTEX
  8
0
 10
65.3371
 20
107.23
 30
0.0
 40
0
 41
0
  0
VERTEX
  8
0
 10
66.6403
 20
103.449
 30
0.0
 40
0
 41
0
  0
VERTEX
  8
0
 10
67.1129
 20
103.612
 30
0.0
 40
0
 41
0
  0
VERTEX
  8
0
 10
67.9433
 20
99.6669
 30
0.0
 40
0
 41
0
  0
VERTEX
  8
0
 10
61.0121
 20
97.2785
 30
0.0
 40
0
 41
0
  0
VERTEX
  8
0
 10
59.2362
 20
100.897
 30
0.0
 40
0
 41
0
  0
VERTEX
  8
0
 10
59.7089
 20
101.06
 30
0.0
 40
0
 41
0
  0
VERTEX
  8
0
 10
58.4058
 20
104.842
 30
0.0
 40
0
 41
0
  0
VERTEX
  8
0
 10
57.1026
 20
108.624
 30
0.0
 40
0
 41
0
  0
SEQEND
 8
0
  0
POLYLINE
  8
0
 62
     0
 66
     1
 10
0
 20
0
 30
0.0
 70
     1
 40
0
 41
0
  0
VERTEX
  8
0
 10
174.589
 20
108.42
 30
0.0
 40
0
 41
0
  0
VERTEX
  8
0
 10
183.015
 20
120.237
 30
0.0
 40
0
 41
0
  0
VERTEX
  8
0
 10
191.015
 20
120.237
 30
0.0
 40
0
 41
0
  0
VERTEX
  8
0
 10
191.015
 20
120.737
 30
0.0
 40
0
 41
0
  0
VERTEX
  8
0
 10
195.015
 20
120.237
 30
0.0
 40
0
 41
0
  0
VERTEX
  8
0
 10
195.015
 20
112.906
 30
0.0
 40
0
 41
0
  0
VERTEX
  8
0
 10
191.015
 20
112.406
 30
0.0
 40
0
 41
0
  0
VERTEX
  8
0
 10
191.015
 20
112.906
 30
0.0
 40
0
 41
0
  0
VERTEX
  8
0
 10
187.015
 20
112.906
 30
0.0
 40
0
 41
0
  0
VERTEX
  8
0
 10
187.015
 20
108.472
 30
0.0
 40
0
 41
0
  0
VERTEX
  8
0
 10
182.824
 20
107.027
 30
0.0
 40
0
 41
0
  0
VERTEX
  8
0
 10
184.126
 20
103.245
 30
0.0
 40
0
 41
0
  0
VERTEX
  8
0
 10
184.599
 20
103.408
 30
0.0
 40
0
 41
0
  0
VERTEX
  8
0
 10
185.429
 20
99.4633
 30
0.0
 40
0
 41
0
  0
VERTEX
  8
0
 10
178.497
 20
97.0749
 30
0.0
 40
0
 41
0
  0
VERTEX
  8
0
 10
176.722
 20
100.694
 30
0.0
 40
0
 41
0
  0
VERTEX
  8
0
 10
177.194
 20
100.857
 30
0.0
 40
0
 41
0
  0
VERTEX
  8
0
 10
175.892
 20
104.638
 30
0.0
 40
0
 41
0
  0
VERTEX
  8
0
 10
174.589
 20
108.42
 30
0.0
 40
0
 41
0
  0
SEQEND
 8
0
  0
POLYLINE
  8
0
 62
     0
 66
     1
 10
0
 20
0
 30
0.0
 70
     1
 40
0
 41
0
  0
VERTEX
  8
0
 10
236.513
 20
107.86
 30
0.0
 40
0
 41
0
  0
VERTEX
  8
0
 10
244.939
 20
119.677
 30
0.0
 40
0
 41
0
  0
VERTEX
  8
0
 10
252.939
 20
119.677
 30
0.0
 40
0
 41
0
  0
VERTEX
  8
0
 10
252.939
 20
120.177
 30
0.0
 40
0
 41
0
  0
VERTEX
  8
0
 10
256.939
 20
119.677
 30
0.0
 40
0
 41
0
  0
VERTEX
  8
0
 10
256.939
 20
112.346
 30
0.0
 40
0
 41
0
  0
VERTEX
  8
0
 10
252.939
 20
111.846
 30
0.0
 40
0
 41
0
  0
VERTEX
  8
0
 10
252.939
 20
112.346
 30
0.0
 40
0
 41
0
  0
VERTEX
  8
0
 10
248.939
 20
112.346
 30
0.0
 40
0
 41
0
  0
VERTEX
  8
0
 10
248.939
 20
107.911
 30
0.0
 40
0
 41
0
  0
VERTEX
  8
0
 10
244.746
 20
106.467
 30
0.0
 40
0
 41
0
  0
VERTEX
  8
0
 10
246.05
 20
102.685
 30
0.0
 40
0
 41
0
  0
VERTEX
  8
0
 10
246.522
 20
102.848
 30
0.0
 40
0
 41
0
  0
VERTEX
  8
0
 10
247.353
 20
98.9031
 30
0.0
 40
0
 41
0
  0
VERTEX
  8
0
 10
240.421
 20
96.5147
 30
0.0
 40
0
 41
0
  0
VERTEX
  8
0
 10
238.646
 20
100.134
 30
0.0
 40
0
 41
0
  0
VERTEX
  8
0
 10
239.118
 20
100.297
 30
0.0
 40
0
 41
0
  0
VERTEX
  8
0
 10
236.513
 20
107.86
 30
0.0
 40
0
 41
0
  0
SEQEND
 8
0
  0
POLYLINE
  8
0
 62
     0
 66
     1
 10
0
 20
0
 30
0.0
 70
     1
 40
0
 41
0
  0
VERTEX
  8
0
 10
36.6167
 20
97.1831
 30
0.0
 40
0
 41
0
  0
VERTEX
  8
0
 10
24.7999
 20
105.61
 30
0.0
 40
0
 41
0
  0
VERTEX
  8
0
 10
24.7999
 20
113.61
 30
0.0
 40
0
 41
0
  0
VERTEX
  8
0
 10
24.2999
 20
113.61
 30
0.0
 40
0
 41
0
  0
VERTEX
  8
0
 10
24.7999
 20
117.61
 30
0.0
 40
0
 41
0
  0
VERTEX
  8
0
 10
32.1311
 20
117.61
 30
0.0
 40
0
 41
0
  0
VERTEX
  8
0
 10
32.6311
 20
113.61
 30
0.0
 40
0
 41
0
  0
VERTEX
  8
0
 10
32.1311
 20
113.61
 30
0.0
 40
0
 41
0
  0
VERTEX
  8
0
 10
32.1311
 20
109.61
 30
0.0
 40
0
 41
0
  0
VERTEX
  8
0
 10
36.5654
 20
109.61
 30
0.0
 40
0
 41
0
  0
VERTEX
  8
0
 10
38.0101
 20
105.418
 30
0.0
 40
0
 41
0
  0
VERTEX
  8
0
 10
41.7918
 20
106.721
 30
0.0
 40
0
 41
0
  0
VERTEX
  8
0
 10
41.629
 20
107.193
 30
0.0
 40
0
 41
0
  0
VERTEX
  8
0
 10
45.5736
 20
108.024
 30
0.0
 40
0
 41
0
  0
VERTEX
  8
0
 10
47.9621
 20
101.093
 30
0.0
 40
0
 41
0
  0
VERTEX
  8
0
 10
44.3432
 20
99.3167
 30
0.0
 40
0
 41
0
  0
VERTEX
  8
0
 10
44.1803
 20
99.7893
 30
0.0
 40
0
 41
0
  0
VERTEX
  8
0
 10
40.3985
 20
98.4862
 30
0.0
 40
0
 41
0
  0
VERTEX
  8
0
 10
36.6167
 20
97.1831
 30
0.0
 40
0
 41
0
  0
SEQEND
 8
0
  0
POLYLINE
  8
0
 62
     0
 66
     1
 10
0
 20
0
 30
0.0
 70
     1
 40
0
 41
0
  0
VERTEX
  8
0
 10
161.91
 20
108.722
 30
0.0
 40
0
 41
0
  0
VERTEX
  8
0
 10
153.483
 20
96.905
 30
0.0
 40
0
 41
0
  0
VERTEX
  8
0
 10
145.483
 20
96.905
 30
0.0
 40
0
 41
0
  0
VERTEX
  8
0
 10
145.483
 20
96.405
 30
0.0
 40
0
 41
0
  0
VERTEX
  8
0
 10
141.483
 20
96.905
 30
0.0
 40
0
 41
0
  0
VERTEX
  8
0
 10
141.483
 20
104.236
 30
0.0
 40
0
 41
0
  0
VERTEX
  8
0
 10
145.483
 20
104.736
 30
0.0
 40
0
 41
0
  0
VERTEX
  8
0
 10
145.483
 20
104.236
 30
0.0
 40
0
 41
0
  0
VERTEX
  8
0
 10
149.483
 20
104.236
 30
0.0
 40
0
 41
0
  0
VERTEX
  8
0
 10
149.483
 20
108.671
 30
0.0
 40
0
 41
0
  0
VERTEX
  8
0
 10
153.676
 20
110.115
 30
0.0
 40
0
 41
0
  0
VERTEX
  8
0
 10
152.372
 20
113.897
 30
0.0
 40
0
 41
0
  0
VERTEX
  8
0
 10
151.9
 20
113.734
 30
0.0
 40
0
 41
0
  0
VERTEX
  8
0
 10
151.069
 20
117.679
 30
0.0
 40
0
 41
0
  0
VERTEX
  8
0
 10
158.001
 20
120.067
 30
0.0
 40
0
 41
0
  0
VERTEX
  8
0
 10
159.776
 20
116.448
 30
0.0
 40
0
 41
0
  0
VERTEX
  8
0
 10
159.304
 20
116.285
 30
0.0
 40
0
 41
0
  0
VERTEX
  8
0
 10
161.91
 20
108.722
 30
0.0
 40
0
 41
0
  0
SEQEND
 8
0
  0
POLYLINE
  8
0
 62
     0
 66
     1
 10
0
 20
0
 30
0.0
 70
     1
 40
0
 41
0
  0
VERTEX
  8
0
 10
116.194
 20
94.6996
 30
0.0
 40
0
 41
0
  0
VERTEX
  8
0
 10
104.377
 20
103.127
 30
0.0
 40
0
 41
0
  0
VERTEX
  8
0
 10
104.377
 20
111.127
 30
0.0
 40
0
 41
0
  0
VERTEX
  8
0
 10
103.877
 20
111.127
 30
0.0
 40
0
 41
0
  0
VERTEX
  8
0
 10
104.377
 20
115.127
 30
0.0
 40
0
 41
0
  0
VERTEX
  8
0
 10
111.708
 20
115.127
 30
0.0
 40
0
 41
0
  0
VERTEX
  8
0
 10
112.208
 20
111.127
 30
0.0
 40
0
 41
0
  0
VERTEX
  8
0
 10
111.708
 20
111.127
 30
0.0
 40
0
 41
0
  0
VERTEX
  8
0
 10
111.708
 20
107.127
 30
0.0
 40
0
 41
0
  0
VERTEX
  8
0
 10
116.143
 20
107.127
 30
0.0
 40
0
 41
0
  0
VERTEX
  8
0
 10
117.587
 20
102.934
 30
0.0
 40
0
 41
0
  0
VERTEX
  8
0
 10
121.369
 20
104.237
 30
0.0
 40
0
 41
0
  0
VERTEX
  8
0
 10
121.206
 20
104.71
 30
0.0
 40
0
 41
0
  0
VERTEX
  8
0
 10
125.151
 20
105.54
 30
0.0
 40
0
 41
0
  0
VERTEX
  8
0
 10
127.539
 20
98.609
 30
0.0
 40
0
 41
0
  0
VERTEX
  8
0
 10
123.92
 20
96.8331
 30
0.0
 40
0
 41
0
  0
VERTEX
  8
0
 10
123.757
 20
97.3058
 30
0.0
 40
0
 41
0
  0
VERTEX
  8
0
 10
116.194
 20
94.6996
 30
0.0
 40
0
 41
0
  0
SEQEND
 8
0
  0
POLYLINE
  8
0
 62
     0
 66
     1
 10
0
 20
0
 30
0.0
 70
     1
 40
0
 41
0
  0
VERTEX
  8
0
 10
89.0361
 20
103.239
 30
0.0
 40
0
 41
0
  0
VERTEX
  8
0
 10
80.6092
 20
91.4225
 30
0.0
 40
0
 41
0
  0
VERTEX
  8
0
 10
72.6092
 20
91.4225
 30
0.0
 40
0
 41
0
  0
VERTEX
  8
0
 10
72.6092
 20
90.9225
 30
0.0
 40
0
 41
0
  0
VERTEX
  8
0
 10
68.6092
 20
91.4225
 30
0.0
 40
0
 41
0
  0
VERTEX
  8
0
 10
68.6092
 20
98.7538
 30
0.0
 40
0
 41
0
  0
VERTEX
  8
0
 10
72.6092
 20
99.2538
 30
0.0
 40
0
 41
0
  0
VERTEX
  8
0
 10
72.6092
 20
98.7538
 30
0.0
 40
0
 41
0
  0
VERTEX
  8
0
 10
76.6092
 20
98.7538
 30
0.0
 40
0
 41
0
  0
VERTEX
  8
0
 10
76.6092
 20
103.188
 30
0.0
 40
0
 41
0
  0
VERTEX
  8
0
 10
80.8015
 20
104.633
 30
0.0
 40
0
 41
0
  0
VERTEX
  8
0
 10
79.4985
 20
108.414
 30
0.0
 40
0
 41
0
  0
VERTEX
  8
0
 10
79.0258
 20
108.252
 30
0.0
 40
0
 41
0
  0
VERTEX
  8
0
 10
78.1954
 20
112.196
 30
0.0
 40
0
 41
0
  0
VERTEX
  8
0
 10
85.1267
 20
114.585
 30
0.0
 40
0
 41
0
  0
VERTEX
  8
0
 10
86.9025
 20
110.966
 30
0.0
 40
0
 41
0
  0
VERTEX
  8
0
 10
86.4299
 20
110.803
 30
0.0
 40
0
 41
0
  0
VERTEX
  8
0
 10
87.7329
 20
107.021
 30
0.0
 40
0
 41
0
  0
VERTEX
  8
0
 10
89.0361
 20
103.239
 30
0.0
 40
0
 41
0
  0
SEQEND
 8
0
  0
POLYLINE
  8
0
 62
     0
 66
     1
 10
0
 20
0
 30
0.0
 70
     1
 40
0
 41
0
  0
VERTEX
  8
0
 10
255.078
 20
97.7268
 30
0.0
 40
0
 41
0
  0
VERTEX
  8
0
 10
263.504
 20
109.544
 30
0.0
 40
0
 41
0
  0
VERTEX
  8
0
 10
271.504
 20
109.544
 30
0.0
 40
0
 41
0
  0
VERTEX
  8
0
 10
271.504
 20
110.044
 30
0.0
 40
0
 41
0
  0
VERTEX
  8
0
 10
275.504
 20
109.544
 30
0.0
 40
0
 41
0
  0
VERTEX
  8
0
 10
275.504
 20
102.212
 30
0.0
 40
0
 41
0
  0
VERTEX
  8
0
 10
271.504
 20
101.712
 30
0.0
 40
0
 41
0
  0
VERTEX
  8
0
 10
271.504
 20
102.212
 30
0.0
 40
0
 41
0
  0
VERTEX
  8
0
 10
267.504
 20
102.212
 30
0.0
 40
0
 41
0
  0
VERTEX
  8
0
 10
267.504
 20
97.7781
 30
0.0
 40
0
 41
0
  0
VERTEX
  8
0
 10
263.311
 20
96.3333
 30
0.0
 40
0
 41
0
  0
VERTEX
  8
0
 10
264.615
 20
92.5515
 30
0.0
 40
0
 41
0
  0
VERTEX
  8
0
 10
265.088
 20
92.7144
 30
0.0
 40
0
 41
0
  0
VERTEX
  8
0
 10
265.918
 20
88.7699
 30
0.0
 40
0
 41
0
  0
VERTEX
  8
0
 10
258.986
 20
86.3814
 30
0.0
 40
0
 41
0
  0
VERTEX
  8
0
 10
257.211
 20
90.0003
 30
0.0
 40
0
 41
0
  0
VERTEX
  8
0
 10
257.683
 20
90.1632
 30
0.0
 40
0
 41
0
  0
VERTEX
  8
0
 10
255.078
 20
97.7268
 30
0.0
 40
0
 41
0
  0
SEQEND
 8
0
  0
POLYLINE
  8
0
 62
     0
 66
     1
 10
0
 20
0
 30
0.0
 70
     1
 40
0
 41
0
  0
VERTEX
  8
0
 10
12.3379
 20
89.1543
 30
0.0
 40
0
 41
0
  0
VERTEX
  8
0
 10
0.52105
 20
97.5813
 30
0.0
 40
0
 41
0
  0
VERTEX
  8
0
 10
0.52105
 20
105.581
 30
0.0
 40
0
 41
0
  0
VERTEX
  8
0
 10
0.0210504
 20
105.581
 30
0.0
 40
0
 41
0
  0
VERTEX
  8
0
 10
0.52105
 20
109.581
 30
0.0
 40
0
 41
0
  0
VERTEX
  8
0
 10
7.85232
 20
109.581
 30
0.0
 40
0
 41
0
  0
VERTEX
  8
0
 10
8.35232
 20
105.581
 30
0.0
 40
0
 41
0
  0
VERTEX
  8
0
 10
7.85232
 20
105.581
 30
0.0
 40
0
 41
0
  0
VERTEX
  8
0
 10
7.85232
 20
101.581
 30
0.0
 40
0
 41
0
  0
VERTEX
  8
0
 10
12.2867
 20
101.581
 30
0.0
 40
0
 41
0
  0
VERTEX
  8
0
 10
13.7313
 20
97.3888
 30
0.0
 40
0
 41
0
  0
VERTEX
  8
0
 10
17.5132
 20
98.6919
 30
0.0
 40
0
 41
0
  0
VERTEX
  8
0
 10
17.3501
 20
99.1646
 30
0.0
 40
0
 41
0
  0
VERTEX
  8
0
 10
21.2949
 20
99.995
 30
0.0
 40
0
 41
0
  0
VERTEX
  8
0
 10
23.6833
 20
93.0637
 30
0.0
 40
0
 41
0
  0
VERTEX
  8
0
 10
20.0644
 20
91.2879
 30
0.0
 40
0
 41
0
  0
VERTEX
  8
0
 10
19.9015
 20
91.7606
 30
0.0
 40
0
 41
0
  0
VERTEX
  8
0
 10
16.1197
 20
90.4575
 30
0.0
 40
0
 41
0
  0
VERTEX
  8
0
 10
12.3379
 20
89.1543
 30
0.0
 40
0
 41
0
  0
SEQEND
 8
0
  0
POLYLINE
  8
0
 62
     0
 66
     1
 10
0
 20
0
 30
0.0
 70
     1
 40
0
 41
0
  0
VERTEX
  8
0
 10
226.6
 20
106.614
 30
0.0
 40
0
 41
0
  0
VERTEX
  8
0
 10
238.418
 20
98.1867
 30
0.0
 40
0
 41
0
  0
VERTEX
  8
0
 10
238.418
 20
90.1867
 30
0.0
 40
0
 41
0
  0
VERTEX
  8
0
 10
238.918
 20
90.1867
 30
0.0
 40
0
 41
0
  0
VERTEX
  8
0
 10
238.418
 20
86.1867
 30
0.0
 40
0
 41
0
  0
VERTEX
  8
0
 10
231.086
 20
86.1867
 30
0.0
 40
0
 41
0
  0
VERTEX
  8
0
 10
230.586
 20
90.1867
 30
0.0
 40
0
 41
0
  0
VERTEX
  8
0
 10
231.086
 20
90.1867
 30
0.0
 40
0
 41
0
  0
VERTEX
  8
0
 10
231.086
 20
94.1867
 30
0.0
 40
0
 41
0
  0
VERTEX
  8
0
 10
226.651
 20
94.1867
 30
0.0
 40
0
 41
0
  0
VERTEX
  8
0
 10
225.207
 20
98.379
 30
0.0
 40
0
 41
0
  0
VERTEX
  8
0
 10
221.425
 20
97.076
 30
0.0
 40
0
 41
0
  0
VERTEX
  8
0
 10
221.589
 20
96.6032
 30
0.0
 40
0
 41
0
  0
VERTEX
  8
0
 10
217.643
 20
95.7728
 30
0.0
 40
0
 41
0
  0
VERTEX
  8
0
 10
215.256
 20
102.704
 30
0.0
 40
0
 41
0
  0
VERTEX
  8
0
 10
218.874
 20
104.48
 30
0.0
 40
0
 41
0
  0
VERTEX
  8
0
 10
219.038
 20
104.007
 30
0.0
 40
0
 41
0
  0
VERTEX
  8
0
 10
222.818
 20
105.31
 30
0.0
 40
0
 41
0
  0
VERTEX
  8
0
 10
226.6
 20
106.614
 30
0.0
 40
0
 41
0
  0
SEQEND
 8
0
  0
POLYLINE
  8
0
 62
     0
 66
     1
 10
0
 20
0
 30
0.0
 70
     1
 40
0
 41
0
  0
VERTEX
  8
0
 10
58.0792
 20
98.8514
 30
0.0
 40
0
 41
0
  0
VERTEX
  8
0
 10
49.6524
 20
87.0346
 30
0.0
 40
0
 41
0
  0
VERTEX
  8
0
 10
41.6524
 20
87.0346
 30
0.0
 40
0
 41
0
  0
VERTEX
  8
0
 10
41.6524
 20
86.5346
 30
0.0
 40
0
 41
0
  0
VERTEX
  8
0
 10
37.6524
 20
87.0346
 30
0.0
 40
0
 41
0
  0
VERTEX
  8
0
 10
37.6524
 20
94.3658
 30
0.0
 40
0
 41
0
  0
VERTEX
  8
0
 10
41.6524
 20
94.8658
 30
0.0
 40
0
 41
0
  0
VERTEX
  8
0
 10
41.6524
 20
94.3658
 30
0.0
 40
0
 41
0
  0
VERTEX
  8
0
 10
45.6524
 20
94.3658
 30
0.0
 40
0
 41
0
  0
VERTEX
  8
0
 10
45.6524
 20
98.8001
 30
0.0
 40
0
 41
0
  0
VERTEX
  8
0
 10
49.8447
 20
100.245
 30
0.0
 40
0
 41
0
  0
VERTEX
  8
0
 10
48.5417
 20
104.027
 30
0.0
 40
0
 41
0
  0
VERTEX
  8
0
 10
48.0689
 20
103.864
 30
0.0
 40
0
 41
0
  0
VERTEX
  8
0
 10
47.2386
 20
107.808
 30
0.0
 40
0
 41
0
  0
VERTEX
  8
0
 10
54.1699
 20
110.197
 30
0.0
 40
0
 41
0
  0
VERTEX
  8
0
 10
55.9457
 20
106.578
 30
0.0
 40
0
 41
0
  0
VERTEX
  8
0
 10
55.4729
 20
106.415
 30
0.0
 40
0
 41
0
  0
VERTEX
  8
0
 10
58.0792
 20
98.8514
 30
0.0
 40
0
 41
0
  0
SEQEND
 8
0
  0
POLYLINE
  8
0
 62
     0
 66
     1
 10
0
 20
0
 30
0.0
 70
     1
 40
0
 41
0
  0
VERTEX
  8
0
 10
100.182
 20
104.889
 30
0.0
 40
0
 41
0
  0
VERTEX
  8
0
 10
111.999
 20
96.4626
 30
0.0
 40
0
 41
0
  0
VERTEX
  8
0
 10
111.999
 20
88.4626
 30
0.0
 40
0
 41
0
  0
VERTEX
  8
0
 10
112.499
 20
88.4626
 30
0.0
 40
0
 41
0
  0
VERTEX
  8
0
 10
111.999
 20
84.4626
 30
0.0
 40
0
 41
0
  0
VERTEX
  8
0
 10
104.668
 20
84.4626
 30
0.0
 40
0
 41
0
  0
VERTEX
  8
0
 10
104.168
 20
88.4626
 30
0.0
 40
0
 41
0
  0
VERTEX
  8
0
 10
104.668
 20
88.4626
 30
0.0
 40
0
 41
0
  0
VERTEX
  8
0
 10
104.668
 20
92.4626
 30
0.0
 40
0
 41
0
  0
VERTEX
  8
0
 10
100.234
 20
92.4626
 30
0.0
 40
0
 41
0
  0
VERTEX
  8
0
 10
98.7889
 20
96.655
 30
0.0
 40
0
 41
0
  0
VERTEX
  8
0
 10
95.0072
 20
95.3519
 30
0.0
 40
0
 41
0
  0
VERTEX
  8
0
 10
95.1701
 20
94.8792
 30
0.0
 40
0
 41
0
  0
VERTEX
  8
0
 10
91.2254
 20
94.0489
 30
0.0
 40
0
 41
0
  0
VERTEX
  8
0
 10
88.8371
 20
100.98
 30
0.0
 40
0
 41
0
  0
VERTEX
  8
0
 10
92.4558
 20
102.756
 30
0.0
 40
0
 41
0
  0
VERTEX
  8
0
 10
92.6187
 20
102.283
 30
0.0
 40
0
 41
0
  0
VERTEX
  8
0
 10
96.4006
 20
103.586
 30
0.0
 40
0
 41
0
  0
VERTEX
  8
0
 10
100.182
 20
104.889
 30
0.0
 40
0
 41
0
  0
SEQEND
 8
0
  0
POLYLINE
  8
0
 62
     0
 66
     1
 10
0
 20
0
 30
0.0
 70
     1
 40
0
 41
0
  0
VERTEX
  8
0
 10
139.544
 20
97.2944
 30
0.0
 40
0
 41
0
  0
VERTEX
  8
0
 10
131.117
 20
85.4775
 30
0.0
 40
0
 41
0
  0
VERTEX
  8
0
 10
123.117
 20
85.4775
 30
0.0
 40
0
 41
0
  0
VERTEX
  8
0
 10
123.117
 20
84.9775
 30
0.0
 40
0
 41
0
  0
VERTEX
  8
0
 10
119.117
 20
85.4775
 30
0.0
 40
0
 41
0
  0
VERTEX
  8
0
 10
119.117
 20
92.8088
 30
0.0
 40
0
 41
0
  0
VERTEX
  8
0
 10
123.117
 20
93.3088
 30
0.0
 40
0
 41
0
  0
VERTEX
  8
0
 10
123.117
 20
92.8088
 30
0.0
 40
0
 41
0
  0
VERTEX
  8
0
 10
127.117
 20
92.8088
 30
0.0
 40
0
 41
0
  0
VERTEX
  8
0
 10
127.117
 20
97.2431
 30
0.0
 40
0
 41
0
  0
VERTEX
  8
0
 10
131.31
 20
98.6878
 30
0.0
 40
0
 41
0
  0
VERTEX
  8
0
 10
130.007
 20
102.47
 30
0.0
 40
0
 41
0
  0
VERTEX
  8
0
 10
129.534
 20
102.307
 30
0.0
 40
0
 41
0
  0
VERTEX
  8
0
 10
128.704
 20
106.251
 30
0.0
 40
0
 41
0
  0
VERTEX
  8
0
 10
135.635
 20
108.64
 30
0.0
 40
0
 41
0
  0
VERTEX
  8
0
 10
137.411
 20
105.021
 30
0.0
 40
0
 41
0
  0
VERTEX
  8
0
 10
136.938
 20
104.858
 30
0.0
 40
0
 41
0
  0
VERTEX
  8
0
 10
139.544
 20
97.2944
 30
0.0
 40
0
 41
0
  0
SEQEND
 8
0
  0
POLYLINE
  8
0
 62
     0
 66
     1
 10
0
 20
0
 30
0.0
 70
     1
 40
0
 41
0
  0
VERTEX
  8
0
 10
173.511
 20
86.0115
 30
0.0
 40
0
 41
0
  0
VERTEX
  8
0
 10
161.694
 20
94.4385
 30
0.0
 40
0
 41
0
  0
VERTEX
  8
0
 10
161.694
 20
102.438
 30
0.0
 40
0
 41
0
  0
VERTEX
  8
0
 10
161.194
 20
102.438
 30
0.0
 40
0
 41
0
  0
VERTEX
  8
0
 10
161.694
 20
106.438
 30
0.0
 40
0
 41
0
  0
VERTEX
  8
0
 10
169.025
 20
106.438
 30
0.0
 40
0
 41
0
  0
VERTEX
  8
0
 10
169.525
 20
102.438
 30
0.0
 40
0
 41
0
  0
VERTEX
  8
0
 10
169.025
 20
102.438
 30
0.0
 40
0
 41
0
  0
VERTEX
  8
0
 10
169.025
 20
98.4385
 30
0.0
 40
0
 41
0
  0
VERTEX
  8
0
 10
173.46
 20
98.4385
 30
0.0
 40
0
 41
0
  0
VERTEX
  8
0
 10
174.904
 20
94.246
 30
0.0
 40
0
 41
0
  0
VERTEX
  8
0
 10
178.686
 20
95.5492
 30
0.0
 40
0
 41
0
  0
VERTEX
  8
0
 10
178.524
 20
96.0218
 30
0.0
 40
0
 41
0
  0
VERTEX
  8
0
 10
182.468
 20
96.8522
 30
0.0
 40
0
 41
0
  0
VERTEX
  8
0
 10
184.856
 20
89.9208
 30
0.0
 40
0
 41
0
  0
VERTEX
  8
0
 10
181.237
 20
88.1451
 30
0.0
 40
0
 41
0
  0
VERTEX
  8
0
 10
181.075
 20
88.6178
 30
0.0
 40
0
 41
0
  0
VERTEX
  8
0
 10
173.511
 20
86.0115
 30
0.0
 40
0
 41
0
  0
SEQEND
 8
0
  0
POLYLINE
  8
0
 62
     0
 66
     1
 10
0
 20
0
 30
0.0
 70
     1
 40
0
 41
0
  0
VERTEX
  8
0
 10
185.936
 20
89.4554
 30
0.0
 40
0
 41
0
  0
VERTEX
  8
0
 10
194.362
 20
101.272
 30
0.0
 40
0
 41
0
  0
VERTEX
  8
0
 10
202.362
 20
101.272
 30
0.0
 40
0
 41
0
  0
VERTEX
  8
0
 10
202.362
 20
101.772
 30
0.0
 40
0
 41
0
  0
VERTEX
  8
0
 10
206.362
 20
101.272
 30
0.0
 40
0
 41
0
  0
VERTEX
  8
0
 10
206.362
 20
93.941
 30
0.0
 40
0
 41
0
  0
VERTEX
  8
0
 10
202.362
 20
93.441
 30
0.0
 40
0
 41
0
  0
VERTEX
  8
0
 10
202.362
 20
93.941
 30
0.0
 40
0
 41
0
  0
VERTEX
  8
0
 10
198.362
 20
93.941
 30
0.0
 40
0
 41
0
  0
VERTEX
  8
0
 10
198.362
 20
89.5065
 30
0.0
 40
0
 41
0
  0
VERTEX
  8
0
 10
194.171
 20
88.0619
 30
0.0
 40
0
 41
0
  0
VERTEX
  8
0
 10
195.474
 20
84.2801
 30
0.0
 40
0
 41
0
  0
VERTEX
  8
0
 10
195.947
 20
84.4431
 30
0.0
 40
0
 41
0
  0
VERTEX
  8
0
 10
196.776
 20
80.4983
 30
0.0
 40
0
 41
0
  0
VERTEX
  8
0
 10
189.846
 20
78.11
 30
0.0
 40
0
 41
0
  0
VERTEX
  8
0
 10
188.069
 20
81.7289
 30
0.0
 40
0
 41
0
  0
VERTEX
  8
0
 10
188.543
 20
81.8918
 30
0.0
 40
0
 41
0
  0
VERTEX
  8
0
 10
185.936
 20
89.4554
 30
0.0
 40
0
 41
0
  0
SEQEND
 8
0
  0
POLYLINE
  8
0
 62
     0
 66
     1
 10
0
 20
0
 30
0.0
 70
     1
 40
0
 41
0
  0
VERTEX
  8
0
 10
218.285
 20
89.3036
 30
0.0
 40
0
 41
0
  0
VERTEX
  8
0
 10
209.857
 20
77.4868
 30
0.0
 40
0
 41
0
  0
VERTEX
  8
0
 10
201.857
 20
77.4868
 30
0.0
 40
0
 41
0
  0
VERTEX
  8
0
 10
201.857
 20
76.9868
 30
0.0
 40
0
 41
0
  0
VERTEX
  8
0
 10
197.857
 20
77.4868
 30
0.0
 40
0
 41
0
  0
VERTEX
  8
0
 10
197.857
 20
84.8181
 30
0.0
 40
0
 41
0
  0
VERTEX
  8
0
 10
201.857
 20
85.3181
 30
0.0
 40
0
 41
0
  0
VERTEX
  8
0
 10
201.857
 20
84.8181
 30
0.0
 40
0
 41
0
  0
VERTEX
  8
0
 10
205.857
 20
84.8181
 30
0.0
 40
0
 41
0
  0
VERTEX
  8
0
 10
205.857
 20
89.2525
 30
0.0
 40
0
 41
0
  0
VERTEX
  8
0
 10
210.05
 20
90.6971
 30
0.0
 40
0
 41
0
  0
VERTEX
  8
0
 10
208.747
 20
94.4789
 30
0.0
 40
0
 41
0
  0
VERTEX
  8
0
 10
208.274
 20
94.316
 30
0.0
 40
0
 41
0
  0
VERTEX
  8
0
 10
207.443
 20
98.2607
 30
0.0
 40
0
 41
0
  0
VERTEX
  8
0
 10
214.375
 20
100.649
 30
0.0
 40
0
 41
0
  0
VERTEX
  8
0
 10
216.15
 20
97.0301
 30
0.0
 40
0
 41
0
  0
VERTEX
  8
0
 10
215.678
 20
96.8672
 30
0.0
 40
0
 41
0
  0
VERTEX
  8
0
 10
218.285
 20
89.3036
 30
0.0
 40
0
 41
0
  0
SEQEND
 8
0
  0
POLYLINE
  8
0
 62
     0
 66
     1
 10
0
 20
0
 30
0.0
 70
     1
 40
0
 41
0
  0
VERTEX
  8
0
 10
156.769
 20
96.7224
 30
0.0
 40
0
 41
0
  0
VERTEX
  8
0
 10
168.586
 20
88.2956
 30
0.0
 40
0
 41
0
  0
VERTEX
  8
0
 10
168.586
 20
80.2956
 30
0.0
 40
0
 41
0
  0
VERTEX
  8
0
 10
169.086
 20
80.2956
 30
0.0
 40
0
 41
0
  0
VERTEX
  8
0
 10
168.586
 20
76.2956
 30
0.0
 40
0
 41
0
  0
VERTEX
  8
0
 10
161.254
 20
76.2956
 30
0.0
 40
0
 41
0
  0
VERTEX
  8
0
 10
160.754
 20
80.2956
 30
0.0
 40
0
 41
0
  0
VERTEX
  8
0
 10
161.254
 20
80.2956
 30
0.0
 40
0
 41
0
  0
VERTEX
  8
0
 10
161.254
 20
84.2956
 30
0.0
 40
0
 41
0
  0
VERTEX
  8
0
 10
156.821
 20
84.2956
 30
0.0
 40
0
 41
0
  0
VERTEX
  8
0
 10
155.375
 20
88.4879
 30
0.0
 40
0
 41
0
  0
VERTEX
  8
0
 10
151.594
 20
87.1849
 30
0.0
 40
0
 41
0
  0
VERTEX
  8
0
 10
151.757
 20
86.7121
 30
0.0
 40
0
 41
0
  0
VERTEX
  8
0
 10
147.813
 20
85.8817
 30
0.0
 40
0
 41
0
  0
VERTEX
  8
0
 10
145.424
 20
92.8131
 30
0.0
 40
0
 41
0
  0
VERTEX
  8
0
 10
149.043
 20
94.5889
 30
0.0
 40
0
 41
0
  0
VERTEX
  8
0
 10
149.206
 20
94.1161
 30
0.0
 40
0
 41
0
  0
VERTEX
  8
0
 10
156.769
 20
96.7224
 30
0.0
 40
0
 41
0
  0
SEQEND
 8
0
  0
POLYLINE
  8
0
 62
     0
 66
     1
 10
0
 20
0
 30
0.0
 70
     1
 40
0
 41
0
  0
VERTEX
  8
0
 10
256.746
 20
76.2642
 30
0.0
 40
0
 41
0
  0
VERTEX
  8
0
 10
244.929
 20
84.6911
 30
0.0
 40
0
 41
0
  0
VERTEX
  8
0
 10
244.929
 20
92.6911
 30
0.0
 40
0
 41
0
  0
VERTEX
  8
0
 10
244.429
 20
92.6911
 30
0.0
 40
0
 41
0
  0
VERTEX
  8
0
 10
244.929
 20
96.6911
 30
0.0
 40
0
 41
0
  0
VERTEX
  8
0
 10
252.26
 20
96.6911
 30
0.0
 40
0
 41
0
  0
VERTEX
  8
0
 10
252.76
 20
92.6911
 30
0.0
 40
0
 41
0
  0
VERTEX
  8
0
 10
252.26
 20
92.6911
 30
0.0
 40
0
 41
0
  0
VERTEX
  8
0
 10
252.26
 20
88.6911
 30
0.0
 40
0
 41
0
  0
VERTEX
  8
0
 10
256.694
 20
88.6911
 30
0.0
 40
0
 41
0
  0
VERTEX
  8
0
 10
258.139
 20
84.4986
 30
0.0
 40
0
 41
0
  0
VERTEX
  8
0
 10
261.921
 20
85.8018
 30
0.0
 40
0
 41
0
  0
VERTEX
  8
0
 10
261.758
 20
86.2746
 30
0.0
 40
0
 41
0
  0
VERTEX
  8
0
 10
265.703
 20
87.1049
 30
0.0
 40
0
 41
0
  0
VERTEX
  8
0
 10
268.092
 20
80.1736
 30
0.0
 40
0
 41
0
  0
VERTEX
  8
0
 10
264.472
 20
78.3978
 30
0.0
 40
0
 41
0
  0
VERTEX
  8
0
 10
264.31
 20
78.8704
 30
0.0
 40
0
 41
0
  0
VERTEX
  8
0
 10
260.528
 20
77.5674
 30
0.0
 40
0
 41
0
  0
VERTEX
  8
0
 10
256.746
 20
76.2642
 30
0.0
 40
0
 41
0
  0
SEQEND
 8
0
  0
POLYLINE
  8
0
 62
     0
 66
     1
 10
0
 20
0
 30
0.0
 70
     1
 40
0
 41
0
  0
VERTEX
  8
0
 10
34.5318
 20
88.7003
 30
0.0
 40
0
 41
0
  0
VERTEX
  8
0
 10
26.1049
 20
76.8835
 30
0.0
 40
0
 41
0
  0
VERTEX
  8
0
 10
18.1049
 20
76.8835
 30
0.0
 40
0
 41
0
  0
VERTEX
  8
0
 10
18.1049
 20
76.3835
 30
0.0
 40
0
 41
0
  0
VERTEX
  8
0
 10
14.1049
 20
76.8835
 30
0.0
 40
0
 41
0
  0
VERTEX
  8
0
 10
14.1049
 20
84.2147
 30
0.0
 40
0
 41
0
  0
VERTEX
  8
0
 10
18.1049
 20
84.7147
 30
0.0
 40
0
 41
0
  0
VERTEX
  8
0
 10
18.1049
 20
84.2147
 30
0.0
 40
0
 41
0
  0
VERTEX
  8
0
 10
22.1049
 20
84.2147
 30
0.0
 40
0
 41
0
  0
VERTEX
  8
0
 10
22.1049
 20
88.649
 30
0.0
 40
0
 41
0
  0
VERTEX
  8
0
 10
26.2974
 20
90.0938
 30
0.0
 40
0
 41
0
  0
VERTEX
  8
0
 10
24.9942
 20
93.8756
 30
0.0
 40
0
 41
0
  0
VERTEX
  8
0
 10
24.5215
 20
93.7125
 30
0.0
 40
0
 41
0
  0
VERTEX
  8
0
 10
23.6911
 20
97.6572
 30
0.0
 40
0
 41
0
  0
VERTEX
  8
0
 10
30.6224
 20
100.046
 30
0.0
 40
0
 41
0
  0
VERTEX
  8
0
 10
32.3983
 20
96.4268
 30
0.0
 40
0
 41
0
  0
VERTEX
  8
0
 10
31.9256
 20
96.2639
 30
0.0
 40
0
 41
0
  0
VERTEX
  8
0
 10
34.5318
 20
88.7003
 30
0.0
 40
0
 41
0
  0
SEQEND
 8
0
  0
POLYLINE
  8
0
 62
     0
 66
     1
 10
0
 20
0
 30
0.0
 70
     1
 40
0
 41
0
  0
VERTEX
  8
0
 10
69.3903
 20
75.7351
 30
0.0
 40
0
 41
0
  0
VERTEX
  8
0
 10
57.5733
 20
84.1619
 30
0.0
 40
0
 41
0
  0
VERTEX
  8
0
 10
57.5733
 20
92.1619
 30
0.0
 40
0
 41
0
  0
VERTEX
  8
0
 10
57.0733
 20
92.1619
 30
0.0
 40
0
 41
0
  0
VERTEX
  8
0
 10
57.5733
 20
96.1619
 30
0.0
 40
0
 41
0
  0
VERTEX
  8
0
 10
64.9047
 20
96.1619
 30
0.0
 40
0
 41
0
  0
VERTEX
  8
0
 10
65.4047
 20
92.1619
 30
0.0
 40
0
 41
0
  0
VERTEX
  8
0
 10
64.9047
 20
92.1619
 30
0.0
 40
0
 41
0
  0
VERTEX
  8
0
 10
64.9047
 20
88.1619
 30
0.0
 40
0
 41
0
  0
VERTEX
  8
0
 10
69.339
 20
88.1619
 30
0.0
 40
0
 41
0
  0
VERTEX
  8
0
 10
70.7836
 20
83.9694
 30
0.0
 40
0
 41
0
  0
VERTEX
  8
0
 10
74.5654
 20
85.2726
 30
0.0
 40
0
 41
0
  0
VERTEX
  8
0
 10
74.4025
 20
85.7453
 30
0.0
 40
0
 41
0
  0
VERTEX
  8
0
 10
78.3472
 20
86.5757
 30
0.0
 40
0
 41
0
  0
VERTEX
  8
0
 10
80.7356
 20
79.6444
 30
0.0
 40
0
 41
0
  0
VERTEX
  8
0
 10
77.1167
 20
77.8686
 30
0.0
 40
0
 41
0
  0
VERTEX
  8
0
 10
76.9539
 20
78.3412
 30
0.0
 40
0
 41
0
  0
VERTEX
  8
0
 10
69.3903
 20
75.7351
 30
0.0
 40
0
 41
0
  0
SEQEND
 8
0
  0
POLYLINE
  8
0
 62
     0
 66
     1
 10
0
 20
0
 30
0.0
 70
     1
 40
0
 41
0
  0
VERTEX
  8
0
 10
81.8854
 20
79.3375
 30
0.0
 40
0
 41
0
  0
VERTEX
  8
0
 10
90.3122
 20
91.1543
 30
0.0
 40
0
 41
0
  0
VERTEX
  8
0
 10
98.3122
 20
91.1543
 30
0.0
 40
0
 41
0
  0
VERTEX
  8
0
 10
98.3122
 20
91.6543
 30
0.0
 40
0
 41
0
  0
VERTEX
  8
0
 10
102.312
 20
91.1543
 30
0.0
 40
0
 41
0
  0
VERTEX
  8
0
 10
102.312
 20
83.8231
 30
0.0
 40
0
 41
0
  0
VERTEX
  8
0
 10
98.3122
 20
83.3231
 30
0.0
 40
0
 41
0
  0
VERTEX
  8
0
 10
98.3122
 20
83.8231
 30
0.0
 40
0
 41
0
  0
VERTEX
  8
0
 10
94.3122
 20
83.8231
 30
0.0
 40
0
 41
0
  0
VERTEX
  8
0
 10
94.3122
 20
79.3886
 30
0.0
 40
0
 41
0
  0
VERTEX
  8
0
 10
90.1199
 20
77.944
 30
0.0
 40
0
 41
0
  0
VERTEX
  8
0
 10
91.4229
 20
74.1622
 30
0.0
 40
0
 41
0
  0
VERTEX
  8
0
 10
91.8957
 20
74.3251
 30
0.0
 40
0
 41
0
  0
VERTEX
  8
0
 10
92.7261
 20
70.3804
 30
0.0
 40
0
 41
0
  0
VERTEX
  8
0
 10
85.7947
 20
67.9921
 30
0.0
 40
0
 41
0
  0
VERTEX
  8
0
 10
84.0189
 20
71.611
 30
0.0
 40
0
 41
0
  0
VERTEX
  8
0
 10
84.4915
 20
71.7739
 30
0.0
 40
0
 41
0
  0
VERTEX
  8
0
 10
81.8854
 20
79.3375
 30
0.0
 40
0
 41
0
  0
SEQEND
 8
0
  0
POLYLINE
  8
0
 62
     0
 66
     1
 10
0
 20
0
 30
0.0
 70
     1
 40
0
 41
0
  0
VERTEX
  8
0
 10
125.553
 20
75.9531
 30
0.0
 40
0
 41
0
  0
VERTEX
  8
0
 10
133.98
 20
87.7699
 30
0.0
 40
0
 41
0
  0
VERTEX
  8
0
 10
141.981
 20
87.7699
 30
0.0
 40
0
 41
0
  0
VERTEX
  8
0
 10
141.981
 20
88.2699
 30
0.0
 40
0
 41
0
  0
VERTEX
  8
0
 10
145.981
 20
87.7699
 30
0.0
 40
0
 41
0
  0
VERTEX
  8
0
 10
145.981
 20
80.4386
 30
0.0
 40
0
 41
0
  0
VERTEX
  8
0
 10
141.981
 20
79.9386
 30
0.0
 40
0
 41
0
  0
VERTEX
  8
0
 10
141.981
 20
80.4386
 30
0.0
 40
0
 41
0
  0
VERTEX
  8
0
 10
137.98
 20
80.4386
 30
0.0
 40
0
 41
0
  0
VERTEX
  8
0
 10
137.98
 20
76.0042
 30
0.0
 40
0
 41
0
  0
VERTEX
  8
0
 10
133.788
 20
74.5596
 30
0.0
 40
0
 41
0
  0
VERTEX
  8
0
 10
135.091
 20
70.7778
 30
0.0
 40
0
 41
0
  0
VERTEX
  8
0
 10
135.564
 20
70.9407
 30
0.0
 40
0
 41
0
  0
VERTEX
  8
0
 10
136.394
 20
66.996
 30
0.0
 40
0
 41
0
  0
VERTEX
  8
0
 10
129.463
 20
64.6076
 30
0.0
 40
0
 41
0
  0
VERTEX
  8
0
 10
127.687
 20
68.2265
 30
0.0
 40
0
 41
0
  0
VERTEX
  8
0
 10
128.16
 20
68.3894
 30
0.0
 40
0
 41
0
  0
VERTEX
  8
0
 10
125.553
 20
75.9531
 30
0.0
 40
0
 41
0
  0
SEQEND
 8
0
  0
POLYLINE
  8
0
 62
     0
 66
     1
 10
0
 20
0
 30
0.0
 70
     1
 40
0
 41
0
  0
VERTEX
  8
0
 10
12.3379
 20
64.9625
 30
0.0
 40
0
 41
0
  0
VERTEX
  8
0
 10
0.52105
 20
73.3894
 30
0.0
 40
0
 41
0
  0
VERTEX
  8
0
 10
0.52105
 20
81.3894
 30
0.0
 40
0
 41
0
  0
VERTEX
  8
0
 10
0.0210504
 20
81.3894
 30
0.0
 40
0
 41
0
  0
VERTEX
  8
0
 10
0.52105
 20
85.3894
 30
0.0
 40
0
 41
0
  0
VERTEX
  8
0
 10
7.85232
 20
85.3894
 30
0.0
 40
0
 41
0
  0
VERTEX
  8
0
 10
8.35232
 20
81.3894
 30
0.0
 40
0
 41
0
  0
VERTEX
  8
0
 10
7.85232
 20
81.3894
 30
0.0
 40
0
 41
0
  0
VERTEX
  8
0
 10
7.85232
 20
77.3894
 30
0.0
 40
0
 41
0
  0
VERTEX
  8
0
 10
12.2867
 20
77.3894
 30
0.0
 40
0
 41
0
  0
VERTEX
  8
0
 10
13.7313
 20
73.1969
 30
0.0
 40
0
 41
0
  0
VERTEX
  8
0
 10
17.5132
 20
74.5001
 30
0.0
 40
0
 41
0
  0
VERTEX
  8
0
 10
17.3501
 20
74.9728
 30
0.0
 40
0
 41
0
  0
VERTEX
  8
0
 10
21.2949
 20
75.8032
 30
0.0
 40
0
 41
0
  0
VERTEX
  8
0
 10
23.6833
 20
68.8719
 30
0.0
 40
0
 41
0
  0
VERTEX
  8
0
 10
20.0644
 20
67.096
 30
0.0
 40
0
 41
0
  0
VERTEX
  8
0
 10
19.9015
 20
67.5688
 30
0.0
 40
0
 41
0
  0
VERTEX
  8
0
 10
16.1197
 20
66.2657
 30
0.0
 40
0
 41
0
  0
VERTEX
  8
0
 10
12.3379
 20
64.9625
 30
0.0
 40
0
 41
0
  0
SEQEND
 8
0
  0
POLYLINE
  8
0
 62
     0
 66
     1
 10
0
 20
0
 30
0.0
 70
     1
 40
0
 41
0
  0
VERTEX
  8
0
 10
230.043
 20
80.9063
 30
0.0
 40
0
 41
0
  0
VERTEX
  8
0
 10
221.617
 20
69.0893
 30
0.0
 40
0
 41
0
  0
VERTEX
  8
0
 10
213.617
 20
69.0893
 30
0.0
 40
0
 41
0
  0
VERTEX
  8
0
 10
213.617
 20
68.5893
 30
0.0
 40
0
 41
0
  0
VERTEX
  8
0
 10
209.617
 20
69.0893
 30
0.0
 40
0
 41
0
  0
VERTEX
  8
0
 10
209.617
 20
76.4206
 30
0.0
 40
0
 41
0
  0
VERTEX
  8
0
 10
213.617
 20
76.9206
 30
0.0
 40
0
 41
0
  0
VERTEX
  8
0
 10
213.617
 20
76.4206
 30
0.0
 40
0
 41
0
  0
VERTEX
  8
0
 10
217.617
 20
76.4206
 30
0.0
 40
0
 41
0
  0
VERTEX
  8
0
 10
217.617
 20
80.8549
 30
0.0
 40
0
 41
0
  0
VERTEX
  8
0
 10
221.808
 20
82.2996
 30
0.0
 40
0
 41
0
  0
VERTEX
  8
0
 10
220.506
 20
86.0814
 30
0.0
 40
0
 41
0
  0
VERTEX
  8
0
 10
220.033
 20
85.9185
 30
0.0
 40
0
 41
0
  0
VERTEX
  8
0
 10
219.203
 20
89.8631
 30
0.0
 40
0
 41
0
  0
VERTEX
  8
0
 10
226.133
 20
92.2515
 30
0.0
 40
0
 41
0
  0
VERTEX
  8
0
 10
227.91
 20
88.6326
 30
0.0
 40
0
 41
0
  0
VERTEX
  8
0
 10
227.436
 20
88.4697
 30
0.0
 40
0
 41
0
  0
VERTEX
  8
0
 10
228.74
 20
84.6879
 30
0.0
 40
0
 41
0
  0
VERTEX
  8
0
 10
230.043
 20
80.9063
 30
0.0
 40
0
 41
0
  0
SEQEND
 8
0
  0
POLYLINE
  8
0
 62
     0
 66
     1
 10
0
 20
0
 30
0.0
 70
     1
 40
0
 41
0
  0
VERTEX
  8
0
 10
42.1906
 20
85.46
 30
0.0
 40
0
 41
0
  0
VERTEX
  8
0
 10
54.0075
 20
77.0331
 30
0.0
 40
0
 41
0
  0
VERTEX
  8
0
 10
54.0075
 20
69.0331
 30
0.0
 40
0
 41
0
  0
VERTEX
  8
0
 10
54.5075
 20
69.0331
 30
0.0
 40
0
 41
0
  0
VERTEX
  8
0
 10
54.0075
 20
65.0331
 30
0.0
 40
0
 41
0
  0
VERTEX
  8
0
 10
46.6762
 20
65.0331
 30
0.0
 40
0
 41
0
  0
VERTEX
  8
0
 10
46.1762
 20
69.0331
 30
0.0
 40
0
 41
0
  0
VERTEX
  8
0
 10
46.6762
 20
69.0331
 30
0.0
 40
0
 41
0
  0
VERTEX
  8
0
 10
46.6762
 20
73.0331
 30
0.0
 40
0
 41
0
  0
VERTEX
  8
0
 10
42.2418
 20
73.0331
 30
0.0
 40
0
 41
0
  0
VERTEX
  8
0
 10
40.7972
 20
77.2256
 30
0.0
 40
0
 41
0
  0
VERTEX
  8
0
 10
37.0154
 20
75.9224
 30
0.0
 40
0
 41
0
  0
VERTEX
  8
0
 10
37.1783
 20
75.4497
 30
0.0
 40
0
 41
0
  0
VERTEX
  8
0
 10
33.2336
 20
74.6193
 30
0.0
 40
0
 41
0
  0
VERTEX
  8
0
 10
30.8453
 20
81.5506
 30
0.0
 40
0
 41
0
  0
VERTEX
  8
0
 10
34.4642
 20
83.3264
 30
0.0
 40
0
 41
0
  0
VERTEX
  8
0
 10
34.6269
 20
82.8538
 30
0.0
 40
0
 41
0
  0
VERTEX
  8
0
 10
38.4087
 20
84.1568
 30
0.0
 40
0
 41
0
  0
VERTEX
  8
0
 10
42.1906
 20
85.46
 30
0.0
 40
0
 41
0
  0
SEQEND
 8
0
  0
POLYLINE
  8
0
 62
     0
 66
     1
 10
0
 20
0
 30
0.0
 70
     1
 40
0
 41
0
  0
VERTEX
  8
0
 10
182.494
 20
64.5393
 30
0.0
 40
0
 41
0
  0
VERTEX
  8
0
 10
170.678
 20
72.9662
 30
0.0
 40
0
 41
0
  0
VERTEX
  8
0
 10
170.678
 20
80.9662
 30
0.0
 40
0
 41
0
  0
VERTEX
  8
0
 10
170.178
 20
80.9662
 30
0.0
 40
0
 41
0
  0
VERTEX
  8
0
 10
170.678
 20
84.9662
 30
0.0
 40
0
 41
0
  0
VERTEX
  8
0
 10
178.008
 20
84.9662
 30
0.0
 40
0
 41
0
  0
VERTEX
  8
0
 10
178.508
 20
80.9662
 30
0.0
 40
0
 41
0
  0
VERTEX
  8
0
 10
178.008
 20
80.9662
 30
0.0
 40
0
 41
0
  0
VERTEX
  8
0
 10
178.008
 20
76.9662
 30
0.0
 40
0
 41
0
  0
VERTEX
  8
0
 10
182.443
 20
76.9662
 30
0.0
 40
0
 41
0
  0
VERTEX
  8
0
 10
183.888
 20
72.7737
 30
0.0
 40
0
 41
0
  0
VERTEX
  8
0
 10
187.669
 20
74.0769
 30
0.0
 40
0
 41
0
  0
VERTEX
  8
0
 10
187.507
 20
74.5496
 30
0.0
 40
0
 41
0
  0
VERTEX
  8
0
 10
191.451
 20
75.38
 30
0.0
 40
0
 41
0
  0
VERTEX
  8
0
 10
193.84
 20
68.4486
 30
0.0
 40
0
 41
0
  0
VERTEX
  8
0
 10
190.221
 20
66.6729
 30
0.0
 40
0
 41
0
  0
VERTEX
  8
0
 10
190.058
 20
67.1456
 30
0.0
 40
0
 41
0
  0
VERTEX
  8
0
 10
186.276
 20
65.8425
 30
0.0
 40
0
 41
0
  0
VERTEX
  8
0
 10
182.494
 20
64.5393
 30
0.0
 40
0
 41
0
  0
SEQEND
 8
0
  0
POLYLINE
  8
0
 62
     0
 66
     1
 10
0
 20
0
 30
0.0
 70
     1
 40
0
 41
0
  0
VERTEX
  8
0
 10
243.457
 20
64.7597
 30
0.0
 40
0
 41
0
  0
VERTEX
  8
0
 10
231.639
 20
73.1867
 30
0.0
 40
0
 41
0
  0
VERTEX
  8
0
 10
231.639
 20
81.1867
 30
0.0
 40
0
 41
0
  0
VERTEX
  8
0
 10
231.139
 20
81.1867
 30
0.0
 40
0
 41
0
  0
VERTEX
  8
0
 10
231.639
 20
85.1867
 30
0.0
 40
0
 41
0
  0
VERTEX
  8
0
 10
238.971
 20
85.1867
 30
0.0
 40
0
 41
0
  0
VERTEX
  8
0
 10
239.471
 20
81.1867
 30
0.0
 40
0
 41
0
  0
VERTEX
  8
0
 10
238.971
 20
81.1867
 30
0.0
 40
0
 41
0
  0
VERTEX
  8
0
 10
238.971
 20
77.1867
 30
0.0
 40
0
 41
0
  0
VERTEX
  8
0
 10
243.406
 20
77.1867
 30
0.0
 40
0
 41
0
  0
VERTEX
  8
0
 10
244.85
 20
72.9942
 30
0.0
 40
0
 41
0
  0
VERTEX
  8
0
 10
248.632
 20
74.2974
 30
0.0
 40
0
 41
0
  0
VERTEX
  8
0
 10
248.468
 20
74.7701
 30
0.0
 40
0
 41
0
  0
VERTEX
  8
0
 10
252.414
 20
75.6004
 30
0.0
 40
0
 41
0
  0
VERTEX
  8
0
 10
254.801
 20
68.6692
 30
0.0
 40
0
 41
0
  0
VERTEX
  8
0
 10
251.183
 20
66.8933
 30
0.0
 40
0
 41
0
  0
VERTEX
  8
0
 10
251.019
 20
67.366
 30
0.0
 40
0
 41
0
  0
VERTEX
  8
0
 10
247.237
 20
66.0629
 30
0.0
 40
0
 41
0
  0
VERTEX
  8
0
 10
243.457
 20
64.7597
 30
0.0
 40
0
 41
0
  0
SEQEND
 8
0
  0
POLYLINE
  8
0
 62
     0
 66
     1
 10
0
 20
0
 30
0.0
 70
     1
 40
0
 41
0
  0
VERTEX
  8
0
 10
278.208
 20
77.9325
 30
0.0
 40
0
 41
0
  0
VERTEX
  8
0
 10
269.782
 20
66.1157
 30
0.0
 40
0
 41
0
  0
VERTEX
  8
0
 10
261.782
 20
66.1157
 30
0.0
 40
0
 41
0
  0
VERTEX
  8
0
 10
261.782
 20
65.6157
 30
0.0
 40
0
 41
0
  0
VERTEX
  8
0
 10
257.782
 20
66.1157
 30
0.0
 40
0
 41
0
  0
VERTEX
  8
0
 10
257.782
 20
73.4469
 30
0.0
 40
0
 41
0
  0
VERTEX
  8
0
 10
261.782
 20
73.9469
 30
0.0
 40
0
 41
0
  0
VERTEX
  8
0
 10
261.782
 20
73.4469
 30
0.0
 40
0
 41
0
  0
VERTEX
  8
0
 10
265.782
 20
73.4469
 30
0.0
 40
0
 41
0
  0
VERTEX
  8
0
 10
265.782
 20
77.8813
 30
0.0
 40
0
 41
0
  0
VERTEX
  8
0
 10
269.974
 20
79.326
 30
0.0
 40
0
 41
0
  0
VERTEX
  8
0
 10
268.671
 20
83.1076
 30
0.0
 40
0
 41
0
  0
VERTEX
  8
0
 10
268.199
 20
82.9449
 30
0.0
 40
0
 41
0
  0
VERTEX
  8
0
 10
267.368
 20
86.8894
 30
0.0
 40
0
 41
0
  0
VERTEX
  8
0
 10
274.299
 20
89.2779
 30
0.0
 40
0
 41
0
  0
VERTEX
  8
0
 10
276.075
 20
85.659
 30
0.0
 40
0
 41
0
  0
VERTEX
  8
0
 10
275.601
 20
85.4961
 30
0.0
 40
0
 41
0
  0
VERTEX
  8
0
 10
276.906
 20
81.7143
 30
0.0
 40
0
 41
0
  0
VERTEX
  8
0
 10
278.208
 20
77.9325
 30
0.0
 40
0
 41
0
  0
SEQEND
 8
0
  0
POLYLINE
  8
0
 62
     0
 66
     1
 10
0
 20
0
 30
0.0
 70
     1
 40
0
 41
0
  0
VERTEX
  8
0
 10
159.822
 20
64.3917
 30
0.0
 40
0
 41
0
  0
VERTEX
  8
0
 10
148.006
 20
72.8185
 30
0.0
 40
0
 41
0
  0
VERTEX
  8
0
 10
148.006
 20
80.8185
 30
0.0
 40
0
 41
0
  0
VERTEX
  8
0
 10
147.506
 20
80.8185
 30
0.0
 40
0
 41
0
  0
VERTEX
  8
0
 10
148.006
 20
84.8185
 30
0.0
 40
0
 41
0
  0
VERTEX
  8
0
 10
155.336
 20
84.8185
 30
0.0
 40
0
 41
0
  0
VERTEX
  8
0
 10
155.836
 20
80.8185
 30
0.0
 40
0
 41
0
  0
VERTEX
  8
0
 10
155.336
 20
80.8185
 30
0.0
 40
0
 41
0
  0
VERTEX
  8
0
 10
155.336
 20
76.8185
 30
0.0
 40
0
 41
0
  0
VERTEX
  8
0
 10
159.771
 20
76.8185
 30
0.0
 40
0
 41
0
  0
VERTEX
  8
0
 10
161.215
 20
72.626
 30
0.0
 40
0
 41
0
  0
VERTEX
  8
0
 10
164.997
 20
73.9292
 30
0.0
 40
0
 41
0
  0
VERTEX
  8
0
 10
164.835
 20
74.4019
 30
0.0
 40
0
 41
0
  0
VERTEX
  8
0
 10
168.779
 20
75.2324
 30
0.0
 40
0
 41
0
  0
VERTEX
  8
0
 10
171.168
 20
68.301
 30
0.0
 40
0
 41
0
  0
VERTEX
  8
0
 10
167.549
 20
66.5251
 30
0.0
 40
0
 41
0
  0
VERTEX
  8
0
 10
167.386
 20
66.9978
 30
0.0
 40
0
 41
0
  0
VERTEX
  8
0
 10
159.822
 20
64.3917
 30
0.0
 40
0
 41
0
  0
SEQEND
 8
0
  0
POLYLINE
  8
0
 62
     0
 66
     1
 10
0
 20
0
 30
0.0
 70
     1
 40
0
 41
0
  0
VERTEX
  8
0
 10
96.5846
 20
71.6457
 30
0.0
 40
0
 41
0
  0
VERTEX
  8
0
 10
105.011
 20
83.4626
 30
0.0
 40
0
 41
0
  0
VERTEX
  8
0
 10
113.011
 20
83.4626
 30
0.0
 40
0
 41
0
  0
VERTEX
  8
0
 10
113.011
 20
83.9626
 30
0.0
 40
0
 41
0
  0
VERTEX
  8
0
 10
117.011
 20
83.4626
 30
0.0
 40
0
 41
0
  0
VERTEX
  8
0
 10
117.011
 20
76.1314
 30
0.0
 40
0
 41
0
  0
VERTEX
  8
0
 10
113.011
 20
75.6314
 30
0.0
 40
0
 41
0
  0
VERTEX
  8
0
 10
113.011
 20
76.1314
 30
0.0
 40
0
 41
0
  0
VERTEX
  8
0
 10
109.011
 20
76.1314
 30
0.0
 40
0
 41
0
  0
VERTEX
  8
0
 10
109.011
 20
71.6969
 30
0.0
 40
0
 41
0
  0
VERTEX
  8
0
 10
104.819
 20
70.2524
 30
0.0
 40
0
 41
0
  0
VERTEX
  8
0
 10
106.122
 20
66.4706
 30
0.0
 40
0
 41
0
  0
VERTEX
  8
0
 10
106.595
 20
66.6335
 30
0.0
 40
0
 41
0
  0
VERTEX
  8
0
 10
107.425
 20
62.6887
 30
0.0
 40
0
 41
0
  0
VERTEX
  8
0
 10
100.494
 20
60.3004
 30
0.0
 40
0
 41
0
  0
VERTEX
  8
0
 10
98.7181
 20
63.9193
 30
0.0
 40
0
 41
0
  0
VERTEX
  8
0
 10
99.1908
 20
64.0821
 30
0.0
 40
0
 41
0
  0
VERTEX
  8
0
 10
97.8876
 20
67.8639
 30
0.0
 40
0
 41
0
  0
VERTEX
  8
0
 10
96.5846
 20
71.6457
 30
0.0
 40
0
 41
0
  0
SEQEND
 8
0
  0
POLYLINE
  8
0
 62
     0
 66
     1
 10
0
 20
0
 30
0.0
 70
     1
 40
0
 41
0
  0
VERTEX
  8
0
 10
66.4693
 20
76.5897
 30
0.0
 40
0
 41
0
  0
VERTEX
  8
0
 10
78.2862
 20
68.1629
 30
0.0
 40
0
 41
0
  0
VERTEX
  8
0
 10
78.2862
 20
60.1629
 30
0.0
 40
0
 41
0
  0
VERTEX
  8
0
 10
78.7862
 20
60.1629
 30
0.0
 40
0
 41
0
  0
VERTEX
  8
0
 10
78.2862
 20
56.1629
 30
0.0
 40
0
 41
0
  0
VERTEX
  8
0
 10
70.955
 20
56.1629
 30
0.0
 40
0
 41
0
  0
VERTEX
  8
0
 10
70.455
 20
60.1629
 30
0.0
 40
0
 41
0
  0
VERTEX
  8
0
 10
70.955
 20
60.1629
 30
0.0
 40
0
 41
0
  0
VERTEX
  8
0
 10
70.955
 20
64.1629
 30
0.0
 40
0
 41
0
  0
VERTEX
  8
0
 10
66.5206
 20
64.1629
 30
0.0
 40
0
 41
0
  0
VERTEX
  8
0
 10
65.076
 20
68.3554
 30
0.0
 40
0
 41
0
  0
VERTEX
  8
0
 10
61.2942
 20
67.0522
 30
0.0
 40
0
 41
0
  0
VERTEX
  8
0
 10
61.4571
 20
66.5796
 30
0.0
 40
0
 41
0
  0
VERTEX
  8
0
 10
57.5124
 20
65.7492
 30
0.0
 40
0
 41
0
  0
VERTEX
  8
0
 10
55.124
 20
72.6804
 30
0.0
 40
0
 41
0
  0
VERTEX
  8
0
 10
58.7429
 20
74.4563
 30
0.0
 40
0
 41
0
  0
VERTEX
  8
0
 10
58.9057
 20
73.9836
 30
0.0
 40
0
 41
0
  0
VERTEX
  8
0
 10
66.4693
 20
76.5897
 30
0.0
 40
0
 41
0
  0
SEQEND
 8
0
  0
POLYLINE
  8
0
 62
     0
 66
     1
 10
0
 20
0
 30
0.0
 70
     1
 40
0
 41
0
  0
VERTEX
  8
0
 10
34.6294
 20
66.0108
 30
0.0
 40
0
 41
0
  0
VERTEX
  8
0
 10
26.2025
 20
54.1939
 30
0.0
 40
0
 41
0
  0
VERTEX
  8
0
 10
18.2025
 20
54.1939
 30
0.0
 40
0
 41
0
  0
VERTEX
  8
0
 10
18.2025
 20
53.6939
 30
0.0
 40
0
 41
0
  0
VERTEX
  8
0
 10
14.2025
 20
54.1939
 30
0.0
 40
0
 41
0
  0
VERTEX
  8
0
 10
14.2025
 20
61.5251
 30
0.0
 40
0
 41
0
  0
VERTEX
  8
0
 10
18.2025
 20
62.0251
 30
0.0
 40
0
 41
0
  0
VERTEX
  8
0
 10
18.2025
 20
61.5251
 30
0.0
 40
0
 41
0
  0
VERTEX
  8
0
 10
22.2025
 20
61.5251
 30
0.0
 40
0
 41
0
  0
VERTEX
  8
0
 10
22.2025
 20
65.9596
 30
0.0
 40
0
 41
0
  0
VERTEX
  8
0
 10
26.395
 20
67.4042
 30
0.0
 40
0
 41
0
  0
VERTEX
  8
0
 10
25.0918
 20
71.186
 30
0.0
 40
0
 41
0
  0
VERTEX
  8
0
 10
24.6192
 20
71.0231
 30
0.0
 40
0
 41
0
  0
VERTEX
  8
0
 10
23.7888
 20
74.9678
 30
0.0
 40
0
 41
0
  0
VERTEX
  8
0
 10
30.72
 20
77.3561
 30
0.0
 40
0
 41
0
  0
VERTEX
  8
0
 10
32.4958
 20
73.7372
 30
0.0
 40
0
 41
0
  0
VERTEX
  8
0
 10
32.0232
 20
73.5743
 30
0.0
 40
0
 41
0
  0
VERTEX
  8
0
 10
33.3263
 20
69.7925
 30
0.0
 40
0
 41
0
  0
VERTEX
  8
0
 10
34.6294
 20
66.0108
 30
0.0
 40
0
 41
0
  0
SEQEND
 8
0
  0
POLYLINE
  8
0
 62
     0
 66
     1
 10
0
 20
0
 30
0.0
 70
     1
 40
0
 41
0
  0
VERTEX
  8
0
 10
127.013
 20
54.4185
 30
0.0
 40
0
 41
0
  0
VERTEX
  8
0
 10
115.196
 20
62.8453
 30
0.0
 40
0
 41
0
  0
VERTEX
  8
0
 10
115.196
 20
70.8453
 30
0.0
 40
0
 41
0
  0
VERTEX
  8
0
 10
114.696
 20
70.8453
 30
0.0
 40
0
 41
0
  0
VERTEX
  8
0
 10
115.196
 20
74.8453
 30
0.0
 40
0
 41
0
  0
VERTEX
  8
0
 10
122.527
 20
74.8453
 30
0.0
 40
0
 41
0
  0
VERTEX
  8
0
 10
123.027
 20
70.8453
 30
0.0
 40
0
 41
0
  0
VERTEX
  8
0
 10
122.527
 20
70.8453
 30
0.0
 40
0
 41
0
  0
VERTEX
  8
0
 10
122.527
 20
66.8453
 30
0.0
 40
0
 41
0
  0
VERTEX
  8
0
 10
126.962
 20
66.8453
 30
0.0
 40
0
 41
0
  0
VERTEX
  8
0
 10
128.406
 20
62.6529
 30
0.0
 40
0
 41
0
  0
VERTEX
  8
0
 10
132.188
 20
63.956
 30
0.0
 40
0
 41
0
  0
VERTEX
  8
0
 10
132.025
 20
64.4288
 30
0.0
 40
0
 41
0
  0
VERTEX
  8
0
 10
135.97
 20
65.2592
 30
0.0
 40
0
 41
0
  0
VERTEX
  8
0
 10
138.358
 20
58.3278
 30
0.0
 40
0
 41
0
  0
VERTEX
  8
0
 10
134.739
 20
56.5519
 30
0.0
 40
0
 41
0
  0
VERTEX
  8
0
 10
134.576
 20
57.0247
 30
0.0
 40
0
 41
0
  0
VERTEX
  8
0
 10
130.795
 20
55.7215
 30
0.0
 40
0
 41
0
  0
VERTEX
  8
0
 10
127.013
 20
54.4185
 30
0.0
 40
0
 41
0
  0
SEQEND
 8
0
  0
POLYLINE
  8
0
 62
     0
 66
     1
 10
0
 20
0
 30
0.0
 70
     1
 40
0
 41
0
  0
VERTEX
  8
0
 10
232.297
 20
71.4893
 30
0.0
 40
0
 41
0
  0
VERTEX
  8
0
 10
244.114
 20
63.0625
 30
0.0
 40
0
 41
0
  0
VERTEX
  8
0
 10
244.114
 20
55.0625
 30
0.0
 40
0
 41
0
  0
VERTEX
  8
0
 10
244.614
 20
55.0625
 30
0.0
 40
0
 41
0
  0
VERTEX
  8
0
 10
244.114
 20
51.0625
 30
0.0
 40
0
 41
0
  0
VERTEX
  8
0
 10
236.783
 20
51.0625
 30
0.0
 40
0
 41
0
  0
VERTEX
  8
0
 10
236.283
 20
55.0625
 30
0.0
 40
0
 41
0
  0
VERTEX
  8
0
 10
236.783
 20
55.0625
 30
0.0
 40
0
 41
0
  0
VERTEX
  8
0
 10
236.783
 20
59.0625
 30
0.0
 40
0
 41
0
  0
VERTEX
  8
0
 10
232.349
 20
59.0625
 30
0.0
 40
0
 41
0
  0
VERTEX
  8
0
 10
230.904
 20
63.2549
 30
0.0
 40
0
 41
0
  0
VERTEX
  8
0
 10
227.122
 20
61.9518
 30
0.0
 40
0
 41
0
  0
VERTEX
  8
0
 10
227.285
 20
61.479
 30
0.0
 40
0
 41
0
  0
VERTEX
  8
0
 10
223.34
 20
60.6486
 30
0.0
 40
0
 41
0
  0
VERTEX
  8
0
 10
220.951
 20
67.58
 30
0.0
 40
0
 41
0
  0
VERTEX
  8
0
 10
224.571
 20
69.3558
 30
0.0
 40
0
 41
0
  0
VERTEX
  8
0
 10
224.733
 20
68.8831
 30
0.0
 40
0
 41
0
  0
VERTEX
  8
0
 10
228.515
 20
70.1863
 30
0.0
 40
0
 41
0
  0
VERTEX
  8
0
 10
232.297
 20
71.4893
 30
0.0
 40
0
 41
0
  0
SEQEND
 8
0
  0
POLYLINE
  8
0
 62
     0
 66
     1
 10
0
 20
0
 30
0.0
 70
     1
 40
0
 41
0
  0
VERTEX
  8
0
 10
188.189
 20
58.5451
 30
0.0
 40
0
 41
0
  0
VERTEX
  8
0
 10
196.617
 20
70.3619
 30
0.0
 40
0
 41
0
  0
VERTEX
  8
0
 10
204.617
 20
70.3619
 30
0.0
 40
0
 41
0
  0
VERTEX
  8
0
 10
204.617
 20
70.8619
 30
0.0
 40
0
 41
0
  0
VERTEX
  8
0
 10
208.617
 20
70.3619
 30
0.0
 40
0
 41
0
  0
VERTEX
  8
0
 10
208.617
 20
63.0307
 30
0.0
 40
0
 41
0
  0
VERTEX
  8
0
 10
204.617
 20
62.5307
 30
0.0
 40
0
 41
0
  0
VERTEX
  8
0
 10
204.617
 20
63.0307
 30
0.0
 40
0
 41
0
  0
VERTEX
  8
0
 10
200.617
 20
63.0307
 30
0.0
 40
0
 41
0
  0
VERTEX
  8
0
 10
200.617
 20
58.5964
 30
0.0
 40
0
 41
0
  0
VERTEX
  8
0
 10
196.424
 20
57.1517
 30
0.0
 40
0
 41
0
  0
VERTEX
  8
0
 10
197.726
 20
53.3699
 30
0.0
 40
0
 41
0
  0
VERTEX
  8
0
 10
198.2
 20
53.5328
 30
0.0
 40
0
 41
0
  0
VERTEX
  8
0
 10
199.031
 20
49.5882
 30
0.0
 40
0
 41
0
  0
VERTEX
  8
0
 10
192.099
 20
47.1997
 30
0.0
 40
0
 41
0
  0
VERTEX
  8
0
 10
190.322
 20
50.8186
 30
0.0
 40
0
 41
0
  0
VERTEX
  8
0
 10
190.796
 20
50.9815
 30
0.0
 40
0
 41
0
  0
VERTEX
  8
0
 10
188.189
 20
58.5451
 30
0.0
 40
0
 41
0
  0
SEQEND
 8
0
  0
POLYLINE
  8
0
 62
     0
 66
     1
 10
0
 20
0
 30
0.0
 70
     1
 40
0
 41
0
  0
VERTEX
  8
0
 10
148.114
 20
69.9187
 30
0.0
 40
0
 41
0
  0
VERTEX
  8
0
 10
159.931
 20
61.4918
 30
0.0
 40
0
 41
0
  0
VERTEX
  8
0
 10
159.931
 20
53.4918
 30
0.0
 40
0
 41
0
  0
VERTEX
  8
0
 10
160.431
 20
53.4918
 30
0.0
 40
0
 41
0
  0
VERTEX
  8
0
 10
159.931
 20
49.4918
 30
0.0
 40
0
 41
0
  0
VERTEX
  8
0
 10
152.6
 20
49.4918
 30
0.0
 40
0
 41
0
  0
VERTEX
  8
0
 10
152.1
 20
53.4918
 30
0.0
 40
0
 41
0
  0
VERTEX
  8
0
 10
152.6
 20
53.4918
 30
0.0
 40
0
 41
0
  0
VERTEX
  8
0
 10
152.6
 20
57.4918
 30
0.0
 40
0
 41
0
  0
VERTEX
  8
0
 10
148.165
 20
57.4918
 30
0.0
 40
0
 41
0
  0
VERTEX
  8
0
 10
146.721
 20
61.6843
 30
0.0
 40
0
 41
0
  0
VERTEX
  8
0
 10
142.939
 20
60.3811
 30
0.0
 40
0
 41
0
  0
VERTEX
  8
0
 10
143.101
 20
59.9085
 30
0.0
 40
0
 41
0
  0
VERTEX
  8
0
 10
139.157
 20
59.0781
 30
0.0
 40
0
 41
0
  0
VERTEX
  8
0
 10
136.769
 20
66.0093
 30
0.0
 40
0
 41
0
  0
VERTEX
  8
0
 10
140.388
 20
67.7853
 30
0.0
 40
0
 41
0
  0
VERTEX
  8
0
 10
140.55
 20
67.3125
 30
0.0
 40
0
 41
0
  0
VERTEX
  8
0
 10
144.332
 20
68.6156
 30
0.0
 40
0
 41
0
  0
VERTEX
  8
0
 10
148.114
 20
69.9187
 30
0.0
 40
0
 41
0
  0
SEQEND
 8
0
  0
POLYLINE
  8
0
 62
     0
 66
     1
 10
0
 20
0
 30
0.0
 70
     1
 40
0
 41
0
  0
VERTEX
  8
0
 10
175.326
 20
67.6357
 30
0.0
 40
0
 41
0
  0
VERTEX
  8
0
 10
187.144
 20
59.2087
 30
0.0
 40
0
 41
0
  0
VERTEX
  8
0
 10
187.144
 20
51.2088
 30
0.0
 40
0
 41
0
  0
VERTEX
  8
0
 10
187.644
 20
51.2088
 30
0.0
 40
0
 41
0
  0
VERTEX
  8
0
 10
187.144
 20
47.2088
 30
0.0
 40
0
 41
0
  0
VERTEX
  8
0
 10
179.813
 20
47.2088
 30
0.0
 40
0
 41
0
  0
VERTEX
  8
0
 10
179.313
 20
51.2088
 30
0.0
 40
0
 41
0
  0
VERTEX
  8
0
 10
179.813
 20
51.2088
 30
0.0
 40
0
 41
0
  0
VERTEX
  8
0
 10
179.813
 20
55.2088
 30
0.0
 40
0
 41
0
  0
VERTEX
  8
0
 10
175.378
 20
55.2088
 30
0.0
 40
0
 41
0
  0
VERTEX
  8
0
 10
173.933
 20
59.4011
 30
0.0
 40
0
 41
0
  0
VERTEX
  8
0
 10
170.151
 20
58.0981
 30
0.0
 40
0
 41
0
  0
VERTEX
  8
0
 10
170.315
 20
57.6253
 30
0.0
 40
0
 41
0
  0
VERTEX
  8
0
 10
166.369
 20
56.7949
 30
0.0
 40
0
 41
0
  0
VERTEX
  8
0
 10
163.982
 20
63.7263
 30
0.0
 40
0
 41
0
  0
VERTEX
  8
0
 10
167.6
 20
65.5021
 30
0.0
 40
0
 41
0
  0
VERTEX
  8
0
 10
167.764
 20
65.0293
 30
0.0
 40
0
 41
0
  0
VERTEX
  8
0
 10
171.546
 20
66.3325
 30
0.0
 40
0
 41
0
  0
VERTEX
  8
0
 10
175.326
 20
67.6357
 30
0.0
 40
0
 41
0
  0
SEQEND
 8
0
  0
POLYLINE
  8
0
 62
     0
 66
     1
 10
0
 20
0
 30
0.0
 70
     1
 40
0
 41
0
  0
VERTEX
  8
0
 10
47.6111
 20
51.6062
 30
0.0
 40
0
 41
0
  0
VERTEX
  8
0
 10
35.7942
 20
60.0331
 30
0.0
 40
0
 41
0
  0
VERTEX
  8
0
 10
35.7942
 20
68.0331
 30
0.0
 40
0
 41
0
  0
VERTEX
  8
0
 10
35.2942
 20
68.0331
 30
0.0
 40
0
 41
0
  0
VERTEX
  8
0
 10
35.7942
 20
72.0331
 30
0.0
 40
0
 41
0
  0
VERTEX
  8
0
 10
43.1254
 20
72.0331
 30
0.0
 40
0
 41
0
  0
VERTEX
  8
0
 10
43.6254
 20
68.0331
 30
0.0
 40
0
 41
0
  0
VERTEX
  8
0
 10
43.1254
 20
68.0331
 30
0.0
 40
0
 41
0
  0
VERTEX
  8
0
 10
43.1254
 20
64.0331
 30
0.0
 40
0
 41
0
  0
VERTEX
  8
0
 10
47.5597
 20
64.0331
 30
0.0
 40
0
 41
0
  0
VERTEX
  8
0
 10
49.0044
 20
59.8407
 30
0.0
 40
0
 41
0
  0
VERTEX
  8
0
 10
52.7863
 20
61.1438
 30
0.0
 40
0
 41
0
  0
VERTEX
  8
0
 10
52.6233
 20
61.6165
 30
0.0
 40
0
 41
0
  0
VERTEX
  8
0
 10
56.5679
 20
62.4469
 30
0.0
 40
0
 41
0
  0
VERTEX
  8
0
 10
58.9564
 20
55.5156
 30
0.0
 40
0
 41
0
  0
VERTEX
  8
0
 10
55.3375
 20
53.7397
 30
0.0
 40
0
 41
0
  0
VERTEX
  8
0
 10
55.1746
 20
54.2125
 30
0.0
 40
0
 41
0
  0
VERTEX
  8
0
 10
51.3929
 20
52.9093
 30
0.0
 40
0
 41
0
  0
VERTEX
  8
0
 10
47.6111
 20
51.6062
 30
0.0
 40
0
 41
0
  0
SEQEND
 8
0
  0
POLYLINE
  8
0
 62
     0
 66
     1
 10
0
 20
0
 30
0.0
 70
     1
 40
0
 41
0
  0
VERTEX
  8
0
 10
90.8044
 20
65.7981
 30
0.0
 40
0
 41
0
  0
VERTEX
  8
0
 10
102.621
 20
57.3713
 30
0.0
 40
0
 41
0
  0
VERTEX
  8
0
 10
102.621
 20
49.3713
 30
0.0
 40
0
 41
0
  0
VERTEX
  8
0
 10
103.121
 20
49.3713
 30
0.0
 40
0
 41
0
  0
VERTEX
  8
0
 10
102.621
 20
45.3713
 30
0.0
 40
0
 41
0
  0
VERTEX
  8
0
 10
95.29
 20
45.3713
 30
0.0
 40
0
 41
0
  0
VERTEX
  8
0
 10
94.79
 20
49.3713
 30
0.0
 40
0
 41
0
  0
VERTEX
  8
0
 10
95.29
 20
49.3713
 30
0.0
 40
0
 41
0
  0
VERTEX
  8
0
 10
95.29
 20
53.3713
 30
0.0
 40
0
 41
0
  0
VERTEX
  8
0
 10
90.8557
 20
53.3713
 30
0.0
 40
0
 41
0
  0
VERTEX
  8
0
 10
89.411
 20
57.5637
 30
0.0
 40
0
 41
0
  0
VERTEX
  8
0
 10
85.6292
 20
56.2606
 30
0.0
 40
0
 41
0
  0
VERTEX
  8
0
 10
85.7922
 20
55.7878
 30
0.0
 40
0
 41
0
  0
VERTEX
  8
0
 10
81.8475
 20
54.9574
 30
0.0
 40
0
 41
0
  0
VERTEX
  8
0
 10
79.459
 20
61.8888
 30
0.0
 40
0
 41
0
  0
VERTEX
  8
0
 10
83.0779
 20
63.6646
 30
0.0
 40
0
 41
0
  0
VERTEX
  8
0
 10
83.2408
 20
63.1919
 30
0.0
 40
0
 41
0
  0
VERTEX
  8
0
 10
90.8044
 20
65.7981
 30
0.0
 40
0
 41
0
  0
SEQEND
 8
0
  0
POLYLINE
  8
0
 62
     0
 66
     1
 10
0
 20
0
 30
0.0
 70
     1
 40
0
 41
0
  0
VERTEX
  8
0
 10
220.538
 20
56.6275
 30
0.0
 40
0
 41
0
  0
VERTEX
  8
0
 10
212.11
 20
44.8106
 30
0.0
 40
0
 41
0
  0
VERTEX
  8
0
 10
204.11
 20
44.8106
 30
0.0
 40
0
 41
0
  0
VERTEX
  8
0
 10
204.11
 20
44.3106
 30
0.0
 40
0
 41
0
  0
VERTEX
  8
0
 10
200.11
 20
44.8106
 30
0.0
 40
0
 41
0
  0
VERTEX
  8
0
 10
200.11
 20
52.1418
 30
0.0
 40
0
 41
0
  0
VERTEX
  8
0
 10
204.11
 20
52.6418
 30
0.0
 40
0
 41
0
  0
VERTEX
  8
0
 10
204.11
 20
52.1418
 30
0.0
 40
0
 41
0
  0
VERTEX
  8
0
 10
208.11
 20
52.1418
 30
0.0
 40
0
 41
0
  0
VERTEX
  8
0
 10
208.11
 20
56.5761
 30
0.0
 40
0
 41
0
  0
VERTEX
  8
0
 10
212.303
 20
58.0208
 30
0.0
 40
0
 41
0
  0
VERTEX
  8
0
 10
211
 20
61.8026
 30
0.0
 40
0
 41
0
  0
VERTEX
  8
0
 10
210.526
 20
61.6397
 30
0.0
 40
0
 41
0
  0
VERTEX
  8
0
 10
209.696
 20
65.5843
 30
0.0
 40
0
 41
0
  0
VERTEX
  8
0
 10
216.628
 20
67.9728
 30
0.0
 40
0
 41
0
  0
VERTEX
  8
0
 10
218.404
 20
64.3539
 30
0.0
 40
0
 41
0
  0
VERTEX
  8
0
 10
217.931
 20
64.191
 30
0.0
 40
0
 41
0
  0
VERTEX
  8
0
 10
219.233
 20
60.4092
 30
0.0
 40
0
 41
0
  0
VERTEX
  8
0
 10
220.538
 20
56.6275
 30
0.0
 40
0
 41
0
  0
SEQEND
 8
0
  0
POLYLINE
  8
0
 62
     0
 66
     1
 10
0
 20
0
 30
0.0
 70
     1
 40
0
 41
0
  0
VERTEX
  8
0
 10
278.91
 20
55.451
 30
0.0
 40
0
 41
0
  0
VERTEX
  8
0
 10
270.482
 20
43.634
 30
0.0
 40
0
 41
0
  0
VERTEX
  8
0
 10
262.482
 20
43.634
 30
0.0
 40
0
 41
0
  0
VERTEX
  8
0
 10
262.482
 20
43.134
 30
0.0
 40
0
 41
0
  0
VERTEX
  8
0
 10
258.482
 20
43.634
 30
0.0
 40
0
 41
0
  0
VERTEX
  8
0
 10
258.482
 20
50.9654
 30
0.0
 40
0
 41
0
  0
VERTEX
  8
0
 10
262.482
 20
51.4654
 30
0.0
 40
0
 41
0
  0
VERTEX
  8
0
 10
262.482
 20
50.9654
 30
0.0
 40
0
 41
0
  0
VERTEX
  8
0
 10
266.482
 20
50.9654
 30
0.0
 40
0
 41
0
  0
VERTEX
  8
0
 10
266.482
 20
55.3997
 30
0.0
 40
0
 41
0
  0
VERTEX
  8
0
 10
270.675
 20
56.8443
 30
0.0
 40
0
 41
0
  0
VERTEX
  8
0
 10
269.372
 20
60.6261
 30
0.0
 40
0
 41
0
  0
VERTEX
  8
0
 10
268.899
 20
60.4632
 30
0.0
 40
0
 41
0
  0
VERTEX
  8
0
 10
268.068
 20
64.4079
 30
0.0
 40
0
 41
0
  0
VERTEX
  8
0
 10
275
 20
66.7964
 30
0.0
 40
0
 41
0
  0
VERTEX
  8
0
 10
276.776
 20
63.1774
 30
0.0
 40
0
 41
0
  0
VERTEX
  8
0
 10
276.303
 20
63.0146
 30
0.0
 40
0
 41
0
  0
VERTEX
  8
0
 10
277.606
 20
59.2328
 30
0.0
 40
0
 41
0
  0
VERTEX
  8
0
 10
278.91
 20
55.451
 30
0.0
 40
0
 41
0
  0
SEQEND
 8
0
  0
POLYLINE
  8
0
 62
     0
 66
     1
 10
0
 20
0
 30
0.0
 70
     1
 40
0
 41
0
  0
VERTEX
  8
0
 10
114.894
 20
61.8322
 30
0.0
 40
0
 41
0
  0
VERTEX
  8
0
 10
126.711
 20
53.4054
 30
0.0
 40
0
 41
0
  0
VERTEX
  8
0
 10
126.711
 20
45.4054
 30
0.0
 40
0
 41
0
  0
VERTEX
  8
0
 10
127.211
 20
45.4054
 30
0.0
 40
0
 41
0
  0
VERTEX
  8
0
 10
126.711
 20
41.4054
 30
0.0
 40
0
 41
0
  0
VERTEX
  8
0
 10
119.38
 20
41.4054
 30
0.0
 40
0
 41
0
  0
VERTEX
  8
0
 10
118.88
 20
45.4054
 30
0.0
 40
0
 41
0
  0
VERTEX
  8
0
 10
119.38
 20
45.4054
 30
0.0
 40
0
 41
0
  0
VERTEX
  8
0
 10
119.38
 20
49.4054
 30
0.0
 40
0
 41
0
  0
VERTEX
  8
0
 10
114.945
 20
49.4054
 30
0.0
 40
0
 41
0
  0
VERTEX
  8
0
 10
113.501
 20
53.5978
 30
0.0
 40
0
 41
0
  0
VERTEX
  8
0
 10
109.719
 20
52.2947
 30
0.0
 40
0
 41
0
  0
VERTEX
  8
0
 10
109.882
 20
51.8219
 30
0.0
 40
0
 41
0
  0
VERTEX
  8
0
 10
105.937
 20
50.9915
 30
0.0
 40
0
 41
0
  0
VERTEX
  8
0
 10
103.549
 20
57.9229
 30
0.0
 40
0
 41
0
  0
VERTEX
  8
0
 10
107.168
 20
59.6988
 30
0.0
 40
0
 41
0
  0
VERTEX
  8
0
 10
107.331
 20
59.226
 30
0.0
 40
0
 41
0
  0
VERTEX
  8
0
 10
114.894
 20
61.8322
 30
0.0
 40
0
 41
0
  0
SEQEND
 8
0
  0
POLYLINE
  8
0
 62
     0
 66
     1
 10
0
 20
0
 30
0.0
 70
     1
 40
0
 41
0
  0
VERTEX
  8
0
 10
12.3379
 20
42.2731
 30
0.0
 40
0
 41
0
  0
VERTEX
  8
0
 10
0.52105
 20
50.6999
 30
0.0
 40
0
 41
0
  0
VERTEX
  8
0
 10
0.52105
 20
58.6999
 30
0.0
 40
0
 41
0
  0
VERTEX
  8
0
 10
0.0210504
 20
58.6999
 30
0.0
 40
0
 41
0
  0
VERTEX
  8
0
 10
0.52105
 20
62.6999
 30
0.0
 40
0
 41
0
  0
VERTEX
  8
0
 10
7.85232
 20
62.6999
 30
0.0
 40
0
 41
0
  0
VERTEX
  8
0
 10
8.35232
 20
58.6999
 30
0.0
 40
0
 41
0
  0
VERTEX
  8
0
 10
7.85232
 20
58.6999
 30
0.0
 40
0
 41
0
  0
VERTEX
  8
0
 10
7.85232
 20
54.6999
 30
0.0
 40
0
 41
0
  0
VERTEX
  8
0
 10
12.2867
 20
54.6999
 30
0.0
 40
0
 41
0
  0
VERTEX
  8
0
 10
13.7313
 20
50.5075
 30
0.0
 40
0
 41
0
  0
VERTEX
  8
0
 10
17.5132
 20
51.8106
 30
0.0
 40
0
 41
0
  0
VERTEX
  8
0
 10
17.3501
 20
52.2832
 30
0.0
 40
0
 41
0
  0
VERTEX
  8
0
 10
21.2949
 20
53.1136
 30
0.0
 40
0
 41
0
  0
VERTEX
  8
0
 10
23.6833
 20
46.1824
 30
0.0
 40
0
 41
0
  0
VERTEX
  8
0
 10
20.0644
 20
44.4065
 30
0.0
 40
0
 41
0
  0
VERTEX
  8
0
 10
19.9015
 20
44.8792
 30
0.0
 40
0
 41
0
  0
VERTEX
  8
0
 10
16.1197
 20
43.5761
 30
0.0
 40
0
 41
0
  0
VERTEX
  8
0
 10
12.3379
 20
42.2731
 30
0.0
 40
0
 41
0
  0
SEQEND
 8
0
  0
POLYLINE
  8
0
 62
     0
 66
     1
 10
0
 20
0
 30
0.0
 70
     1
 40
0
 41
0
  0
VERTEX
  8
0
 10
257.949
 20
53.9817
 30
0.0
 40
0
 41
0
  0
VERTEX
  8
0
 10
249.521
 20
42.1647
 30
0.0
 40
0
 41
0
  0
VERTEX
  8
0
 10
241.521
 20
42.1647
 30
0.0
 40
0
 41
0
  0
VERTEX
  8
0
 10
241.521
 20
41.6647
 30
0.0
 40
0
 41
0
  0
VERTEX
  8
0
 10
237.521
 20
42.1647
 30
0.0
 40
0
 41
0
  0
VERTEX
  8
0
 10
237.521
 20
49.496
 30
0.0
 40
0
 41
0
  0
VERTEX
  8
0
 10
241.521
 20
49.996
 30
0.0
 40
0
 41
0
  0
VERTEX
  8
0
 10
241.521
 20
49.496
 30
0.0
 40
0
 41
0
  0
VERTEX
  8
0
 10
245.521
 20
49.496
 30
0.0
 40
0
 41
0
  0
VERTEX
  8
0
 10
245.521
 20
53.9304
 30
0.0
 40
0
 41
0
  0
VERTEX
  8
0
 10
249.714
 20
55.375
 30
0.0
 40
0
 41
0
  0
VERTEX
  8
0
 10
248.41
 20
59.1568
 30
0.0
 40
0
 41
0
  0
VERTEX
  8
0
 10
247.938
 20
58.9939
 30
0.0
 40
0
 41
0
  0
VERTEX
  8
0
 10
247.107
 20
62.9386
 30
0.0
 40
0
 41
0
  0
VERTEX
  8
0
 10
254.039
 20
65.3269
 30
0.0
 40
0
 41
0
  0
VERTEX
  8
0
 10
255.814
 20
61.7081
 30
0.0
 40
0
 41
0
  0
VERTEX
  8
0
 10
255.342
 20
61.5451
 30
0.0
 40
0
 41
0
  0
VERTEX
  8
0
 10
256.644
 20
57.7635
 30
0.0
 40
0
 41
0
  0
VERTEX
  8
0
 10
257.949
 20
53.9817
 30
0.0
 40
0
 41
0
  0
SEQEND
 8
0
  0
POLYLINE
  8
0
 62
     0
 66
     1
 10
0
 20
0
 30
0.0
 70
     1
 40
0
 41
0
  0
VERTEX
  8
0
 10
69.1367
 20
53.0915
 30
0.0
 40
0
 41
0
  0
VERTEX
  8
0
 10
60.7099
 20
41.2746
 30
0.0
 40
0
 41
0
  0
VERTEX
  8
0
 10
52.7099
 20
41.2746
 30
0.0
 40
0
 41
0
  0
VERTEX
  8
0
 10
52.7099
 20
40.7746
 30
0.0
 40
0
 41
0
  0
VERTEX
  8
0
 10
48.7099
 20
41.2746
 30
0.0
 40
0
 41
0
  0
VERTEX
  8
0
 10
48.7099
 20
48.606
 30
0.0
 40
0
 41
0
  0
VERTEX
  8
0
 10
52.7099
 20
49.106
 30
0.0
 40
0
 41
0
  0
VERTEX
  8
0
 10
52.7099
 20
48.606
 30
0.0
 40
0
 41
0
  0
VERTEX
  8
0
 10
56.7099
 20
48.606
 30
0.0
 40
0
 41
0
  0
VERTEX
  8
0
 10
56.7099
 20
53.0403
 30
0.0
 40
0
 41
0
  0
VERTEX
  8
0
 10
60.9022
 20
54.4849
 30
0.0
 40
0
 41
0
  0
VERTEX
  8
0
 10
59.5992
 20
58.2667
 30
0.0
 40
0
 41
0
  0
VERTEX
  8
0
 10
59.1264
 20
58.1038
 30
0.0
 40
0
 41
0
  0
VERTEX
  8
0
 10
58.296
 20
62.0485
 30
0.0
 40
0
 41
0
  0
VERTEX
  8
0
 10
65.2274
 20
64.4368
 30
0.0
 40
0
 41
0
  0
VERTEX
  8
0
 10
67.0032
 20
60.8179
 30
0.0
 40
0
 41
0
  0
VERTEX
  8
0
 10
66.5304
 20
60.655
 30
0.0
 40
0
 41
0
  0
VERTEX
  8
0
 10
69.1367
 20
53.0915
 30
0.0
 40
0
 41
0
  0
SEQEND
 8
0
  0
POLYLINE
  8
0
 62
     0
 66
     1
 10
0
 20
0
 30
0.0
 70
     1
 40
0
 41
0
  0
VERTEX
  8
0
 10
140.082
 20
56.9899
 30
0.0
 40
0
 41
0
  0
VERTEX
  8
0
 10
151.899
 20
48.5629
 30
0.0
 40
0
 41
0
  0
VERTEX
  8
0
 10
151.899
 20
40.5629
 30
0.0
 40
0
 41
0
  0
VERTEX
  8
0
 10
152.399
 20
40.5629
 30
0.0
 40
0
 41
0
  0
VERTEX
  8
0
 10
151.899
 20
36.5629
 30
0.0
 40
0
 41
0
  0
VERTEX
  8
0
 10
144.568
 20
36.5629
 30
0.0
 40
0
 41
0
  0
VERTEX
  8
0
 10
144.068
 20
40.5629
 30
0.0
 40
0
 41
0
  0
VERTEX
  8
0
 10
144.568
 20
40.5629
 30
0.0
 40
0
 41
0
  0
VERTEX
  8
0
 10
144.568
 20
44.5629
 30
0.0
 40
0
 41
0
  0
VERTEX
  8
0
 10
140.133
 20
44.5629
 30
0.0
 40
0
 41
0
  0
VERTEX
  8
0
 10
138.688
 20
48.7554
 30
0.0
 40
0
 41
0
  0
VERTEX
  8
0
 10
134.907
 20
47.4522
 30
0.0
 40
0
 41
0
  0
VERTEX
  8
0
 10
135.07
 20
46.9794
 30
0.0
 40
0
 41
0
  0
VERTEX
  8
0
 10
131.125
 20
46.149
 30
0.0
 40
0
 41
0
  0
VERTEX
  8
0
 10
128.737
 20
53.0804
 30
0.0
 40
0
 41
0
  0
VERTEX
  8
0
 10
132.355
 20
54.8562
 30
0.0
 40
0
 41
0
  0
VERTEX
  8
0
 10
132.518
 20
54.3836
 30
0.0
 40
0
 41
0
  0
VERTEX
  8
0
 10
136.3
 20
55.6867
 30
0.0
 40
0
 41
0
  0
VERTEX
  8
0
 10
140.082
 20
56.9899
 30
0.0
 40
0
 41
0
  0
SEQEND
 8
0
  0
POLYLINE
  8
0
 62
     0
 66
     1
 10
0
 20
0
 30
0.0
 70
     1
 40
0
 41
0
  0
VERTEX
  8
0
 10
35.8929
 20
56.1078
 30
0.0
 40
0
 41
0
  0
VERTEX
  8
0
 10
47.7099
 20
47.6808
 30
0.0
 40
0
 41
0
  0
VERTEX
  8
0
 10
47.7099
 20
39.6808
 30
0.0
 40
0
 41
0
  0
VERTEX
  8
0
 10
48.2099
 20
39.6808
 30
0.0
 40
0
 41
0
  0
VERTEX
  8
0
 10
47.7099
 20
35.6808
 30
0.0
 40
0
 41
0
  0
VERTEX
  8
0
 10
40.3785
 20
35.6808
 30
0.0
 40
0
 41
0
  0
VERTEX
  8
0
 10
39.8785
 20
39.6808
 30
0.0
 40
0
 41
0
  0
VERTEX
  8
0
 10
40.3785
 20
39.6808
 30
0.0
 40
0
 41
0
  0
VERTEX
  8
0
 10
40.3785
 20
43.6808
 30
0.0
 40
0
 41
0
  0
VERTEX
  8
0
 10
35.9442
 20
43.6808
 30
0.0
 40
0
 41
0
  0
VERTEX
  8
0
 10
34.4994
 20
47.8733
 30
0.0
 40
0
 41
0
  0
VERTEX
  8
0
 10
30.7178
 20
46.5701
 30
0.0
 40
0
 41
0
  0
VERTEX
  8
0
 10
30.8806
 20
46.0975
 30
0.0
 40
0
 41
0
  0
VERTEX
  8
0
 10
26.936
 20
45.2671
 30
0.0
 40
0
 41
0
  0
VERTEX
  8
0
 10
24.5475
 20
52.1985
 30
0.0
 40
0
 41
0
  0
VERTEX
  8
0
 10
28.1664
 20
53.9743
 30
0.0
 40
0
 41
0
  0
VERTEX
  8
0
 10
28.3293
 20
53.5015
 30
0.0
 40
0
 41
0
  0
VERTEX
  8
0
 10
32.1111
 20
54.8047
 30
0.0
 40
0
 41
0
  0
VERTEX
  8
0
 10
35.8929
 20
56.1078
 30
0.0
 40
0
 41
0
  0
SEQEND
 8
0
  0
POLYLINE
  8
0
 62
     0
 66
     1
 10
0
 20
0
 30
0.0
 70
     1
 40
0
 41
0
  0
VERTEX
  8
0
 10
80.2369
 20
54.6771
 30
0.0
 40
0
 41
0
  0
VERTEX
  8
0
 10
92.0539
 20
46.2501
 30
0.0
 40
0
 41
0
  0
VERTEX
  8
0
 10
92.0539
 20
38.2501
 30
0.0
 40
0
 41
0
  0
VERTEX
  8
0
 10
92.5539
 20
38.2501
 30
0.0
 40
0
 41
0
  0
VERTEX
  8
0
 10
92.0539
 20
34.2501
 30
0.0
 40
0
 41
0
  0
VERTEX
  8
0
 10
84.7225
 20
34.2501
 30
0.0
 40
0
 41
0
  0
VERTEX
  8
0
 10
84.2225
 20
38.2501
 30
0.0
 40
0
 41
0
  0
VERTEX
  8
0
 10
84.7225
 20
38.2501
 30
0.0
 40
0
 41
0
  0
VERTEX
  8
0
 10
84.7225
 20
42.2501
 30
0.0
 40
0
 41
0
  0
VERTEX
  8
0
 10
80.2882
 20
42.2501
 30
0.0
 40
0
 41
0
  0
VERTEX
  8
0
 10
78.8435
 20
46.4426
 30
0.0
 40
0
 41
0
  0
VERTEX
  8
0
 10
75.0618
 20
45.1394
 30
0.0
 40
0
 41
0
  0
VERTEX
  8
0
 10
75.2247
 20
44.6668
 30
0.0
 40
0
 41
0
  0
VERTEX
  8
0
 10
71.28
 20
43.8364
 30
0.0
 40
0
 41
0
  0
VERTEX
  8
0
 10
68.8917
 20
50.7676
 30
0.0
 40
0
 41
0
  0
VERTEX
  8
0
 10
72.5104
 20
52.5435
 30
0.0
 40
0
 41
0
  0
VERTEX
  8
0
 10
72.6733
 20
52.0708
 30
0.0
 40
0
 41
0
  0
VERTEX
  8
0
 10
76.4551
 20
53.3739
 30
0.0
 40
0
 41
0
  0
VERTEX
  8
0
 10
80.2369
 20
54.6771
 30
0.0
 40
0
 41
0
  0
SEQEND
 8
0
  0
POLYLINE
  8
0
 62
     0
 66
     1
 10
0
 20
0
 30
0.0
 70
     1
 40
0
 41
0
  0
VERTEX
  8
0
 10
173.533
 20
35.2878
 30
0.0
 40
0
 41
0
  0
VERTEX
  8
0
 10
161.717
 20
43.7147
 30
0.0
 40
0
 41
0
  0
VERTEX
  8
0
 10
161.717
 20
51.7147
 30
0.0
 40
0
 41
0
  0
VERTEX
  8
0
 10
161.217
 20
51.7147
 30
0.0
 40
0
 41
0
  0
VERTEX
  8
0
 10
161.717
 20
55.7147
 30
0.0
 40
0
 41
0
  0
VERTEX
  8
0
 10
169.049
 20
55.7147
 30
0.0
 40
0
 41
0
  0
VERTEX
  8
0
 10
169.549
 20
51.7147
 30
0.0
 40
0
 41
0
  0
VERTEX
  8
0
 10
169.049
 20
51.7147
 30
0.0
 40
0
 41
0
  0
VERTEX
  8
0
 10
169.049
 20
47.7147
 30
0.0
 40
0
 41
0
  0
VERTEX
  8
0
 10
173.482
 20
47.7147
 30
0.0
 40
0
 41
0
  0
VERTEX
  8
0
 10
174.928
 20
43.5222
 30
0.0
 40
0
 41
0
  0
VERTEX
  8
0
 10
178.708
 20
44.8254
 30
0.0
 40
0
 41
0
  0
VERTEX
  8
0
 10
178.546
 20
45.2981
 30
0.0
 40
0
 41
0
  0
VERTEX
  8
0
 10
182.49
 20
46.1285
 30
0.0
 40
0
 41
0
  0
VERTEX
  8
0
 10
184.879
 20
39.1972
 30
0.0
 40
0
 41
0
  0
VERTEX
  8
0
 10
181.26
 20
37.4214
 30
0.0
 40
0
 41
0
  0
VERTEX
  8
0
 10
181.097
 20
37.894
 30
0.0
 40
0
 41
0
  0
VERTEX
  8
0
 10
177.315
 20
36.591
 30
0.0
 40
0
 41
0
  0
VERTEX
  8
0
 10
173.533
 20
35.2878
 30
0.0
 40
0
 41
0
  0
SEQEND
 8
0
  0
POLYLINE
  8
0
 62
     0
 66
     1
 10
0
 20
0
 30
0.0
 70
     1
 40
0
 41
0
  0
VERTEX
  8
0
 10
214.131
 20
45.921
 30
0.0
 40
0
 41
0
  0
VERTEX
  8
0
 10
222.557
 20
57.7379
 30
0.0
 40
0
 41
0
  0
VERTEX
  8
0
 10
230.557
 20
57.7379
 30
0.0
 40
0
 41
0
  0
VERTEX
  8
0
 10
230.557
 20
58.2379
 30
0.0
 40
0
 41
0
  0
VERTEX
  8
0
 10
234.557
 20
57.7379
 30
0.0
 40
0
 41
0
  0
VERTEX
  8
0
 10
234.557
 20
50.4065
 30
0.0
 40
0
 41
0
  0
VERTEX
  8
0
 10
230.557
 20
49.9065
 30
0.0
 40
0
 41
0
  0
VERTEX
  8
0
 10
230.557
 20
50.4065
 30
0.0
 40
0
 41
0
  0
VERTEX
  8
0
 10
226.557
 20
50.4065
 30
0.0
 40
0
 41
0
  0
VERTEX
  8
0
 10
226.557
 20
45.9722
 30
0.0
 40
0
 41
0
  0
VERTEX
  8
0
 10
222.365
 20
44.5276
 30
0.0
 40
0
 41
0
  0
VERTEX
  8
0
 10
223.668
 20
40.7458
 30
0.0
 40
0
 41
0
  0
VERTEX
  8
0
 10
224.14
 20
40.9087
 30
0.0
 40
0
 41
0
  0
VERTEX
  8
0
 10
224.971
 20
36.964
 30
0.0
 40
0
 41
0
  0
VERTEX
  8
0
 10
218.04
 20
34.5757
 30
0.0
 40
0
 41
0
  0
VERTEX
  8
0
 10
216.264
 20
38.1946
 30
0.0
 40
0
 41
0
  0
VERTEX
  8
0
 10
216.736
 20
38.3574
 30
0.0
 40
0
 41
0
  0
VERTEX
  8
0
 10
214.131
 20
45.921
 30
0.0
 40
0
 41
0
  0
SEQEND
 8
0
  0
POLYLINE
  8
0
 62
     0
 66
     1
 10
0
 20
0
 30
0.0
 70
     1
 40
0
 41
0
  0
VERTEX
  8
0
 10
118.097
 20
29.5331
 30
0.0
 40
0
 41
0
  0
VERTEX
  8
0
 10
106.281
 20
37.96
 30
0.0
 40
0
 41
0
  0
VERTEX
  8
0
 10
106.281
 20
45.96
 30
0.0
 40
0
 41
0
  0
VERTEX
  8
0
 10
105.781
 20
45.96
 30
0.0
 40
0
 41
0
  0
VERTEX
  8
0
 10
106.281
 20
49.96
 30
0.0
 40
0
 41
0
  0
VERTEX
  8
0
 10
113.612
 20
49.96
 30
0.0
 40
0
 41
0
  0
VERTEX
  8
0
 10
114.112
 20
45.96
 30
0.0
 40
0
 41
0
  0
VERTEX
  8
0
 10
113.612
 20
45.96
 30
0.0
 40
0
 41
0
  0
VERTEX
  8
0
 10
113.612
 20
41.96
 30
0.0
 40
0
 41
0
  0
VERTEX
  8
0
 10
118.046
 20
41.96
 30
0.0
 40
0
 41
0
  0
VERTEX
  8
0
 10
119.491
 20
37.7675
 30
0.0
 40
0
 41
0
  0
VERTEX
  8
0
 10
123.273
 20
39.0707
 30
0.0
 40
0
 41
0
  0
VERTEX
  8
0
 10
123.11
 20
39.5433
 30
0.0
 40
0
 41
0
  0
VERTEX
  8
0
 10
127.054
 20
40.3737
 30
0.0
 40
0
 41
0
  0
VERTEX
  8
0
 10
129.443
 20
33.4425
 30
0.0
 40
0
 41
0
  0
VERTEX
  8
0
 10
125.824
 20
31.6667
 30
0.0
 40
0
 41
0
  0
VERTEX
  8
0
 10
125.661
 20
32.1393
 30
0.0
 40
0
 41
0
  0
VERTEX
  8
0
 10
121.879
 20
30.8362
 30
0.0
 40
0
 41
0
  0
VERTEX
  8
0
 10
118.097
 20
29.5331
 30
0.0
 40
0
 41
0
  0
SEQEND
 8
0
  0
POLYLINE
  8
0
 62
     0
 66
     1
 10
0
 20
0
 30
0.0
 70
     1
 40
0
 41
0
  0
VERTEX
  8
0
 10
196.228
 20
46.1674
 30
0.0
 40
0
 41
0
  0
VERTEX
  8
0
 10
208.044
 20
37.7404
 30
0.0
 40
0
 41
0
  0
VERTEX
  8
0
 10
208.044
 20
29.7404
 30
0.0
 40
0
 41
0
  0
VERTEX
  8
0
 10
208.544
 20
29.7404
 30
0.0
 40
0
 41
0
  0
VERTEX
  8
0
 10
208.044
 20
25.7404
 30
0.0
 40
0
 41
0
  0
VERTEX
  8
0
 10
200.712
 20
25.7404
 30
0.0
 40
0
 41
0
  0
VERTEX
  8
0
 10
200.212
 20
29.7404
 30
0.0
 40
0
 41
0
  0
VERTEX
  8
0
 10
200.712
 20
29.7404
 30
0.0
 40
0
 41
0
  0
VERTEX
  8
0
 10
200.712
 20
33.7404
 30
0.0
 40
0
 41
0
  0
VERTEX
  8
0
 10
196.279
 20
33.7404
 30
0.0
 40
0
 41
0
  0
VERTEX
  8
0
 10
194.833
 20
37.9329
 30
0.0
 40
0
 41
0
  0
VERTEX
  8
0
 10
191.053
 20
36.6297
 30
0.0
 40
0
 41
0
  0
VERTEX
  8
0
 10
191.215
 20
36.1571
 30
0.0
 40
0
 41
0
  0
VERTEX
  8
0
 10
187.271
 20
35.3267
 30
0.0
 40
0
 41
0
  0
VERTEX
  8
0
 10
184.882
 20
42.2579
 30
0.0
 40
0
 41
0
  0
VERTEX
  8
0
 10
188.501
 20
44.0339
 30
0.0
 40
0
 41
0
  0
VERTEX
  8
0
 10
188.664
 20
43.5611
 30
0.0
 40
0
 41
0
  0
VERTEX
  8
0
 10
192.446
 20
44.8643
 30
0.0
 40
0
 41
0
  0
VERTEX
  8
0
 10
196.228
 20
46.1674
 30
0.0
 40
0
 41
0
  0
SEQEND
 8
0
  0
POLYLINE
  8
0
 62
     0
 66
     1
 10
0
 20
0
 30
0.0
 70
     1
 40
0
 41
0
  0
VERTEX
  8
0
 10
13.6014
 20
32.37
 30
0.0
 40
0
 41
0
  0
VERTEX
  8
0
 10
22.0283
 20
44.1869
 30
0.0
 40
0
 41
0
  0
VERTEX
  8
0
 10
30.0283
 20
44.1869
 30
0.0
 40
0
 41
0
  0
VERTEX
  8
0
 10
30.0283
 20
44.6869
 30
0.0
 40
0
 41
0
  0
VERTEX
  8
0
 10
34.0283
 20
44.1869
 30
0.0
 40
0
 41
0
  0
VERTEX
  8
0
 10
34.0283
 20
36.8557
 30
0.0
 40
0
 41
0
  0
VERTEX
  8
0
 10
30.0283
 20
36.3557
 30
0.0
 40
0
 41
0
  0
VERTEX
  8
0
 10
30.0283
 20
36.8557
 30
0.0
 40
0
 41
0
  0
VERTEX
  8
0
 10
26.0283
 20
36.8557
 30
0.0
 40
0
 41
0
  0
VERTEX
  8
0
 10
26.0283
 20
32.4213
 30
0.0
 40
0
 41
0
  0
VERTEX
  8
0
 10
21.8358
 20
30.9767
 30
0.0
 40
0
 41
0
  0
VERTEX
  8
0
 10
23.139
 20
27.1949
 30
0.0
 40
0
 41
0
  0
VERTEX
  8
0
 10
23.6117
 20
27.3578
 30
0.0
 40
0
 41
0
  0
VERTEX
  8
0
 10
24.4421
 20
23.4131
 30
0.0
 40
0
 41
0
  0
VERTEX
  8
0
 10
17.5108
 20
21.0247
 30
0.0
 40
0
 41
0
  0
VERTEX
  8
0
 10
15.7349
 20
24.6436
 30
0.0
 40
0
 41
0
  0
VERTEX
  8
0
 10
16.2076
 20
24.8064
 30
0.0
 40
0
 41
0
  0
VERTEX
  8
0
 10
14.9046
 20
28.5882
 30
0.0
 40
0
 41
0
  0
VERTEX
  8
0
 10
13.6014
 20
32.37
 30
0.0
 40
0
 41
0
  0
SEQEND
 8
0
  0
POLYLINE
  8
0
 62
     0
 66
     1
 10
0
 20
0
 30
0.0
 70
     1
 40
0
 41
0
  0
VERTEX
  8
0
 10
235.311
 20
35.2386
 30
0.0
 40
0
 41
0
  0
VERTEX
  8
0
 10
226.885
 20
23.4217
 30
0.0
 40
0
 41
0
  0
VERTEX
  8
0
 10
218.885
 20
23.4217
 30
0.0
 40
0
 41
0
  0
VERTEX
  8
0
 10
218.885
 20
22.9217
 30
0.0
 40
0
 41
0
  0
VERTEX
  8
0
 10
214.885
 20
23.4217
 30
0.0
 40
0
 41
0
  0
VERTEX
  8
0
 10
214.885
 20
30.7529
 30
0.0
 40
0
 41
0
  0
VERTEX
  8
0
 10
218.885
 20
31.2529
 30
0.0
 40
0
 41
0
  0
VERTEX
  8
0
 10
218.885
 20
30.7529
 30
0.0
 40
0
 41
0
  0
VERTEX
  8
0
 10
222.885
 20
30.7529
 30
0.0
 40
0
 41
0
  0
VERTEX
  8
0
 10
222.885
 20
35.1874
 30
0.0
 40
0
 41
0
  0
VERTEX
  8
0
 10
227.076
 20
36.6319
 30
0.0
 40
0
 41
0
  0
VERTEX
  8
0
 10
225.774
 20
40.4138
 30
0.0
 40
0
 41
0
  0
VERTEX
  8
0
 10
225.301
 20
40.2508
 30
0.0
 40
0
 41
0
  0
VERTEX
  8
0
 10
224.471
 20
44.1956
 30
0.0
 40
0
 41
0
  0
VERTEX
  8
0
 10
231.401
 20
46.5839
 30
0.0
 40
0
 41
0
  0
VERTEX
  8
0
 10
233.178
 20
42.965
 30
0.0
 40
0
 41
0
  0
VERTEX
  8
0
 10
232.706
 20
42.8021
 30
0.0
 40
0
 41
0
  0
VERTEX
  8
0
 10
234.008
 20
39.0204
 30
0.0
 40
0
 41
0
  0
VERTEX
  8
0
 10
235.311
 20
35.2386
 30
0.0
 40
0
 41
0
  0
SEQEND
 8
0
  0
POLYLINE
  8
0
 62
     0
 66
     1
 10
0
 20
0
 30
0.0
 70
     1
 40
0
 41
0
  0
VERTEX
  8
0
 10
57.7147
 20
30.9393
 30
0.0
 40
0
 41
0
  0
VERTEX
  8
0
 10
66.1417
 20
42.7561
 30
0.0
 40
0
 41
0
  0
VERTEX
  8
0
 10
74.1417
 20
42.7561
 30
0.0
 40
0
 41
0
  0
VERTEX
  8
0
 10
74.1417
 20
43.2561
 30
0.0
 40
0
 41
0
  0
VERTEX
  8
0
 10
78.1417
 20
42.7561
 30
0.0
 40
0
 41
0
  0
VERTEX
  8
0
 10
78.1417
 20
35.4249
 30
0.0
 40
0
 41
0
  0
VERTEX
  8
0
 10
74.1417
 20
34.9249
 30
0.0
 40
0
 41
0
  0
VERTEX
  8
0
 10
74.1417
 20
35.4249
 30
0.0
 40
0
 41
0
  0
VERTEX
  8
0
 10
70.1417
 20
35.4249
 30
0.0
 40
0
 41
0
  0
VERTEX
  8
0
 10
70.1417
 20
30.9906
 30
0.0
 40
0
 41
0
  0
VERTEX
  8
0
 10
65.9492
 20
29.5458
 30
0.0
 40
0
 41
0
  0
VERTEX
  8
0
 10
67.2522
 20
25.7642
 30
0.0
 40
0
 41
0
  0
VERTEX
  8
0
 10
67.725
 20
25.9269
 30
0.0
 40
0
 41
0
  0
VERTEX
  8
0
 10
68.5554
 20
21.9824
 30
0.0
 40
0
 41
0
  0
VERTEX
  8
0
 10
61.624
 20
19.5939
 30
0.0
 40
0
 41
0
  0
VERTEX
  8
0
 10
59.8482
 20
23.2128
 30
0.0
 40
0
 41
0
  0
VERTEX
  8
0
 10
60.321
 20
23.3757
 30
0.0
 40
0
 41
0
  0
VERTEX
  8
0
 10
59.0178
 20
27.1575
 30
0.0
 40
0
 41
0
  0
VERTEX
  8
0
 10
57.7147
 20
30.9393
 30
0.0
 40
0
 41
0
  0
SEQEND
 8
0
  0
POLYLINE
  8
0
 62
     0
 66
     1
 10
0
 20
0
 30
0.0
 70
     1
 40
0
 41
0
  0
VERTEX
  8
0
 10
255.217
 20
30.8172
 30
0.0
 40
0
 41
0
  0
VERTEX
  8
0
 10
263.644
 20
42.634
 30
0.0
 40
0
 41
0
  0
VERTEX
  8
0
 10
271.644
 20
42.634
 30
0.0
 40
0
 41
0
  0
VERTEX
  8
0
 10
271.644
 20
43.134
 30
0.0
 40
0
 41
0
  0
VERTEX
  8
0
 10
275.644
 20
42.634
 30
0.0
 40
0
 41
0
  0
VERTEX
  8
0
 10
275.644
 20
35.3028
 30
0.0
 40
0
 41
0
  0
VERTEX
  8
0
 10
271.644
 20
34.8028
 30
0.0
 40
0
 41
0
  0
VERTEX
  8
0
 10
271.644
 20
35.3028
 30
0.0
 40
0
 41
0
  0
VERTEX
  8
0
 10
267.644
 20
35.3028
 30
0.0
 40
0
 41
0
  0
VERTEX
  8
0
 10
267.644
 20
30.8685
 30
0.0
 40
0
 41
0
  0
VERTEX
  8
0
 10
263.451
 20
29.4239
 30
0.0
 40
0
 41
0
  0
VERTEX
  8
0
 10
264.754
 20
25.6421
 30
0.0
 40
0
 41
0
  0
VERTEX
  8
0
 10
265.228
 20
25.8049
 30
0.0
 40
0
 41
0
  0
VERTEX
  8
0
 10
266.058
 20
21.8603
 30
0.0
 40
0
 41
0
  0
VERTEX
  8
0
 10
259.126
 20
19.4718
 30
0.0
 40
0
 41
0
  0
VERTEX
  8
0
 10
257.35
 20
23.0908
 30
0.0
 40
0
 41
0
  0
VERTEX
  8
0
 10
257.824
 20
23.2536
 30
0.0
 40
0
 41
0
  0
VERTEX
  8
0
 10
256.519
 20
27.0354
 30
0.0
 40
0
 41
0
  0
VERTEX
  8
0
 10
255.217
 20
30.8172
 30
0.0
 40
0
 41
0
  0
SEQEND
 8
0
  0
POLYLINE
  8
0
 62
     0
 66
     1
 10
0
 20
0
 30
0.0
 70
     1
 40
0
 41
0
  0
VERTEX
  8
0
 10
105.622
 20
19.7725
 30
0.0
 40
0
 41
0
  0
VERTEX
  8
0
 10
93.8053
 20
28.1993
 30
0.0
 40
0
 41
0
  0
VERTEX
  8
0
 10
93.8053
 20
36.1993
 30
0.0
 40
0
 41
0
  0
VERTEX
  8
0
 10
93.3053
 20
36.1993
 30
0.0
 40
0
 41
0
  0
VERTEX
  8
0
 10
93.8053
 20
40.1993
 30
0.0
 40
0
 41
0
  0
VERTEX
  8
0
 10
101.137
 20
40.1993
 30
0.0
 40
0
 41
0
  0
VERTEX
  8
0
 10
101.637
 20
36.1993
 30
0.0
 40
0
 41
0
  0
VERTEX
  8
0
 10
101.137
 20
36.1993
 30
0.0
 40
0
 41
0
  0
VERTEX
  8
0
 10
101.137
 20
32.1993
 30
0.0
 40
0
 41
0
  0
VERTEX
  8
0
 10
105.571
 20
32.1993
 30
0.0
 40
0
 41
0
  0
VERTEX
  8
0
 10
107.016
 20
28.0069
 30
0.0
 40
0
 41
0
  0
VERTEX
  8
0
 10
110.797
 20
29.31
 30
0.0
 40
0
 41
0
  0
VERTEX
  8
0
 10
110.634
 20
29.7828
 30
0.0
 40
0
 41
0
  0
VERTEX
  8
0
 10
114.579
 20
30.6132
 30
0.0
 40
0
 41
0
  0
VERTEX
  8
0
 10
116.968
 20
23.6818
 30
0.0
 40
0
 41
0
  0
VERTEX
  8
0
 10
113.349
 20
21.906
 30
0.0
 40
0
 41
0
  0
VERTEX
  8
0
 10
113.186
 20
22.3788
 30
0.0
 40
0
 41
0
  0
VERTEX
  8
0
 10
105.622
 20
19.7725
 30
0.0
 40
0
 41
0
  0
SEQEND
 8
0
  0
POLYLINE
  8
0
 62
     0
 66
     1
 10
0
 20
0
 30
0.0
 70
     1
 40
0
 41
0
  0
VERTEX
  8
0
 10
164.408
 20
40.5672
 30
0.0
 40
0
 41
0
  0
VERTEX
  8
0
 10
176.225
 20
32.1403
 30
0.0
 40
0
 41
0
  0
VERTEX
  8
0
 10
176.225
 20
24.1403
 30
0.0
 40
0
 41
0
  0
VERTEX
  8
0
 10
176.725
 20
24.1403
 30
0.0
 40
0
 41
0
  0
VERTEX
  8
0
 10
176.225
 20
20.1403
 30
0.0
 40
0
 41
0
  0
VERTEX
  8
0
 10
168.894
 20
20.1403
 30
0.0
 40
0
 41
0
  0
VERTEX
  8
0
 10
168.394
 20
24.1403
 30
0.0
 40
0
 41
0
  0
VERTEX
  8
0
 10
168.894
 20
24.1403
 30
0.0
 40
0
 41
0
  0
VERTEX
  8
0
 10
168.894
 20
28.1403
 30
0.0
 40
0
 41
0
  0
VERTEX
  8
0
 10
164.46
 20
28.1403
 30
0.0
 40
0
 41
0
  0
VERTEX
  8
0
 10
163.015
 20
32.3328
 30
0.0
 40
0
 41
0
  0
VERTEX
  8
0
 10
159.233
 20
31.0296
 30
0.0
 40
0
 41
0
  0
VERTEX
  8
0
 10
159.396
 20
30.5568
 30
0.0
 40
0
 41
0
  0
VERTEX
  8
0
 10
155.451
 20
29.7265
 30
0.0
 40
0
 41
0
  0
VERTEX
  8
0
 10
153.063
 20
36.6578
 30
0.0
 40
0
 41
0
  0
VERTEX
  8
0
 10
156.682
 20
38.4336
 30
0.0
 40
0
 41
0
  0
VERTEX
  8
0
 10
156.844
 20
37.961
 30
0.0
 40
0
 41
0
  0
VERTEX
  8
0
 10
164.408
 20
40.5672
 30
0.0
 40
0
 41
0
  0
SEQEND
 8
0
  0
POLYLINE
  8
0
 62
     0
 66
     1
 10
0
 20
0
 30
0.0
 70
     1
 40
0
 41
0
  0
VERTEX
  8
0
 10
142.376
 20
24.6421
 30
0.0
 40
0
 41
0
  0
VERTEX
  8
0
 10
130.559
 20
33.0689
 30
0.0
 40
0
 41
0
  0
VERTEX
  8
0
 10
130.559
 20
41.0689
 30
0.0
 40
0
 41
0
  0
VERTEX
  8
0
 10
130.059
 20
41.0689
 30
0.0
 40
0
 41
0
  0
VERTEX
  8
0
 10
130.559
 20
45.0689
 30
0.0
 40
0
 41
0
  0
VERTEX
  8
0
 10
137.891
 20
45.0689
 30
0.0
 40
0
 41
0
  0
VERTEX
  8
0
 10
138.391
 20
41.0689
 30
0.0
 40
0
 41
0
  0
VERTEX
  8
0
 10
137.891
 20
41.0689
 30
0.0
 40
0
 41
0
  0
VERTEX
  8
0
 10
137.891
 20
37.0689
 30
0.0
 40
0
 41
0
  0
VERTEX
  8
0
 10
142.325
 20
37.0689
 30
0.0
 40
0
 41
0
  0
VERTEX
  8
0
 10
143.769
 20
32.8765
 30
0.0
 40
0
 41
0
  0
VERTEX
  8
0
 10
147.551
 20
34.1796
 30
0.0
 40
0
 41
0
  0
VERTEX
  8
0
 10
147.389
 20
34.6522
 30
0.0
 40
0
 41
0
  0
VERTEX
  8
0
 10
151.333
 20
35.4826
 30
0.0
 40
0
 41
0
  0
VERTEX
  8
0
 10
153.721
 20
28.5514
 30
0.0
 40
0
 41
0
  0
VERTEX
  8
0
 10
150.103
 20
26.7756
 30
0.0
 40
0
 41
0
  0
VERTEX
  8
0
 10
149.94
 20
27.2483
 30
0.0
 40
0
 41
0
  0
VERTEX
  8
0
 10
146.158
 20
25.9451
 30
0.0
 40
0
 41
0
  0
VERTEX
  8
0
 10
142.376
 20
24.6421
 30
0.0
 40
0
 41
0
  0
SEQEND
 8
0
  0
POLYLINE
  8
0
 62
     0
 66
     1
 10
0
 20
0
 30
0.0
 70
     1
 40
0
 41
0
  0
VERTEX
  8
0
 10
190.528
 20
15.1499
 30
0.0
 40
0
 41
0
  0
VERTEX
  8
0
 10
178.711
 20
23.5767
 30
0.0
 40
0
 41
0
  0
VERTEX
  8
0
 10
178.711
 20
31.5767
 30
0.0
 40
0
 41
0
  0
VERTEX
  8
0
 10
178.211
 20
31.5767
 30
0.0
 40
0
 41
0
  0
VERTEX
  8
0
 10
178.711
 20
35.5767
 30
0.0
 40
0
 41
0
  0
VERTEX
  8
0
 10
186.042
 20
35.5767
 30
0.0
 40
0
 41
0
  0
VERTEX
  8
0
 10
186.542
 20
31.5767
 30
0.0
 40
0
 41
0
  0
VERTEX
  8
0
 10
186.042
 20
31.5767
 30
0.0
 40
0
 41
0
  0
VERTEX
  8
0
 10
186.042
 20
27.5767
 30
0.0
 40
0
 41
0
  0
VERTEX
  8
0
 10
190.476
 20
27.5767
 30
0.0
 40
0
 41
0
  0
VERTEX
  8
0
 10
191.921
 20
23.3843
 30
0.0
 40
0
 41
0
  0
VERTEX
  8
0
 10
195.703
 20
24.6874
 30
0.0
 40
0
 41
0
  0
VERTEX
  8
0
 10
195.54
 20
25.1601
 30
0.0
 40
0
 41
0
  0
VERTEX
  8
0
 10
199.485
 20
25.9906
 30
0.0
 40
0
 41
0
  0
VERTEX
  8
0
 10
201.872
 20
19.0592
 30
0.0
 40
0
 41
0
  0
VERTEX
  8
0
 10
198.254
 20
17.2833
 30
0.0
 40
0
 41
0
  0
VERTEX
  8
0
 10
198.09
 20
17.7561
 30
0.0
 40
0
 41
0
  0
VERTEX
  8
0
 10
194.31
 20
16.4529
 30
0.0
 40
0
 41
0
  0
VERTEX
  8
0
 10
190.528
 20
15.1499
 30
0.0
 40
0
 41
0
  0
SEQEND
 8
0
  0
POLYLINE
  8
0
 62
     0
 66
     1
 10
0
 20
0
 30
0.0
 70
     1
 40
0
 41
0
  0
VERTEX
  8
0
 10
231.935
 20
28.7815
 30
0.0
 40
0
 41
0
  0
VERTEX
  8
0
 10
240.361
 20
40.5983
 30
0.0
 40
0
 41
0
  0
VERTEX
  8
0
 10
248.361
 20
40.5983
 30
0.0
 40
0
 41
0
  0
VERTEX
  8
0
 10
248.361
 20
41.0983
 30
0.0
 40
0
 41
0
  0
VERTEX
  8
0
 10
252.361
 20
40.5983
 30
0.0
 40
0
 41
0
  0
VERTEX
  8
0
 10
252.361
 20
33.2671
 30
0.0
 40
0
 41
0
  0
VERTEX
  8
0
 10
248.361
 20
32.7671
 30
0.0
 40
0
 41
0
  0
VERTEX
  8
0
 10
248.361
 20
33.2671
 30
0.0
 40
0
 41
0
  0
VERTEX
  8
0
 10
244.361
 20
33.2671
 30
0.0
 40
0
 41
0
  0
VERTEX
  8
0
 10
244.361
 20
28.8328
 30
0.0
 40
0
 41
0
  0
VERTEX
  8
0
 10
240.169
 20
27.3881
 30
0.0
 40
0
 41
0
  0
VERTEX
  8
0
 10
241.472
 20
23.6064
 30
0.0
 40
0
 41
0
  0
VERTEX
  8
0
 10
241.944
 20
23.7692
 30
0.0
 40
0
 41
0
  0
VERTEX
  8
0
 10
242.775
 20
19.8246
 30
0.0
 40
0
 41
0
  0
VERTEX
  8
0
 10
235.844
 20
17.4361
 30
0.0
 40
0
 41
0
  0
VERTEX
  8
0
 10
234.068
 20
21.055
 30
0.0
 40
0
 41
0
  0
VERTEX
  8
0
 10
234.542
 20
21.2179
 30
0.0
 40
0
 41
0
  0
VERTEX
  8
0
 10
233.237
 20
24.9997
 30
0.0
 40
0
 41
0
  0
VERTEX
  8
0
 10
231.935
 20
28.7815
 30
0.0
 40
0
 41
0
  0
SEQEND
 8
0
  0
POLYLINE
  8
0
 62
     0
 66
     1
 10
0
 20
0
 30
0.0
 70
     1
 40
0
 41
0
  0
VERTEX
  8
0
 10
38.3896
 20
35.6703
 30
0.0
 40
0
 41
0
  0
VERTEX
  8
0
 10
50.2065
 20
27.2435
 30
0.0
 40
0
 41
0
  0
VERTEX
  8
0
 10
50.2065
 20
19.2435
 30
0.0
 40
0
 41
0
  0
VERTEX
  8
0
 10
50.7065
 20
19.2435
 30
0.0
 40
0
 41
0
  0
VERTEX
  8
0
 10
50.2065
 20
15.2435
 30
0.0
 40
0
 41
0
  0
VERTEX
  8
0
 10
42.8753
 20
15.2435
 30
0.0
 40
0
 41
0
  0
VERTEX
  8
0
 10
42.3753
 20
19.2435
 30
0.0
 40
0
 41
0
  0
VERTEX
  8
0
 10
42.8753
 20
19.2435
 30
0.0
 40
0
 41
0
  0
VERTEX
  8
0
 10
42.8753
 20
23.2435
 30
0.0
 40
0
 41
0
  0
VERTEX
  8
0
 10
38.4408
 20
23.2435
 30
0.0
 40
0
 41
0
  0
VERTEX
  8
0
 10
36.9963
 20
27.4358
 30
0.0
 40
0
 41
0
  0
VERTEX
  8
0
 10
33.2144
 20
26.1328
 30
0.0
 40
0
 41
0
  0
VERTEX
  8
0
 10
33.3774
 20
25.66
 30
0.0
 40
0
 41
0
  0
VERTEX
  8
0
 10
29.4326
 20
24.8296
 30
0.0
 40
0
 41
0
  0
VERTEX
  8
0
 10
27.0443
 20
31.761
 30
0.0
 40
0
 41
0
  0
VERTEX
  8
0
 10
30.6632
 20
33.5368
 30
0.0
 40
0
 41
0
  0
VERTEX
  8
0
 10
30.8261
 20
33.064
 30
0.0
 40
0
 41
0
  0
VERTEX
  8
0
 10
38.3896
 20
35.6703
 30
0.0
 40
0
 41
0
  0
SEQEND
 8
0
  0
POLYLINE
  8
0
 62
     0
 66
     1
 10
0
 20
0
 30
0.0
 70
     1
 40
0
 41
0
  0
VERTEX
  8
0
 10
82.6035
 20
34.3325
 30
0.0
 40
0
 41
0
  0
VERTEX
  8
0
 10
94.4204
 20
25.9056
 30
0.0
 40
0
 41
0
  0
VERTEX
  8
0
 10
94.4204
 20
17.9056
 30
0.0
 40
0
 41
0
  0
VERTEX
  8
0
 10
94.9204
 20
17.9056
 30
0.0
 40
0
 41
0
  0
VERTEX
  8
0
 10
94.4204
 20
13.9056
 30
0.0
 40
0
 41
0
  0
VERTEX
  8
0
 10
87.089
 20
13.9056
 30
0.0
 40
0
 41
0
  0
VERTEX
  8
0
 10
86.589
 20
17.9056
 30
0.0
 40
0
 41
0
  0
VERTEX
  8
0
 10
87.089
 20
17.9056
 30
0.0
 40
0
 41
0
  0
VERTEX
  8
0
 10
87.089
 20
21.9056
 30
0.0
 40
0
 41
0
  0
VERTEX
  8
0
 10
82.6547
 20
21.9056
 30
0.0
 40
0
 41
0
  0
VERTEX
  8
0
 10
81.2101
 20
26.0979
 30
0.0
 40
0
 41
0
  0
VERTEX
  8
0
 10
77.4283
 20
24.7949
 30
0.0
 40
0
 41
0
  0
VERTEX
  8
0
 10
77.5911
 20
24.3222
 30
0.0
 40
0
 41
0
  0
VERTEX
  8
0
 10
73.6465
 20
23.4918
 30
0.0
 40
0
 41
0
  0
VERTEX
  8
0
 10
71.2581
 20
30.4231
 30
0.0
 40
0
 41
0
  0
VERTEX
  8
0
 10
74.8769
 20
32.1989
 30
0.0
 40
0
 41
0
  0
VERTEX
  8
0
 10
75.0399
 20
31.7263
 30
0.0
 40
0
 41
0
  0
VERTEX
  8
0
 10
78.8217
 20
33.0293
 30
0.0
 40
0
 41
0
  0
VERTEX
  8
0
 10
82.6035
 20
34.3325
 30
0.0
 40
0
 41
0
  0
SEQEND
 8
0
  0
POLYLINE
  8
0
 62
     0
 66
     1
 10
0
 20
0
 30
0.0
 70
     1
 40
0
 41
0
  0
VERTEX
  8
0
 10
15.2697
 20
10.9074
 30
0.0
 40
0
 41
0
  0
VERTEX
  8
0
 10
3.45285
 20
19.3343
 30
0.0
 40
0
 41
0
  0
VERTEX
  8
0
 10
3.45285
 20
27.3343
 30
0.0
 40
0
 41
0
  0
VERTEX
  8
0
 10
2.95285
 20
27.3343
 30
0.0
 40
0
 41
0
  0
VERTEX
  8
0
 10
3.45285
 20
31.3343
 30
0.0
 40
0
 41
0
  0
VERTEX
  8
0
 10
10.7841
 20
31.3343
 30
0.0
 40
0
 41
0
  0
VERTEX
  8
0
 10
11.2841
 20
27.3343
 30
0.0
 40
0
 41
0
  0
VERTEX
  8
0
 10
10.7841
 20
27.3343
 30
0.0
 40
0
 41
0
  0
VERTEX
  8
0
 10
10.7841
 20
23.3343
 30
0.0
 40
0
 41
0
  0
VERTEX
  8
0
 10
15.2185
 20
23.3343
 30
0.0
 40
0
 41
0
  0
VERTEX
  8
0
 10
16.6632
 20
19.1419
 30
0.0
 40
0
 41
0
  0
VERTEX
  8
0
 10
20.445
 20
20.445
 30
0.0
 40
0
 41
0
  0
VERTEX
  8
0
 10
20.2819
 20
20.9178
 30
0.0
 40
0
 41
0
  0
VERTEX
  8
0
 10
24.2267
 20
21.7482
 30
0.0
 40
0
 41
0
  0
VERTEX
  8
0
 10
26.6151
 20
14.8168
 30
0.0
 40
0
 41
0
  0
VERTEX
  8
0
 10
22.9962
 20
13.041
 30
0.0
 40
0
 41
0
  0
VERTEX
  8
0
 10
22.8333
 20
13.5137
 30
0.0
 40
0
 41
0
  0
VERTEX
  8
0
 10
19.0515
 20
12.2106
 30
0.0
 40
0
 41
0
  0
VERTEX
  8
0
 10
15.2697
 20
10.9074
 30
0.0
 40
0
 41
0
  0
SEQEND
 8
0
  0
POLYLINE
  8
0
 62
     0
 66
     1
 10
0
 20
0
 30
0.0
 70
     1
 40
0
 41
0
  0
VERTEX
  8
0
 10
113.783
 20
17.2364
 30
0.0
 40
0
 41
0
  0
VERTEX
  8
0
 10
122.21
 20
29.0533
 30
0.0
 40
0
 41
0
  0
VERTEX
  8
0
 10
130.21
 20
29.0533
 30
0.0
 40
0
 41
0
  0
VERTEX
  8
0
 10
130.21
 20
29.5533
 30
0.0
 40
0
 41
0
  0
VERTEX
  8
0
 10
134.21
 20
29.0533
 30
0.0
 40
0
 41
0
  0
VERTEX
  8
0
 10
134.21
 20
21.7221
 30
0.0
 40
0
 41
0
  0
VERTEX
  8
0
 10
130.21
 20
21.2221
 30
0.0
 40
0
 41
0
  0
VERTEX
  8
0
 10
130.21
 20
21.7221
 30
0.0
 40
0
 41
0
  0
VERTEX
  8
0
 10
126.21
 20
21.7221
 30
0.0
 40
0
 41
0
  0
VERTEX
  8
0
 10
126.21
 20
17.2876
 30
0.0
 40
0
 41
0
  0
VERTEX
  8
0
 10
122.018
 20
15.8431
 30
0.0
 40
0
 41
0
  0
VERTEX
  8
0
 10
123.321
 20
12.0613
 30
0.0
 40
0
 41
0
  0
VERTEX
  8
0
 10
123.793
 20
12.2242
 30
0.0
 40
0
 41
0
  0
VERTEX
  8
0
 10
124.624
 20
8.27951
 30
0.0
 40
0
 41
0
  0
VERTEX
  8
0
 10
117.693
 20
5.89111
 30
0.0
 40
0
 41
0
  0
VERTEX
  8
0
 10
115.917
 20
9.50999
 30
0.0
 40
0
 41
0
  0
VERTEX
  8
0
 10
116.389
 20
9.6729
 30
0.0
 40
0
 41
0
  0
VERTEX
  8
0
 10
115.086
 20
13.4546
 30
0.0
 40
0
 41
0
  0
VERTEX
  8
0
 10
113.783
 20
17.2364
 30
0.0
 40
0
 41
0
  0
SEQEND
 8
0
  0
POLYLINE
  8
0
 62
     0
 66
     1
 10
0
 20
0
 30
0.0
 70
     1
 40
0
 41
0
  0
VERTEX
  8
0
 10
156.546
 20
27.5172
 30
0.0
 40
0
 41
0
  0
VERTEX
  8
0
 10
168.362
 20
19.0903
 30
0.0
 40
0
 41
0
  0
VERTEX
  8
0
 10
168.362
 20
11.0903
 30
0.0
 40
0
 41
0
  0
VERTEX
  8
0
 10
168.862
 20
11.0903
 30
0.0
 40
0
 41
0
  0
VERTEX
  8
0
 10
168.362
 20
7.09033
 30
0.0
 40
0
 41
0
  0
VERTEX
  8
0
 10
161.031
 20
7.09033
 30
0.0
 40
0
 41
0
  0
VERTEX
  8
0
 10
160.531
 20
11.0903
 30
0.0
 40
0
 41
0
  0
VERTEX
  8
0
 10
161.031
 20
11.0903
 30
0.0
 40
0
 41
0
  0
VERTEX
  8
0
 10
161.031
 20
15.0903
 30
0.0
 40
0
 41
0
  0
VERTEX
  8
0
 10
156.597
 20
15.0903
 30
0.0
 40
0
 41
0
  0
VERTEX
  8
0
 10
155.153
 20
19.2828
 30
0.0
 40
0
 41
0
  0
VERTEX
  8
0
 10
151.371
 20
17.9797
 30
0.0
 40
0
 41
0
  0
VERTEX
  8
0
 10
151.533
 20
17.5069
 30
0.0
 40
0
 41
0
  0
VERTEX
  8
0
 10
147.589
 20
16.6765
 30
0.0
 40
0
 41
0
  0
VERTEX
  8
0
 10
145.2
 20
23.6079
 30
0.0
 40
0
 41
0
  0
VERTEX
  8
0
 10
148.819
 20
25.3838
 30
0.0
 40
0
 41
0
  0
VERTEX
  8
0
 10
148.982
 20
24.911
 30
0.0
 40
0
 41
0
  0
VERTEX
  8
0
 10
152.764
 20
26.214
 30
0.0
 40
0
 41
0
  0
VERTEX
  8
0
 10
156.546
 20
27.5172
 30
0.0
 40
0
 41
0
  0
SEQEND
 8
0
  0
POLYLINE
  8
0
 62
     0
 66
     1
 10
0
 20
0
 30
0.0
 70
     1
 40
0
 41
0
  0
VERTEX
  8
0
 10
256.282
 20
19.1903
 30
0.0
 40
0
 41
0
  0
VERTEX
  8
0
 10
247.856
 20
7.37343
 30
0.0
 40
0
 41
0
  0
VERTEX
  8
0
 10
239.856
 20
7.37343
 30
0.0
 40
0
 41
0
  0
VERTEX
  8
0
 10
239.856
 20
6.87343
 30
0.0
 40
0
 41
0
  0
VERTEX
  8
0
 10
235.856
 20
7.37343
 30
0.0
 40
0
 41
0
  0
VERTEX
  8
0
 10
235.856
 20
14.7047
 30
0.0
 40
0
 41
0
  0
VERTEX
  8
0
 10
239.856
 20
15.2047
 30
0.0
 40
0
 41
0
  0
VERTEX
  8
0
 10
239.856
 20
14.7047
 30
0.0
 40
0
 41
0
  0
VERTEX
  8
0
 10
243.856
 20
14.7047
 30
0.0
 40
0
 41
0
  0
VERTEX
  8
0
 10
243.856
 20
19.139
 30
0.0
 40
0
 41
0
  0
VERTEX
  8
0
 10
248.049
 20
20.5836
 30
0.0
 40
0
 41
0
  0
VERTEX
  8
0
 10
246.744
 20
24.3654
 30
0.0
 40
0
 41
0
  0
VERTEX
  8
0
 10
246.272
 20
24.2026
 30
0.0
 40
0
 41
0
  0
VERTEX
  8
0
 10
245.442
 20
28.1472
 30
0.0
 40
0
 41
0
  0
VERTEX
  8
0
 10
252.374
 20
30.5357
 30
0.0
 40
0
 41
0
  0
VERTEX
  8
0
 10
254.149
 20
26.9168
 30
0.0
 40
0
 41
0
  0
VERTEX
  8
0
 10
253.676
 20
26.7539
 30
0.0
 40
0
 41
0
  0
VERTEX
  8
0
 10
254.979
 20
22.9721
 30
0.0
 40
0
 41
0
  0
VERTEX
  8
0
 10
256.282
 20
19.1903
 30
0.0
 40
0
 41
0
  0
SEQEND
 8
0
  0
POLYLINE
  8
0
 62
     0
 66
     1
 10
0
 20
0
 30
0.0
 70
     1
 40
0
 41
0
  0
VERTEX
  8
0
 10
214.378
 20
22.4238
 30
0.0
 40
0
 41
0
  0
VERTEX
  8
0
 10
226.194
 20
13.9968
 30
0.0
 40
0
 41
0
  0
VERTEX
  8
0
 10
226.194
 20
5.99685
 30
0.0
 40
0
 41
0
  0
VERTEX
  8
0
 10
226.694
 20
5.99685
 30
0.0
 40
0
 41
0
  0
VERTEX
  8
0
 10
226.194
 20
1.99685
 30
0.0
 40
0
 41
0
  0
VERTEX
  8
0
 10
218.864
 20
1.99685
 30
0.0
 40
0
 41
0
  0
VERTEX
  8
0
 10
218.364
 20
5.99685
 30
0.0
 40
0
 41
0
  0
VERTEX
  8
0
 10
218.864
 20
5.99685
 30
0.0
 40
0
 41
0
  0
VERTEX
  8
0
 10
218.864
 20
9.99685
 30
0.0
 40
0
 41
0
  0
VERTEX
  8
0
 10
214.429
 20
9.99685
 30
0.0
 40
0
 41
0
  0
VERTEX
  8
0
 10
212.985
 20
14.1893
 30
0.0
 40
0
 41
0
  0
VERTEX
  8
0
 10
209.203
 20
12.8862
 30
0.0
 40
0
 41
0
  0
VERTEX
  8
0
 10
209.365
 20
12.4135
 30
0.0
 40
0
 41
0
  0
VERTEX
  8
0
 10
205.421
 20
11.5831
 30
0.0
 40
0
 41
0
  0
VERTEX
  8
0
 10
203.032
 20
18.5144
 30
0.0
 40
0
 41
0
  0
VERTEX
  8
0
 10
206.651
 20
20.2901
 30
0.0
 40
0
 41
0
  0
VERTEX
  8
0
 10
206.814
 20
19.8175
 30
0.0
 40
0
 41
0
  0
VERTEX
  8
0
 10
214.378
 20
22.4238
 30
0.0
 40
0
 41
0
  0
SEQEND
 8
0
  0
POLYLINE
  8
0
 62
     0
 66
     1
 10
0
 20
0
 30
0.0
 70
     1
 40
0
 41
0
  0
VERTEX
  8
0
 10
39.5485
 20
3.32254
 30
0.0
 40
0
 41
0
  0
VERTEX
  8
0
 10
27.7317
 20
11.7494
 30
0.0
 40
0
 41
0
  0
VERTEX
  8
0
 10
27.7317
 20
19.7494
 30
0.0
 40
0
 41
0
  0
VERTEX
  8
0
 10
27.2317
 20
19.7494
 30
0.0
 40
0
 41
0
  0
VERTEX
  8
0
 10
27.7317
 20
23.7494
 30
0.0
 40
0
 41
0
  0
VERTEX
  8
0
 10
35.0629
 20
23.7494
 30
0.0
 40
0
 41
0
  0
VERTEX
  8
0
 10
35.5629
 20
19.7494
 30
0.0
 40
0
 41
0
  0
VERTEX
  8
0
 10
35.0629
 20
19.7494
 30
0.0
 40
0
 41
0
  0
VERTEX
  8
0
 10
35.0629
 20
15.7494
 30
0.0
 40
0
 41
0
  0
VERTEX
  8
0
 10
39.4972
 20
15.7494
 30
0.0
 40
0
 41
0
  0
VERTEX
  8
0
 10
40.9419
 20
11.557
 30
0.0
 40
0
 41
0
  0
VERTEX
  8
0
 10
44.7238
 20
12.8601
 30
0.0
 40
0
 41
0
  0
VERTEX
  8
0
 10
44.5608
 20
13.3328
 30
0.0
 40
0
 41
0
  0
VERTEX
  8
0
 10
48.5054
 20
14.1632
 30
0.0
 40
0
 41
0
  0
VERTEX
  8
0
 10
50.8939
 20
7.23188
 30
0.0
 40
0
 41
0
  0
VERTEX
  8
0
 10
47.275
 20
5.45606
 30
0.0
 40
0
 41
0
  0
VERTEX
  8
0
 10
47.1121
 20
5.92876
 30
0.0
 40
0
 41
0
  0
VERTEX
  8
0
 10
43.3303
 20
4.62565
 30
0.0
 40
0
 41
0
  0
VERTEX
  8
0
 10
39.5485
 20
3.32254
 30
0.0
 40
0
 41
0
  0
SEQEND
 8
0
  0
POLYLINE
  8
0
 62
     0
 66
     1
 10
0
 20
0
 30
0.0
 70
     1
 40
0
 41
0
  0
VERTEX
  8
0
 10
74.2339
 20
22.3504
 30
0.0
 40
0
 41
0
  0
VERTEX
  8
0
 10
86.0507
 20
13.9235
 30
0.0
 40
0
 41
0
  0
VERTEX
  8
0
 10
86.0507
 20
5.9235
 30
0.0
 40
0
 41
0
  0
VERTEX
  8
0
 10
86.5507
 20
5.9235
 30
0.0
 40
0
 41
0
  0
VERTEX
  8
0
 10
86.0507
 20
1.9235
 30
0.0
 40
0
 41
0
  0
VERTEX
  8
0
 10
78.7194
 20
1.9235
 30
0.0
 40
0
 41
0
  0
VERTEX
  8
0
 10
78.2194
 20
5.9235
 30
0.0
 40
0
 41
0
  0
VERTEX
  8
0
 10
78.7194
 20
5.9235
 30
0.0
 40
0
 41
0
  0
VERTEX
  8
0
 10
78.7194
 20
9.9235
 30
0.0
 40
0
 41
0
  0
VERTEX
  8
0
 10
74.2851
 20
9.9235
 30
0.0
 40
0
 41
0
  0
VERTEX
  8
0
 10
72.8404
 20
14.116
 30
0.0
 40
0
 41
0
  0
VERTEX
  8
0
 10
69.0586
 20
12.8128
 30
0.0
 40
0
 41
0
  0
VERTEX
  8
0
 10
69.2215
 20
12.3401
 30
0.0
 40
0
 41
0
  0
VERTEX
  8
0
 10
65.2769
 20
11.5097
 30
0.0
 40
0
 41
0
  0
VERTEX
  8
0
 10
62.8885
 20
18.441
 30
0.0
 40
0
 41
0
  0
VERTEX
  8
0
 10
66.5074
 20
20.2168
 30
0.0
 40
0
 41
0
  0
VERTEX
  8
0
 10
66.6703
 20
19.7442
 30
0.0
 40
0
 41
0
  0
VERTEX
  8
0
 10
70.4521
 20
21.0472
 30
0.0
 40
0
 41
0
  0
VERTEX
  8
0
 10
74.2339
 20
22.3504
 30
0.0
 40
0
 41
0
  0
SEQEND
 8
0
  0
POLYLINE
  8
0
 62
     0
 66
     1
 10
0
 20
0
 30
0.0
 70
     1
 40
0
 41
0
  0
VERTEX
  8
0
 10
147.321
 20
3.16943
 30
0.0
 40
0
 41
0
  0
VERTEX
  8
0
 10
135.503
 20
11.5963
 30
0.0
 40
0
 41
0
  0
VERTEX
  8
0
 10
135.503
 20
19.5963
 30
0.0
 40
0
 41
0
  0
VERTEX
  8
0
 10
135.003
 20
19.5963
 30
0.0
 40
0
 41
0
  0
VERTEX
  8
0
 10
135.503
 20
23.5963
 30
0.0
 40
0
 41
0
  0
VERTEX
  8
0
 10
142.835
 20
23.5963
 30
0.0
 40
0
 41
0
  0
VERTEX
  8
0
 10
143.335
 20
19.5963
 30
0.0
 40
0
 41
0
  0
VERTEX
  8
0
 10
142.835
 20
19.5963
 30
0.0
 40
0
 41
0
  0
VERTEX
  8
0
 10
142.835
 20
15.5963
 30
0.0
 40
0
 41
0
  0
VERTEX
  8
0
 10
147.269
 20
15.5963
 30
0.0
 40
0
 41
0
  0
VERTEX
  8
0
 10
148.714
 20
11.4039
 30
0.0
 40
0
 41
0
  0
VERTEX
  8
0
 10
152.496
 20
12.707
 30
0.0
 40
0
 41
0
  0
VERTEX
  8
0
 10
152.332
 20
13.1797
 30
0.0
 40
0
 41
0
  0
VERTEX
  8
0
 10
156.278
 20
14.0101
 30
0.0
 40
0
 41
0
  0
VERTEX
  8
0
 10
158.665
 20
7.07883
 30
0.0
 40
0
 41
0
  0
VERTEX
  8
0
 10
155.047
 20
5.30296
 30
0.0
 40
0
 41
0
  0
VERTEX
  8
0
 10
154.883
 20
5.77567
 30
0.0
 40
0
 41
0
  0
VERTEX
  8
0
 10
147.321
 20
3.16943
 30
0.0
 40
0
 41
0
  0
SEQEND
 8
0
  0
POLYLINE
  8
0
 62
     0
 66
     1
 10
0
 20
0
 30
0.0
 70
     1
 40
0
 41
0
  0
VERTEX
  8
0
 10
181.401
 20
20.4292
 30
0.0
 40
0
 41
0
  0
VERTEX
  8
0
 10
193.219
 20
12.0023
 30
0.0
 40
0
 41
0
  0
VERTEX
  8
0
 10
193.219
 20
4.00228
 30
0.0
 40
0
 41
0
  0
VERTEX
  8
0
 10
193.719
 20
4.00228
 30
0.0
 40
0
 41
0
  0
VERTEX
  8
0
 10
193.219
 20
0.00227865
 30
0.0
 40
0
 41
0
  0
VERTEX
  8
0
 10
185.888
 20
0.00227865
 30
0.0
 40
0
 41
0
  0
VERTEX
  8
0
 10
185.388
 20
4.00228
 30
0.0
 40
0
 41
0
  0
VERTEX
  8
0
 10
185.888
 20
4.00228
 30
0.0
 40
0
 41
0
  0
VERTEX
  8
0
 10
185.888
 20
8.00228
 30
0.0
 40
0
 41
0
  0
VERTEX
  8
0
 10
181.453
 20
8.00228
 30
0.0
 40
0
 41
0
  0
VERTEX
  8
0
 10
180.008
 20
12.1947
 30
0.0
 40
0
 41
0
  0
VERTEX
  8
0
 10
176.226
 20
10.8916
 30
0.0
 40
0
 41
0
  0
VERTEX
  8
0
 10
176.39
 20
10.4189
 30
0.0
 40
0
 41
0
  0
VERTEX
  8
0
 10
172.444
 20
9.58849
 30
0.0
 40
0
 41
0
  0
VERTEX
  8
0
 10
170.057
 20
16.5199
 30
0.0
 40
0
 41
0
  0
VERTEX
  8
0
 10
173.675
 20
18.2957
 30
0.0
 40
0
 41
0
  0
VERTEX
  8
0
 10
173.839
 20
17.8229
 30
0.0
 40
0
 41
0
  0
VERTEX
  8
0
 10
177.619
 20
19.126
 30
0.0
 40
0
 41
0
  0
VERTEX
  8
0
 10
181.401
 20
20.4292
 30
0.0
 40
0
 41
0
  0
SEQEND
 8
0
  0
ENDSEC
  0
EOF
