  0
SECTION
  2
HEADER
  9
$ACADVER
  1
AC1014
  9
$HANDSEED
  5
FFFF
  9
$MEASUREMENT
 70
     1
  0
ENDSEC
  0
SECTION
  2
TABLES
  0
TABLE
  2
VPORT
  5
8
330
0
100
AcDbSymbolTable
 70
     4
  0
VPORT
  5
2E
330
8
100
AcDbSymbolTableRecord
100
AcDbViewportTableRecord
  2
*ACTIVE
 70
     0
 10
0.0
 20
0.0
 11
1.0
 21
1.0
 12
210.0
 22
148.5
 13
0.0
 23
0.0
 14
10.0
 24
10.0
 15
10.0
 25
10.0
 16
0.0
 26
0.0
 36
1.0
 17
0.0
 27
0.0
 37
0.0
 40
341.0
 41
1.24
 42
50.0
 43
0.0
 44
0.0
 50
0.0
 51
0.0
 71
     0
 72
   100
 73
     1
 74
     3
 75
     0
 76
     0
 77
     0
 78
     0
  0
ENDTAB
  0
TABLE
  2
LTYPE
  5
5
330
0
100
AcDbSymbolTable
 70
     1
  0
LTYPE
  5
14
330
5
100
AcDbSymbolTableRecord
100
AcDbLinetypeTableRecord
  2
BYBLOCK
 70
     0
  3

 72
    65
 73
     0
 40
0.0
  0
LTYPE
  5
15
330
5
100
AcDbSymbolTableRecord
100
AcDbLinetypeTableRecord
  2
BYLAYER
 70
     0
  3

 72
    65
 73
     0
 40
0.0
  0
LTYPE
  5
16
330
5
100
AcDbSymbolTableRecord
100
AcDbLinetypeTableRecord
  2
CONTINUOUS
 70
     0
  3
Solid line
 72
    65
 73
     0
 40
0.0
  0
ENDTAB
  0
TABLE
  2
LAYER
  5
2
100
AcDbSymbolTable
 70
1
  0
LAYER
  5
50
100
AcDbSymbolTableRecord
100
AcDbLayerTableRecord
  2
0
 70
0
  6
CONTINUOUS
  0
ENDTAB
  0
TABLE
  2
STYLE
  5
3
330
0
100
AcDbSymbolTable
 70
     1
  0
STYLE
  5
11
330
3
100
AcDbSymbolTableRecord
100
AcDbTextStyleTableRecord
  2
STANDARD
 70
     0
 40
0.0
 41
1.0
 50
0.0
 71
     0
 42
2.5
  3
txt
  4

  0
ENDTAB
  0
TABLE
  2
VIEW
  5
6
330
0
100
AcDbSymbolTable
 70
     0
  0
ENDTAB
  0
TABLE
  2
UCS
  5
7
330
0
100
AcDbSymbolTable
 70
     0
  0
ENDTAB
  0
TABLE
  2
APPID
  5
9
330
0
100
AcDbSymbolTable
 70
     2
  0
APPID
  5
12
330
9
100
AcDbSymbolTableRecord
100
AcDbRegAppTableRecord
  2
ACAD
 70
     0
  0
ENDTAB
  0
TABLE
  2
DIMSTYLE
  5
A
330
0
100
AcDbSymbolTable
 70
     1
  0
DIMSTYLE
105
27
330
A
100
AcDbSymbolTableRecord
100
AcDbDimStyleTableRecord
  2
ISO-25
 70
     0
  3

  4

  5

  6

  7

 40
1.0
 41
2.5
 42
0.625
 43
3.75
 44
1.25
 45
0.0
 46
0.0
 47
0.0
 48
0.0
140
2.5
141
2.5
142
0.0
143
0.03937007874016
144
1.0
145
0.0
146
1.0
147
0.625
 71
     0
 72
     0
 73
     0
 74
     0
 75
     0
 76
     0
 77
     1
 78
     8
170
     0
171
     3
172
     1
173
     0
174
     0
175
     0
176
     0
177
     0
178
     0
270
     2
271
     2
272
     2
273
     2
274
     3
340
11
275
     0
280
     0
281
     0
282
     0
283
     0
284
     8
285
     0
286
     0
287
     3
288
     0
  0
ENDTAB
  0
TABLE
  2
BLOCK_RECORD
  5
1
330
0
100
AcDbSymbolTable
 70
     1
  0
BLOCK_RECORD
  5
1F
330
1
100
AcDbSymbolTableRecord
100
AcDbBlockTableRecord
  2
*MODEL_SPACE
  0
BLOCK_RECORD
  5
1B
330
1
100
AcDbSymbolTableRecord
100
AcDbBlockTableRecord
  2
*PAPER_SPACE
  0
ENDTAB
  0
ENDSEC
  0
SECTION
  2
BLOCKS
  0
BLOCK
  5
20
330
1F
100
AcDbEntity
  8
0
100
AcDbBlockBegin
  2
*MODEL_SPACE
 70
     0
 10
0.0
 20
0.0
 30
0.0
  3
*MODEL_SPACE
  1

  0
ENDBLK
  5
21
330
1F
100
AcDbEntity
  8
0
100
AcDbBlockEnd
  0
BLOCK
  5
1C
330
1B
100
AcDbEntity
 67
     1
  8
0
100
AcDbBlockBegin
  2
*PAPER_SPACE
  1

  0
ENDBLK
  5
1D
330
1B
100
AcDbEntity
 67
     1
  8
0
100
AcDbBlockEnd
  0
ENDSEC
  0
SECTION
  2
ENTITIES
  0
SPLINE
  5
100
100
AcDbEntity
  8
0
 62
7
100
AcDbSpline
 70
8
 71
3
 72
8
 73
4
 74
0
 40
0
 40
0
 40
0
 40
0
 40
1
 40
1
 40
1
 40
1
 10
579.019500
 20
3074.719703
 30
0.0
 10
262.170939
 20
2757.871106
 30
0.0
 10
248.464009
 20
2248.547109
 30
0.0
 10
547.812225
 20
1915.115423
 30
0.0
  0
SPLINE
  5
101
100
AcDbEntity
  8
0
 62
7
100
AcDbSpline
 70
8
 71
3
 72
8
 73
4
 74
0
 40
0
 40
0
 40
0
 40
0
 40
1
 40
1
 40
1
 40
1
 10
668.344725
 20
2035.540342
 30
0.0
 10
435.295267
 20
2302.282616
 30
0.0
 10
448.820297
 20
2703.992782
 30
0.0
 10
699.283350
 20
2954.455852
 30
0.0
  0
LWPOLYLINE
  5
102
100
AcDbEntity
  8
0
 62
7
100
AcDbPolyline
 90
6
 70
0
 10
547.812225
 20
1915.115423
 30
0.0
 10
602.030775
 20
1969.333987
 30
0.0
 10
524.661075
 20
2046.703687
 30
0.0
 10
561.241350
 20
2083.283948
 30
0.0
 10
638.664825
 20
2005.860473
 30
0.0
 10
668.344725
 20
2035.540342
 30
0.0
  0
LWPOLYLINE
  5
103
100
AcDbEntity
  8
0
 62
7
100
AcDbPolyline
 90
6
 70
0
 10
699.283350
 20
2954.455852
 30
0.0
 10
669.217350
 20
2984.521853
 30
0.0
 10
829.569150
 20
3144.873675
 30
0.0
 10
769.437300
 20
3205.005562
 30
0.0
 10
609.085425
 20
3044.653755
 30
0.0
 10
579.019500
 20
3074.719703
 30
0.0
  0
LWPOLYLINE
  5
104
100
AcDbEntity
  8
0
 62
7
100
AcDbPolyline
 90
6
 70
1
 10
2451.012450
 20
1821.304435
 30
0.0
 10
2495.813925
 20
1795.438285
 30
0.0
 10
2495.813925
 20
1743.705982
 30
0.0
 10
2451.012450
 20
1717.839832
 30
0.0
 10
2406.210975
 20
1743.705982
 30
0.0
 10
2406.210975
 20
1795.438285
 30
0.0
  0
LWPOLYLINE
  5
105
100
AcDbEntity
  8
0
 62
7
100
AcDbPolyline
 90
6
 70
1
 10
2301.012450
 20
1736.929432
 30
0.0
 10
2345.813925
 20
1711.063282
 30
0.0
 10
2345.813925
 20
1659.330982
 30
0.0
 10
2301.012450
 20
1633.464832
 30
0.0
 10
2256.210975
 20
1659.330982
 30
0.0
 10
2256.210975
 20
1711.063282
 30
0.0
  0
SPLINE
  5
106
100
AcDbEntity
  8
0
 62
7
100
AcDbSpline
 70
8
 71
3
 72
8
 73
4
 74
0
 40
0
 40
0
 40
0
 40
0
 40
1
 40
1
 40
1
 40
1
 10
3323.906385
 20
379.954965
 30
0.0
 10
3316.297943
 20
462.530941
 30
0.0
 10
3272.911870
 20
537.634267
 30
0.0
 10
3205.179165
 20
585.477352
 30
0.0
  0
LWPOLYLINE
  5
107
100
AcDbEntity
  8
0
 62
7
100
AcDbPolyline
 90
2
 70
0
 10
3196.360350
 20
379.954965
 30
0.0
 10
3323.906385
 20
379.954965
 30
0.0
  0
SPLINE
  5
108
100
AcDbEntity
  8
0
 62
7
100
AcDbSpline
 70
8
 71
3
 72
8
 73
4
 74
0
 40
0
 40
0
 40
0
 40
0
 40
1
 40
1
 40
1
 40
1
 10
3096.475421
 20
500.944980
 30
0.0
 10
3096.475421
 20
500.944980
 30
0.0
 10
3160.248435
 20
611.403082
 30
0.0
 10
3160.248435
 20
611.403082
 30
0.0
  0
SPLINE
  5
109
100
AcDbEntity
  8
0
 62
7
100
AcDbSpline
 70
8
 71
3
 72
8
 73
4
 74
0
 40
0
 40
0
 40
0
 40
0
 40
1
 40
1
 40
1
 40
1
 10
3160.248435
 20
611.403082
 30
0.0
 10
3084.931315
 20
646.101958
 30
0.0
 10
2998.196887
 20
646.080170
 30
0.0
 10
2922.897210
 20
611.343457
 30
0.0
  0
LWPOLYLINE
  5
10a
100
AcDbEntity
  8
0
 62
7
100
AcDbPolyline
 90
3
 70
0
 10
3205.179165
 20
585.477352
 30
0.0
 10
3141.399637
 20
475.007970
 30
0.0
 10
3096.475421
 20
500.944980
 30
0.0
  0
SPLINE
  5
10b
100
AcDbEntity
  8
0
 62
7
100
AcDbSpline
 70
8
 71
3
 72
8
 73
4
 74
0
 40
0
 40
0
 40
0
 40
0
 40
1
 40
1
 40
1
 40
1
 10
2941.752517
 20
474.937065
 30
0.0
 10
2941.752517
 20
474.937065
 30
0.0
 10
2877.979500
 20
585.395167
 30
0.0
 10
2877.979500
 20
585.395167
 30
0.0
  0
SPLINE
  5
10c
100
AcDbEntity
  8
0
 62
7
100
AcDbSpline
 70
8
 71
3
 72
8
 73
4
 74
0
 40
0
 40
0
 40
0
 40
0
 40
1
 40
1
 40
1
 40
1
 10
2877.979500
 20
585.395167
 30
0.0
 10
2810.270814
 20
537.518066
 30
0.0
 10
2766.922458
 20
462.392944
 30
0.0
 10
2759.355495
 20
379.813140
 30
0.0
  0
LWPOLYLINE
  5
10d
100
AcDbEntity
  8
0
 62
7
100
AcDbPolyline
 90
3
 70
0
 10
2922.897210
 20
611.343457
 30
0.0
 10
2986.676734
 20
500.874075
 30
0.0
 10
2941.752517
 20
474.937065
 30
0.0
  0
SPLINE
  5
10e
100
AcDbEntity
  8
0
 62
7
100
AcDbSpline
 70
8
 71
3
 72
8
 73
4
 74
0
 40
0
 40
0
 40
0
 40
0
 40
1
 40
1
 40
1
 40
1
 10
2886.914550
 20
327.939090
 30
0.0
 10
2886.914550
 20
327.939090
 30
0.0
 10
2759.368515
 20
327.939090
 30
0.0
 10
2759.368515
 20
327.939090
 30
0.0
  0
SPLINE
  5
10f
100
AcDbEntity
  8
0
 62
7
100
AcDbSpline
 70
8
 71
3
 72
8
 73
4
 74
0
 40
0
 40
0
 40
0
 40
0
 40
1
 40
1
 40
1
 40
1
 10
2759.368515
 20
327.939090
 30
0.0
 10
2766.976968
 20
245.363127
 30
0.0
 10
2810.363039
 20
170.259817
 30
0.0
 10
2878.095735
 20
122.416740
 30
0.0
  0
LWPOLYLINE
  5
110
100
AcDbEntity
  8
0
 62
7
100
AcDbPolyline
 90
3
 70
0
 10
2759.355495
 20
379.813140
 30
0.0
 10
2886.914550
 20
379.813140
 30
0.0
 10
2886.914550
 20
327.939090
 30
0.0
  0
SPLINE
  5
111
100
AcDbEntity
  8
0
 62
7
100
AcDbSpline
 70
8
 71
3
 72
8
 73
4
 74
0
 40
0
 40
0
 40
0
 40
0
 40
1
 40
1
 40
1
 40
1
 10
2923.026465
 20
96.490965
 30
0.0
 10
2998.343640
 20
61.792208
 30
0.0
 10
3085.078067
 20
61.814134
 30
0.0
 10
3160.377690
 20
96.550965
 30
0.0
  0
LWPOLYLINE
  5
112
100
AcDbEntity
  8
0
 62
7
100
AcDbPolyline
 90
4
 70
0
 10
2878.095735
 20
122.416740
 30
0.0
 10
2941.875262
 20
232.886115
 30
0.0
 10
2986.799479
 20
206.949090
 30
0.0
 10
2923.026465
 20
96.490965
 30
0.0
  0
SPLINE
  5
113
100
AcDbEntity
  8
0
 62
7
100
AcDbSpline
 70
8
 71
3
 72
8
 73
4
 74
0
 40
0
 40
0
 40
0
 40
0
 40
1
 40
1
 40
1
 40
1
 10
3205.295400
 20
122.499240
 30
0.0
 10
3273.003997
 20
170.376263
 30
0.0
 10
3316.352342
 20
245.501238
 30
0.0
 10
3323.919405
 20
328.080915
 30
0.0
  0
LWPOLYLINE
  5
114
100
AcDbEntity
  8
0
 62
7
100
AcDbPolyline
 90
4
 70
0
 10
3160.377690
 20
96.550965
 30
0.0
 10
3096.598165
 20
207.020340
 30
0.0
 10
3141.522382
 20
232.957365
 30
0.0
 10
3205.295400
 20
122.499240
 30
0.0
  0
LWPOLYLINE
  5
115
100
AcDbEntity
  8
0
 62
7
100
AcDbPolyline
 90
3
 70
0
 10
3323.919405
 20
328.080915
 30
0.0
 10
3196.360350
 20
328.080915
 30
0.0
 10
3196.360350
 20
379.954965
 30
0.0
  0
SPLINE
  5
116
100
AcDbEntity
  8
0
 62
7
100
AcDbSpline
 70
8
 71
3
 72
8
 73
4
 74
0
 40
0
 40
0
 40
0
 40
0
 40
1
 40
1
 40
1
 40
1
 10
1100.846656
 20
667.648770
 30
0.0
 10
1093.238214
 20
750.224746
 30
0.0
 10
1049.852142
 20
825.328072
 30
0.0
 10
982.119436
 20
873.171157
 30
0.0
  0
LWPOLYLINE
  5
117
100
AcDbEntity
  8
0
 62
7
100
AcDbPolyline
 90
2
 70
0
 10
973.300621
 20
667.648770
 30
0.0
 10
1100.846656
 20
667.648770
 30
0.0
  0
SPLINE
  5
118
100
AcDbEntity
  8
0
 62
7
100
AcDbSpline
 70
8
 71
3
 72
8
 73
4
 74
0
 40
0
 40
0
 40
0
 40
0
 40
1
 40
1
 40
1
 40
1
 10
873.415693
 20
788.638785
 30
0.0
 10
873.415693
 20
788.638785
 30
0.0
 10
937.188706
 20
899.096887
 30
0.0
 10
937.188706
 20
899.096887
 30
0.0
  0
SPLINE
  5
119
100
AcDbEntity
  8
0
 62
7
100
AcDbSpline
 70
8
 71
3
 72
8
 73
4
 74
0
 40
0
 40
0
 40
0
 40
0
 40
1
 40
1
 40
1
 40
1
 10
937.188706
 20
899.096887
 30
0.0
 10
861.871586
 20
933.795763
 30
0.0
 10
775.137159
 20
933.773975
 30
0.0
 10
699.837481
 20
899.037262
 30
0.0
  0
LWPOLYLINE
  5
11a
100
AcDbEntity
  8
0
 62
7
100
AcDbPolyline
 90
3
 70
0
 10
982.119436
 20
873.171157
 30
0.0
 10
918.339909
 20
762.701775
 30
0.0
 10
873.415693
 20
788.638785
 30
0.0
  0
SPLINE
  5
11b
100
AcDbEntity
  8
0
 62
7
100
AcDbSpline
 70
8
 71
3
 72
8
 73
4
 74
0
 40
0
 40
0
 40
0
 40
0
 40
1
 40
1
 40
1
 40
1
 10
654.919771
 20
873.088972
 30
0.0
 10
587.211086
 20
825.211871
 30
0.0
 10
543.862730
 20
750.086749
 30
0.0
 10
536.295766
 20
667.506945
 30
0.0
  0
LWPOLYLINE
  5
11c
100
AcDbEntity
  8
0
 62
7
100
AcDbPolyline
 90
4
 70
0
 10
699.837481
 20
899.037262
 30
0.0
 10
763.617006
 20
788.567880
 30
0.0
 10
718.692789
 20
762.630870
 30
0.0
 10
654.919771
 20
873.088972
 30
0.0
  0
SPLINE
  5
11d
100
AcDbEntity
  8
0
 62
7
100
AcDbSpline
 70
8
 71
3
 72
8
 73
4
 74
0
 40
0
 40
0
 40
0
 40
0
 40
1
 40
1
 40
1
 40
1
 10
663.854821
 20
615.632895
 30
0.0
 10
663.854821
 20
615.632895
 30
0.0
 10
536.308786
 20
615.632895
 30
0.0
 10
536.308786
 20
615.632895
 30
0.0
  0
SPLINE
  5
11e
100
AcDbEntity
  8
0
 62
7
100
AcDbSpline
 70
8
 71
3
 72
8
 73
4
 74
0
 40
0
 40
0
 40
0
 40
0
 40
1
 40
1
 40
1
 40
1
 10
536.308786
 20
615.632895
 30
0.0
 10
543.917240
 20
533.056932
 30
0.0
 10
587.303310
 20
457.953622
 30
0.0
 10
655.036006
 20
410.110545
 30
0.0
  0
LWPOLYLINE
  5
11f
100
AcDbEntity
  8
0
 62
7
100
AcDbPolyline
 90
3
 70
0
 10
536.295766
 20
667.506945
 30
0.0
 10
663.854821
 20
667.506945
 30
0.0
 10
663.854821
 20
615.632895
 30
0.0
  0
SPLINE
  5
120
100
AcDbEntity
  8
0
 62
7
100
AcDbSpline
 70
8
 71
3
 72
8
 73
4
 74
0
 40
0
 40
0
 40
0
 40
0
 40
1
 40
1
 40
1
 40
1
 10
699.966736
 20
384.184770
 30
0.0
 10
775.283912
 20
349.486013
 30
0.0
 10
862.018339
 20
349.507939
 30
0.0
 10
937.317961
 20
384.244770
 30
0.0
  0
LWPOLYLINE
  5
121
100
AcDbEntity
  8
0
 62
7
100
AcDbPolyline
 90
4
 70
0
 10
655.036006
 20
410.110545
 30
0.0
 10
718.815534
 20
520.579920
 30
0.0
 10
763.739750
 20
494.642895
 30
0.0
 10
699.966736
 20
384.184770
 30
0.0
  0
SPLINE
  5
122
100
AcDbEntity
  8
0
 62
7
100
AcDbSpline
 70
8
 71
3
 72
8
 73
4
 74
0
 40
0
 40
0
 40
0
 40
0
 40
1
 40
1
 40
1
 40
1
 10
982.235671
 20
410.193045
 30
0.0
 10
1049.944268
 20
458.070068
 30
0.0
 10
1093.292614
 20
533.195043
 30
0.0
 10
1100.859676
 20
615.774720
 30
0.0
  0
LWPOLYLINE
  5
123
100
AcDbEntity
  8
0
 62
7
100
AcDbPolyline
 90
4
 70
0
 10
937.317961
 20
384.244770
 30
0.0
 10
873.538437
 20
494.714145
 30
0.0
 10
918.462654
 20
520.651170
 30
0.0
 10
982.235671
 20
410.193045
 30
0.0
  0
LWPOLYLINE
  5
124
100
AcDbEntity
  8
0
 62
7
100
AcDbPolyline
 90
3
 70
0
 10
1100.859676
 20
615.774720
 30
0.0
 10
973.300621
 20
615.774720
 30
0.0
 10
973.300621
 20
667.648770
 30
0.0
  0
SPLINE
  5
125
100
AcDbEntity
  8
0
 62
7
100
AcDbSpline
 70
8
 71
3
 72
8
 73
4
 74
0
 40
0
 40
0
 40
0
 40
0
 40
1
 40
1
 40
1
 40
1
 10
1186.406385
 20
1275.267480
 30
0.0
 10
1178.797943
 20
1357.843456
 30
0.0
 10
1135.411870
 20
1432.946782
 30
0.0
 10
1067.679165
 20
1480.789867
 30
0.0
  0
LWPOLYLINE
  5
126
100
AcDbEntity
  8
0
 62
7
100
AcDbPolyline
 90
2
 70
0
 10
1058.860350
 20
1275.267480
 30
0.0
 10
1186.406385
 20
1275.267480
 30
0.0
  0
SPLINE
  5
127
100
AcDbEntity
  8
0
 62
7
100
AcDbSpline
 70
8
 71
3
 72
8
 73
4
 74
0
 40
0
 40
0
 40
0
 40
0
 40
1
 40
1
 40
1
 40
1
 10
958.975421
 20
1396.257495
 30
0.0
 10
958.975421
 20
1396.257495
 30
0.0
 10
1022.748435
 20
1506.715598
 30
0.0
 10
1022.748435
 20
1506.715597
 30
0.0
  0
SPLINE
  5
128
100
AcDbEntity
  8
0
 62
7
100
AcDbSpline
 70
8
 71
3
 72
8
 73
4
 74
0
 40
0
 40
0
 40
0
 40
0
 40
1
 40
1
 40
1
 40
1
 10
1022.748435
 20
1506.715597
 30
0.0
 10
947.431315
 20
1541.414473
 30
0.0
 10
860.696887
 20
1541.392685
 30
0.0
 10
785.397210
 20
1506.655972
 30
0.0
  0
LWPOLYLINE
  5
129
100
AcDbEntity
  8
0
 62
7
100
AcDbPolyline
 90
3
 70
0
 10
1067.679165
 20
1480.789867
 30
0.0
 10
1003.899637
 20
1370.320485
 30
0.0
 10
958.975421
 20
1396.257495
 30
0.0
  0
SPLINE
  5
12a
100
AcDbEntity
  8
0
 62
7
100
AcDbSpline
 70
8
 71
3
 72
8
 73
4
 74
0
 40
0
 40
0
 40
0
 40
0
 40
1
 40
1
 40
1
 40
1
 10
740.479500
 20
1480.707682
 30
0.0
 10
672.770814
 20
1432.830581
 30
0.0
 10
629.422458
 20
1357.705459
 30
0.0
 10
621.855495
 20
1275.125655
 30
0.0
  0
LWPOLYLINE
  5
12b
100
AcDbEntity
  8
0
 62
7
100
AcDbPolyline
 90
4
 70
0
 10
785.397210
 20
1506.655972
 30
0.0
 10
849.176734
 20
1396.186590
 30
0.0
 10
804.252517
 20
1370.249580
 30
0.0
 10
740.479500
 20
1480.707682
 30
0.0
  0
SPLINE
  5
12c
100
AcDbEntity
  8
0
 62
7
100
AcDbSpline
 70
8
 71
3
 72
8
 73
4
 74
0
 40
0
 40
0
 40
0
 40
0
 40
1
 40
1
 40
1
 40
1
 10
749.414550
 20
1223.251605
 30
0.0
 10
749.414550
 20
1223.251605
 30
0.0
 10
621.868515
 20
1223.251605
 30
0.0
 10
621.868515
 20
1223.251605
 30
0.0
  0
SPLINE
  5
12d
100
AcDbEntity
  8
0
 62
7
100
AcDbSpline
 70
8
 71
3
 72
8
 73
4
 74
0
 40
0
 40
0
 40
0
 40
0
 40
1
 40
1
 40
1
 40
1
 10
621.868515
 20
1223.251605
 30
0.0
 10
629.476968
 20
1140.675642
 30
0.0
 10
672.863039
 20
1065.572332
 30
0.0
 10
740.595735
 20
1017.729255
 30
0.0
  0
LWPOLYLINE
  5
12e
100
AcDbEntity
  8
0
 62
7
100
AcDbPolyline
 90
3
 70
0
 10
621.855495
 20
1275.125655
 30
0.0
 10
749.414550
 20
1275.125655
 30
0.0
 10
749.414550
 20
1223.251605
 30
0.0
  0
SPLINE
  5
12f
100
AcDbEntity
  8
0
 62
7
100
AcDbSpline
 70
8
 71
3
 72
8
 73
4
 74
0
 40
0
 40
0
 40
0
 40
0
 40
1
 40
1
 40
1
 40
1
 10
785.526465
 20
991.803480
 30
0.0
 10
860.843640
 20
957.104723
 30
0.0
 10
947.578067
 20
957.126649
 30
0.0
 10
1022.877690
 20
991.863480
 30
0.0
  0
LWPOLYLINE
  5
130
100
AcDbEntity
  8
0
 62
7
100
AcDbPolyline
 90
4
 70
0
 10
740.595735
 20
1017.729255
 30
0.0
 10
804.375262
 20
1128.198630
 30
0.0
 10
849.299479
 20
1102.261605
 30
0.0
 10
785.526465
 20
991.803480
 30
0.0
  0
SPLINE
  5
131
100
AcDbEntity
  8
0
 62
7
100
AcDbSpline
 70
8
 71
3
 72
8
 73
4
 74
0
 40
0
 40
0
 40
0
 40
0
 40
1
 40
1
 40
1
 40
1
 10
1067.795400
 20
1017.811755
 30
0.0
 10
1135.503997
 20
1065.688778
 30
0.0
 10
1178.852342
 20
1140.813753
 30
0.0
 10
1186.419405
 20
1223.393430
 30
0.0
  0
LWPOLYLINE
  5
132
100
AcDbEntity
  8
0
 62
7
100
AcDbPolyline
 90
4
 70
0
 10
1022.877690
 20
991.863480
 30
0.0
 10
959.098165
 20
1102.332855
 30
0.0
 10
1004.022382
 20
1128.269880
 30
0.0
 10
1067.795400
 20
1017.811755
 30
0.0
  0
SPLINE
  5
133
100
AcDbEntity
  8
0
 62
7
100
AcDbSpline
 70
8
 71
3
 72
8
 73
4
 74
0
 40
0
 40
0
 40
0
 40
0
 40
1
 40
1
 40
1
 40
1
 10
2666.904450
 20
2563.533975
 30
0.0
 10
2666.904450
 20
2868.363105
 30
0.0
 10
2504.280045
 20
3150.036836
 30
0.0
 10
2240.290275
 20
3302.451401
 30
0.0
  0
SPLINE
  5
134
100
AcDbEntity
  8
0
 62
7
100
AcDbSpline
 70
8
 71
3
 72
8
 73
4
 74
0
 40
0
 40
0
 40
0
 40
0
 40
1
 40
1
 40
1
 40
1
 10
2240.290275
 20
3302.451401
 30
0.0
 10
1976.300505
 20
3454.865966
 30
0.0
 10
1651.051695
 20
3454.865966
 30
0.0
 10
1387.061925
 20
3302.451401
 30
0.0
  0
SPLINE
  5
135
100
AcDbEntity
  8
0
 62
7
100
AcDbSpline
 70
8
 71
3
 72
8
 73
4
 74
0
 40
0
 40
0
 40
0
 40
0
 40
1
 40
1
 40
1
 40
1
 10
1387.061925
 20
3302.451401
 30
0.0
 10
1123.072155
 20
3150.036836
 30
0.0
 10
960.447750
 20
2868.363105
 30
0.0
 10
960.447750
 20
2563.533975
 30
0.0
  0
SPLINE
  5
136
100
AcDbEntity
  8
0
 62
7
100
AcDbSpline
 70
8
 71
3
 72
8
 73
4
 74
0
 40
0
 40
0
 40
0
 40
0
 40
1
 40
1
 40
1
 40
1
 10
960.447750
 20
2563.533975
 30
0.0
 10
960.447750
 20
2258.704845
 30
0.0
 10
1123.072155
 20
1977.031114
 30
0.0
 10
1387.061925
 20
1824.616549
 30
0.0
  0
SPLINE
  5
137
100
AcDbEntity
  8
0
 62
7
100
AcDbSpline
 70
8
 71
3
 72
8
 73
4
 74
0
 40
0
 40
0
 40
0
 40
0
 40
1
 40
1
 40
1
 40
1
 10
1387.061925
 20
1824.616549
 30
0.0
 10
1651.051695
 20
1672.201984
 30
0.0
 10
1976.300505
 20
1672.201984
 30
0.0
 10
2240.290275
 20
1824.616549
 30
0.0
  0
SPLINE
  5
138
100
AcDbEntity
  8
0
 62
7
100
AcDbSpline
 70
8
 71
3
 72
8
 73
4
 74
0
 40
0
 40
0
 40
0
 40
0
 40
1
 40
1
 40
1
 40
1
 10
2240.290275
 20
1824.616549
 30
0.0
 10
2504.280045
 20
1977.031114
 30
0.0
 10
2666.904450
 20
2258.704845
 30
0.0
 10
2666.904450
 20
2563.533975
 30
0.0
  0
LWPOLYLINE
  5
139
100
AcDbEntity
  8
0
 62
7
100
AcDbPolyline
 90
3
 70
0
 10
1186.419405
 20
1223.393430
 30
0.0
 10
1058.860350
 20
1223.393430
 30
0.0
 10
1058.860350
 20
1275.267480
 30
0.0
  0
LWPOLYLINE
  5
13a
100
AcDbEntity
  8
0
 62
7
100
AcDbPolyline
 90
1
 70
1
 10
2666.904450
 20
2563.533975
 30
0.0
  0
LWPOLYLINE
  5
13b
100
AcDbEntity
  8
0
 62
7
100
AcDbPolyline
 90
4
 70
1
 10
2529.282397
 20
2589.541875
 30
0.0
 10
2614.605225
 20
2589.541875
 30
0.0
 10
2614.605225
 20
2537.526075
 30
0.0
 10
2529.282397
 20
2537.526075
 30
0.0
  0
LWPOLYLINE
  5
13c
100
AcDbEntity
  8
0
 62
7
100
AcDbPolyline
 90
4
 70
1
 10
2191.617187
 20
3270.162900
 30
0.0
 10
2236.664145
 20
3244.155023
 30
0.0
 10
2194.002727
 20
3170.263283
 30
0.0
 10
2148.955770
 20
3196.271160
 30
0.0
  0
LWPOLYLINE
  5
13d
100
AcDbEntity
  8
0
 62
7
100
AcDbPolyline
 90
4
 70
1
 10
1390.688055
 20
3244.155023
 30
0.0
 10
1435.735012
 20
3270.162900
 30
0.0
 10
1478.396430
 20
3196.271160
 30
0.0
 10
1433.349472
 20
3170.263283
 30
0.0
  0
LWPOLYLINE
  5
13e
100
AcDbEntity
  8
0
 62
7
100
AcDbPolyline
 90
4
 70
1
 10
1012.746975
 20
2537.526075
 30
0.0
 10
1012.746975
 20
2589.541875
 30
0.0
 10
1098.069802
 20
2589.541875
 30
0.0
 10
1098.069802
 20
2537.526075
 30
0.0
  0
LWPOLYLINE
  5
13f
100
AcDbEntity
  8
0
 62
7
100
AcDbPolyline
 90
4
 70
1
 10
1435.735012
 20
1856.905050
 30
0.0
 10
1390.688055
 20
1882.912950
 30
0.0
 10
1433.349472
 20
1956.804675
 30
0.0
 10
1478.396430
 20
1930.796850
 30
0.0
  0
LWPOLYLINE
  5
140
100
AcDbEntity
  8
0
 62
7
100
AcDbPolyline
 90
4
 70
1
 10
2236.664145
 20
1882.912950
 30
0.0
 10
2191.617187
 20
1856.905050
 30
0.0
 10
2148.955770
 20
1930.796850
 30
0.0
 10
2194.002727
 20
1956.804675
 30
0.0
  0
SPLINE
  5
141
100
AcDbEntity
  8
0
 62
7
100
AcDbSpline
 70
8
 71
3
 72
8
 73
4
 74
0
 40
0
 40
0
 40
0
 40
0
 40
1
 40
1
 40
1
 40
1
 10
1733.864625
 20
945.191025
 30
0.0
 10
1733.864625
 20
1250.020155
 30
0.0
 10
1571.240220
 20
1531.693886
 30
0.0
 10
1307.250450
 20
1684.108451
 30
0.0
  0
SPLINE
  5
142
100
AcDbEntity
  8
0
 62
7
100
AcDbSpline
 70
8
 71
3
 72
8
 73
4
 74
0
 40
0
 40
0
 40
0
 40
0
 40
1
 40
1
 40
1
 40
1
 10
1307.250450
 20
1684.108451
 30
0.0
 10
1043.260680
 20
1836.523016
 30
0.0
 10
718.011870
 20
1836.523016
 30
0.0
 10
454.022100
 20
1684.108451
 30
0.0
  0
SPLINE
  5
143
100
AcDbEntity
  8
0
 62
7
100
AcDbSpline
 70
8
 71
3
 72
8
 73
4
 74
0
 40
0
 40
0
 40
0
 40
0
 40
1
 40
1
 40
1
 40
1
 10
454.022100
 20
1684.108451
 30
0.0
 10
190.032330
 20
1531.693886
 30
0.0
 10
27.407925
 20
1250.020155
 30
0.0
 10
27.407925
 20
945.191025
 30
0.0
  0
SPLINE
  5
144
100
AcDbEntity
  8
0
 62
7
100
AcDbSpline
 70
8
 71
3
 72
8
 73
4
 74
0
 40
0
 40
0
 40
0
 40
0
 40
1
 40
1
 40
1
 40
1
 10
27.407925
 20
945.191025
 30
0.0
 10
27.407925
 20
640.361895
 30
0.0
 10
190.032330
 20
358.688164
 30
0.0
 10
454.022100
 20
206.273599
 30
0.0
  0
SPLINE
  5
145
100
AcDbEntity
  8
0
 62
7
100
AcDbSpline
 70
8
 71
3
 72
8
 73
4
 74
0
 40
0
 40
0
 40
0
 40
0
 40
1
 40
1
 40
1
 40
1
 10
454.022100
 20
206.273599
 30
0.0
 10
718.011870
 20
53.859034
 30
0.0
 10
1043.260680
 20
53.859034
 30
0.0
 10
1307.250450
 20
206.273599
 30
0.0
  0
SPLINE
  5
146
100
AcDbEntity
  8
0
 62
7
100
AcDbSpline
 70
8
 71
3
 72
8
 73
4
 74
0
 40
0
 40
0
 40
0
 40
0
 40
1
 40
1
 40
1
 40
1
 10
1307.250450
 20
206.273599
 30
0.0
 10
1571.240220
 20
358.688164
 30
0.0
 10
1733.864625
 20
640.361895
 30
0.0
 10
1733.864625
 20
945.191025
 30
0.0
  0
LWPOLYLINE
  5
147
100
AcDbEntity
  8
0
 62
7
100
AcDbPolyline
 90
4
 70
1
 10
545.190780
 20
1577.931967
 30
0.0
 10
500.389305
 20
1552.065825
 30
0.0
 10
457.869622
 20
1625.712082
 30
0.0
 10
502.671090
 20
1651.578217
 30
0.0
  0
SPLINE
  5
148
100
AcDbEntity
  8
0
 62
7
100
AcDbSpline
 70
8
 71
3
 72
8
 73
4
 74
0
 40
0
 40
0
 40
0
 40
0
 40
1
 40
1
 40
1
 40
1
 10
1549.612650
 20
945.191025
 30
0.0
 10
1549.612650
 20
1184.193264
 30
0.0
 10
1422.106473
 20
1405.040441
 30
0.0
 10
1215.124462
 20
1524.541560
 30
0.0
  0
SPLINE
  5
149
100
AcDbEntity
  8
0
 62
7
100
AcDbSpline
 70
8
 71
3
 72
8
 73
4
 74
0
 40
0
 40
0
 40
0
 40
0
 40
1
 40
1
 40
1
 40
1
 10
1215.124462
 20
1524.541560
 30
0.0
 10
1008.142452
 20
1644.042680
 30
0.0
 10
753.130098
 20
1644.042680
 30
0.0
 10
546.148087
 20
1524.541560
 30
0.0
  0
SPLINE
  5
14a
100
AcDbEntity
  8
0
 62
7
100
AcDbSpline
 70
8
 71
3
 72
8
 73
4
 74
0
 40
0
 40
0
 40
0
 40
0
 40
1
 40
1
 40
1
 40
1
 10
546.148087
 20
1524.541560
 30
0.0
 10
339.166077
 20
1405.040441
 30
0.0
 10
211.659900
 20
1184.193264
 30
0.0
 10
211.659900
 20
945.191025
 30
0.0
  0
SPLINE
  5
14b
100
AcDbEntity
  8
0
 62
7
100
AcDbSpline
 70
8
 71
3
 72
8
 73
4
 74
0
 40
0
 40
0
 40
0
 40
0
 40
1
 40
1
 40
1
 40
1
 10
211.659900
 20
945.191025
 30
0.0
 10
211.659900
 20
706.188786
 30
0.0
 10
339.166077
 20
485.341609
 30
0.0
 10
546.148087
 20
365.840490
 30
0.0
  0
SPLINE
  5
14c
100
AcDbEntity
  8
0
 62
7
100
AcDbSpline
 70
8
 71
3
 72
8
 73
4
 74
0
 40
0
 40
0
 40
0
 40
0
 40
1
 40
1
 40
1
 40
1
 10
546.148087
 20
365.840490
 30
0.0
 10
753.130098
 20
246.339370
 30
0.0
 10
1008.142452
 20
246.339370
 30
0.0
 10
1215.124462
 20
365.840490
 30
0.0
  0
SPLINE
  5
14d
100
AcDbEntity
  8
0
 62
7
100
AcDbSpline
 70
8
 71
3
 72
8
 73
4
 74
0
 40
0
 40
0
 40
0
 40
0
 40
1
 40
1
 40
1
 40
1
 10
1215.124462
 20
365.840490
 30
0.0
 10
1422.106473
 20
485.341609
 30
0.0
 10
1549.612650
 20
706.188786
 30
0.0
 10
1549.612650
 20
945.191025
 30
0.0
  0
LWPOLYLINE
  5
14e
100
AcDbEntity
  8
0
 62
7
100
AcDbPolyline
 90
1
 70
1
 10
1733.864625
 20
945.191025
 30
0.0
  0
LWPOLYLINE
  5
14f
100
AcDbEntity
  8
0
 62
7
100
AcDbPolyline
 90
1
 70
1
 10
1549.612650
 20
945.191025
 30
0.0
  0
LWPOLYLINE
  5
150
100
AcDbEntity
  8
0
 62
7
100
AcDbPolyline
 90
4
 70
1
 10
79.833600
 20
971.128050
 30
0.0
 10
165.014670
 20
971.128050
 30
0.0
 10
165.014670
 20
919.254000
 30
0.0
 10
79.833600
 20
919.254000
 30
0.0
  0
LWPOLYLINE
  5
151
100
AcDbEntity
  8
0
 62
7
100
AcDbPolyline
 90
4
 70
1
 10
502.697032
 20
238.707075
 30
0.0
 10
545.287582
 20
312.476025
 30
0.0
 10
500.363362
 20
338.413050
 30
0.0
 10
457.772812
 20
264.644025
 30
0.0
  0
LWPOLYLINE
  5
152
100
AcDbEntity
  8
0
 62
7
100
AcDbPolyline
 90
4
 70
1
 10
1303.499737
 20
264.644025
 30
0.0
 10
1260.909187
 20
338.413050
 30
0.0
 10
1215.984967
 20
312.476025
 30
0.0
 10
1258.575517
 20
238.707075
 30
0.0
  0
LWPOLYLINE
  5
153
100
AcDbEntity
  8
0
 62
7
100
AcDbPolyline
 90
4
 70
1
 10
1681.438950
 20
971.128050
 30
0.0
 10
1596.257880
 20
971.128050
 30
0.0
 10
1596.257880
 20
919.254000
 30
0.0
 10
1681.438950
 20
919.254000
 30
0.0
  0
LWPOLYLINE
  5
154
100
AcDbEntity
  8
0
 62
7
100
AcDbPolyline
 90
4
 70
1
 10
1258.575517
 20
1651.675027
 30
0.0
 10
1215.984967
 20
1577.906025
 30
0.0
 10
1260.909187
 20
1551.969022
 30
0.0
 10
1303.499737
 20
1625.738017
 30
0.0
  0
LWPOLYLINE
  5
155
100
AcDbEntity
  8
0
 62
7
100
AcDbPolyline
 90
4
 70
1
 10
457.772812
 20
1625.738017
 30
0.0
 10
500.363362
 20
1551.969022
 30
0.0
 10
545.287582
 20
1577.906025
 30
0.0
 10
502.697032
 20
1651.675027
 30
0.0
  0
SPLINE
  5
156
100
AcDbEntity
  8
0
 62
7
100
AcDbSpline
 70
8
 71
3
 72
8
 73
4
 74
0
 40
0
 40
0
 40
0
 40
0
 40
1
 40
1
 40
1
 40
1
 10
1783.550550
 20
1534.034625
 30
0.0
 10
2100.399093
 20
1217.186033
 30
0.0
 10
2114.106022
 20
707.862057
 30
0.0
 10
1814.757825
 20
374.430375
 30
0.0
  0
LWPOLYLINE
  5
157
100
AcDbEntity
  8
0
 62
7
100
AcDbPolyline
 90
4
 70
1
 10
2796.219900
 20
5483.799900
 30
0.0
 10
-37.674300
 20
5483.799900
 30
0.0
 10
-37.674300
 20
-184.739625
 30
0.0
 10
2796.219900
 20
-184.739625
 30
0.0
  0
SPLINE
  5
158
100
AcDbEntity
  8
0
 62
7
100
AcDbSpline
 70
8
 71
3
 72
8
 73
4
 74
0
 40
0
 40
0
 40
0
 40
0
 40
1
 40
1
 40
1
 40
1
 10
1723.905225
 20
465.175425
 30
0.0
 10
1723.905225
 20
465.175425
 30
0.0
 10
1694.225325
 20
494.855250
 30
0.0
 10
1694.225325
 20
494.855250
 30
0.0
  0
SPLINE
  5
159
100
AcDbEntity
  8
0
 62
7
100
AcDbSpline
 70
8
 71
3
 72
8
 73
4
 74
0
 40
0
 40
0
 40
0
 40
0
 40
1
 40
1
 40
1
 40
1
 10
1694.225325
 20
494.855250
 30
0.0
 10
1927.274793
 20
761.597526
 30
0.0
 10
1913.749762
 20
1163.307703
 30
0.0
 10
1663.286700
 20
1413.770775
 30
0.0
  0
LWPOLYLINE
  5
15a
100
AcDbEntity
  8
0
 62
7
100
AcDbPolyline
 90
5
 70
0
 10
1814.757825
 20
374.430375
 30
0.0
 10
1760.539275
 20
428.648925
 30
0.0
 10
1837.908975
 20
506.018625
 30
0.0
 10
1801.328700
 20
542.598900
 30
0.0
 10
1723.905225
 20
465.175425
 30
0.0
  0
SPLINE
  5
15b
100
AcDbEntity
  8
0
 62
7
100
AcDbSpline
 70
8
 71
3
 72
8
 73
4
 74
0
 40
0
 40
0
 40
0
 40
0
 40
1
 40
1
 40
1
 40
1
 10
2648.891400
 20
977.561325
 30
0.0
 10
2733.189417
 20
537.470575
 30
0.0
 10
2458.569293
 20
108.305605
 30
0.0
 10
2023.649550
 20
0.459225
 30
0.0
  0
LWPOLYLINE
  5
15c
100
AcDbEntity
  8
0
 62
7
100
AcDbPolyline
 90
6
 70
0
 10
1663.286700
 20
1413.770775
 30
0.0
 10
1693.352700
 20
1443.836775
 30
0.0
 10
1533.000900
 20
1604.188575
 30
0.0
 10
1593.132750
 20
1664.320500
 30
0.0
 10
1753.484625
 20
1503.968700
 30
0.0
 10
1783.550550
 20
1534.034625
 30
0.0
  0
SPLINE
  5
15d
100
AcDbEntity
  8
0
 62
7
100
AcDbSpline
 70
8
 71
3
 72
8
 73
4
 74
0
 40
0
 40
0
 40
0
 40
0
 40
1
 40
1
 40
1
 40
1
 10
1991.521275
 20
167.785275
 30
0.0
 10
2334.135246
 20
257.669485
 30
0.0
 10
2548.485549
 20
597.681180
 30
0.0
 10
2481.849450
 20
945.564975
 30
0.0
  0
LWPOLYLINE
  5
15e
100
AcDbEntity
  8
0
 62
7
100
AcDbPolyline
 90
6
 70
0
 10
2023.649550
 20
0.459225
 30
0.0
 10
2009.224650
 20
75.766800
 30
0.0
 10
2116.688175
 20
96.351075
 30
0.0
 10
2106.955950
 20
147.159675
 30
0.0
 10
1999.417650
 20
126.561150
 30
0.0
 10
1991.521275
 20
167.785275
 30
0.0
  0
SPLINE
  5
15f
100
AcDbEntity
  8
0
 62
7
100
AcDbSpline
 70
8
 71
3
 72
8
 73
4
 74
0
 40
0
 40
0
 40
0
 40
0
 40
1
 40
1
 40
1
 40
1
 10
2270.765775
 20
1458.807600
 30
0.0
 10
2514.632370
 20
1082.888522
 30
0.0
 10
2421.903316
 20
581.889342
 30
0.0
 10
2059.644750
 20
318.156900
 30
0.0
  0
LWPOLYLINE
  5
160
100
AcDbEntity
  8
0
 62
7
100
AcDbPolyline
 90
6
 70
0
 10
2481.849450
 20
945.564975
 30
0.0
 10
2523.609975
 20
953.564025
 30
0.0
 10
2480.948175
 20
1176.286725
 30
0.0
 10
2564.469150
 20
1192.284900
 30
0.0
 10
2607.130950
 20
969.562200
 30
0.0
 10
2648.891400
 20
977.561325
 30
0.0
  0
SPLINE
  5
161
100
AcDbEntity
  8
0
 62
7
100
AcDbSpline
 70
8
 71
3
 72
8
 73
4
 74
0
 40
0
 40
0
 40
0
 40
0
 40
1
 40
1
 40
1
 40
1
 10
1989.696450
 20
425.842050
 30
0.0
 10
1989.696450
 20
425.842050
 30
0.0
 10
1966.852950
 20
461.055225
 30
0.0
 10
1966.852950
 20
461.055225
 30
0.0
  0
SPLINE
  5
162
100
AcDbEntity
  8
0
 62
7
100
AcDbSpline
 70
8
 71
3
 72
8
 73
4
 74
0
 40
0
 40
0
 40
0
 40
0
 40
1
 40
1
 40
1
 40
1
 10
1966.852950
 20
461.055225
 30
0.0
 10
2250.371160
 20
673.377925
 30
0.0
 10
2320.853057
 20
1069.087803
 30
0.0
 10
2128.080900
 20
1366.245000
 30
0.0
  0
LWPOLYLINE
  5
163
100
AcDbEntity
  8
0
 62
7
100
AcDbPolyline
 90
5
 70
0
 10
2059.644750
 20
318.156900
 30
0.0
 10
2017.914675
 20
382.483575
 30
0.0
 10
2109.708525
 20
442.032075
 30
0.0
 10
2081.554050
 20
485.432100
 30
0.0
 10
1989.696450
 20
425.842050
 30
0.0
  0
SPLINE
  5
164
100
AcDbEntity
  8
0
 62
7
100
AcDbSpline
 70
8
 71
3
 72
8
 73
4
 74
0
 40
0
 40
0
 40
0
 40
0
 40
1
 40
1
 40
1
 40
1
 10
896.611950
 20
3125.800305
 30
0.0
 10
579.763412
 20
2808.951714
 30
0.0
 10
566.056483
 20
2299.627743
 30
0.0
 10
865.404675
 20
1966.196062
 30
0.0
  0
LWPOLYLINE
  5
165
100
AcDbEntity
  8
0
 62
7
100
AcDbPolyline
 90
6
 70
0
 10
2128.080900
 20
1366.245000
 30
0.0
 10
2163.752250
 20
1389.385575
 30
0.0
 10
2040.335325
 20
1579.632000
 30
0.0
 10
2111.677725
 20
1625.913300
 30
0.0
 10
2235.094500
 20
1435.666875
 30
0.0
 10
2270.765775
 20
1458.807600
 30
0.0
  0
SPLINE
  5
166
100
AcDbEntity
  8
0
 62
7
100
AcDbSpline
 70
8
 71
3
 72
8
 73
4
 74
0
 40
0
 40
0
 40
0
 40
0
 40
1
 40
1
 40
1
 40
1
 10
985.937175
 20
2086.620937
 30
0.0
 10
752.887712
 20
2353.363212
 30
0.0
 10
766.412742
 20
2755.073384
 30
0.0
 10
1016.875800
 20
3005.536455
 30
0.0
  0
LWPOLYLINE
  5
167
100
AcDbEntity
  8
0
 62
7
100
AcDbPolyline
 90
6
 70
0
 10
865.404675
 20
1966.196062
 30
0.0
 10
919.623225
 20
2020.414612
 30
0.0
 10
842.253525
 20
2097.784312
 30
0.0
 10
878.833800
 20
2134.364587
 30
0.0
 10
956.257275
 20
2056.941112
 30
0.0
 10
985.937175
 20
2086.620937
 30
0.0
  0
SPLINE
  5
168
100
AcDbEntity
  8
0
 62
7
100
AcDbSpline
 70
8
 71
3
 72
8
 73
4
 74
0
 40
0
 40
0
 40
0
 40
0
 40
1
 40
1
 40
1
 40
1
 10
247.357950
 20
3075.857715
 30
0.0
 10
-69.490597
 20
2759.009122
 30
0.0
 10
-83.197527
 20
2249.685140
 30
0.0
 10
216.150675
 20
1916.253457
 30
0.0
  0
LWPOLYLINE
  5
169
100
AcDbEntity
  8
0
 62
7
100
AcDbPolyline
 90
6
 70
0
 10
1016.875800
 20
3005.536455
 30
0.0
 10
986.809800
 20
3035.602455
 30
0.0
 10
1147.161600
 20
3195.954262
 30
0.0
 10
1087.029750
 20
3256.086188
 30
0.0
 10
926.677875
 20
3095.734380
 30
0.0
 10
896.611950
 20
3125.800305
 30
0.0
  0
SPLINE
  5
16a
100
AcDbEntity
  8
0
 62
7
100
AcDbSpline
 70
8
 71
3
 72
8
 73
4
 74
0
 40
0
 40
0
 40
0
 40
0
 40
1
 40
1
 40
1
 40
1
 10
307.003275
 20
2006.998507
 30
0.0
 10
307.003275
 20
2006.998507
 30
0.0
 10
336.683175
 20
2036.678332
 30
0.0
 10
336.683175
 20
2036.678332
 30
0.0
  0
SPLINE
  5
16b
100
AcDbEntity
  8
0
 62
7
100
AcDbSpline
 70
8
 71
3
 72
8
 73
4
 74
0
 40
0
 40
0
 40
0
 40
0
 40
1
 40
1
 40
1
 40
1
 10
336.683175
 20
2036.678332
 30
0.0
 10
103.633702
 20
2303.420609
 30
0.0
 10
117.158733
 20
2705.130792
 30
0.0
 10
367.621800
 20
2955.593865
 30
0.0
  0
LWPOLYLINE
  5
16c
100
AcDbEntity
  8
0
 62
7
100
AcDbPolyline
 90
5
 70
0
 10
216.150675
 20
1916.253457
 30
0.0
 10
270.369225
 20
1970.472007
 30
0.0
 10
192.999525
 20
2047.841707
 30
0.0
 10
229.579800
 20
2084.421983
 30
0.0
 10
307.003275
 20
2006.998507
 30
0.0
  0
SPLINE
  5
16d
100
AcDbEntity
  8
0
 62
7
100
AcDbSpline
 70
8
 71
3
 72
8
 73
4
 74
0
 40
0
 40
0
 40
0
 40
0
 40
1
 40
1
 40
1
 40
1
 10
1718.821350
 20
1924.240387
 30
0.0
 10
1483.903650
 20
1963.537035
 30
0.0
 10
1288.988100
 20
2136.354818
 30
0.0
 10
1217.826150
 20
2368.438148
 30
0.0
  0
SPLINE
  5
16e
100
AcDbEntity
  8
0
 62
7
100
AcDbSpline
 70
8
 71
3
 72
8
 73
4
 74
0
 40
0
 40
0
 40
0
 40
0
 40
1
 40
1
 40
1
 40
1
 10
1217.826150
 20
2368.438148
 30
0.0
 10
1200.926025
 20
2423.555722
 30
0.0
 10
1199.642400
 20
2435.881028
 30
0.0
 10
1199.642400
 20
2543.054776
 30
0.0
  0
SPLINE
  5
16f
100
AcDbEntity
  8
0
 62
7
100
AcDbSpline
 70
8
 71
3
 72
8
 73
4
 74
0
 40
0
 40
0
 40
0
 40
0
 40
1
 40
1
 40
1
 40
1
 10
1199.642400
 20
2543.054776
 30
0.0
 10
1199.642400
 20
2649.736350
 30
0.0
 10
1200.976950
 20
2662.702133
 30
0.0
 10
1217.473125
 20
2716.276478
 30
0.0
  0
SPLINE
  5
170
100
AcDbEntity
  8
0
 62
7
100
AcDbSpline
 70
8
 71
3
 72
8
 73
4
 74
0
 40
0
 40
0
 40
0
 40
0
 40
1
 40
1
 40
1
 40
1
 10
1217.473125
 20
2716.276478
 30
0.0
 10
1238.687325
 20
2785.175610
 30
0.0
 10
1272.382500
 20
2854.490520
 30
0.0
 10
1311.041925
 20
2908.761368
 30
0.0
  0
SPLINE
  5
171
100
AcDbEntity
  8
0
 62
7
100
AcDbSpline
 70
8
 71
3
 72
8
 73
4
 74
0
 40
0
 40
0
 40
0
 40
0
 40
1
 40
1
 40
1
 40
1
 10
1311.041925
 20
2908.761368
 30
0.0
 10
1343.293350
 20
2954.035845
 30
0.0
 10
1422.225300
 20
3031.928715
 30
0.0
 10
1465.840500
 20
3061.521953
 30
0.0
  0
SPLINE
  5
172
100
AcDbEntity
  8
0
 62
7
100
AcDbSpline
 70
8
 71
3
 72
8
 73
4
 74
0
 40
0
 40
0
 40
0
 40
0
 40
1
 40
1
 40
1
 40
1
 10
1465.840500
 20
3061.521953
 30
0.0
 10
1529.781225
 20
3104.906610
 30
0.0
 10
1643.268300
 20
3153.214808
 30
0.0
 10
1668.373500
 20
3147.735120
 30
0.0
  0
SPLINE
  5
173
100
AcDbEntity
  8
0
 62
7
100
AcDbSpline
 70
8
 71
3
 72
8
 73
4
 74
0
 40
0
 40
0
 40
0
 40
0
 40
1
 40
1
 40
1
 40
1
 10
1668.373500
 20
3147.735120
 30
0.0
 10
1674.864525
 20
3146.318438
 30
0.0
 10
1663.223400
 20
3140.186422
 30
0.0
 10
1641.999750
 20
3133.841580
 30
0.0
  0
SPLINE
  5
174
100
AcDbEntity
  8
0
 62
7
100
AcDbSpline
 70
8
 71
3
 72
8
 73
4
 74
0
 40
0
 40
0
 40
0
 40
0
 40
1
 40
1
 40
1
 40
1
 10
1641.999750
 20
3133.841580
 30
0.0
 10
1538.168700
 20
3102.804615
 30
0.0
 10
1413.956400
 20
3019.045297
 30
0.0
 10
1342.258725
 20
2931.719820
 30
0.0
  0
SPLINE
  5
175
100
AcDbEntity
  8
0
 62
7
100
AcDbSpline
 70
8
 71
3
 72
8
 73
4
 74
0
 40
0
 40
0
 40
0
 40
0
 40
1
 40
1
 40
1
 40
1
 10
1342.258725
 20
2931.719820
 30
0.0
 10
1244.596125
 20
2812.770307
 30
0.0
 10
1190.522850
 20
2629.635645
 30
0.0
 10
1208.812725
 20
2479.767801
 30
0.0
  0
SPLINE
  5
176
100
AcDbEntity
  8
0
 62
7
100
AcDbSpline
 70
8
 71
3
 72
8
 73
4
 74
0
 40
0
 40
0
 40
0
 40
0
 40
1
 40
1
 40
1
 40
1
 10
1208.812725
 20
2479.767801
 30
0.0
 10
1230.348450
 20
2303.306123
 30
0.0
 10
1312.796700
 20
2156.895007
 30
0.0
 10
1448.371725
 20
2054.362080
 30
0.0
  0
SPLINE
  5
177
100
AcDbEntity
  8
0
 62
7
100
AcDbSpline
 70
8
 71
3
 72
8
 73
4
 74
0
 40
0
 40
0
 40
0
 40
0
 40
1
 40
1
 40
1
 40
1
 10
1448.371725
 20
2054.362080
 30
0.0
 10
1545.228525
 20
1981.110720
 30
0.0
 10
1656.061200
 20
1939.091370
 30
0.0
 10
1770.596025
 20
1932.198945
 30
0.0
  0
LWPOLYLINE
  5
178
100
AcDbEntity
  8
0
 62
7
100
AcDbPolyline
 90
6
 70
0
 10
367.621800
 20
2955.593865
 30
0.0
 10
337.555800
 20
2985.659865
 30
0.0
 10
497.907600
 20
3146.011687
 30
0.0
 10
437.775750
 20
3206.143575
 30
0.0
 10
277.423875
 20
3045.791767
 30
0.0
 10
247.357950
 20
3075.857715
 30
0.0
  0
SPLINE
  5
179
100
AcDbEntity
  8
0
 62
7
100
AcDbSpline
 70
8
 71
3
 72
8
 73
4
 74
0
 40
0
 40
0
 40
0
 40
0
 40
1
 40
1
 40
1
 40
1
 10
1777.185225
 20
1971.699877
 30
0.0
 10
1573.097925
 20
1985.383222
 30
0.0
 10
1389.260850
 20
2112.347993
 30
0.0
 10
1301.569125
 20
2300.178180
 30
0.0
  0
SPLINE
  5
17a
100
AcDbEntity
  8
0
 62
7
100
AcDbSpline
 70
8
 71
3
 72
8
 73
4
 74
0
 40
0
 40
0
 40
0
 40
0
 40
1
 40
1
 40
1
 40
1
 10
1301.569125
 20
2300.178180
 30
0.0
 10
1264.968150
 20
2378.575140
 30
0.0
 10
1254.499725
 20
2422.939620
 30
0.0
 10
1250.363625
 20
2517.181207
 30
0.0
  0
SPLINE
  5
17b
100
AcDbEntity
  8
0
 62
7
100
AcDbSpline
 70
8
 71
3
 72
8
 73
4
 74
0
 40
0
 40
0
 40
0
 40
0
 40
1
 40
1
 40
1
 40
1
 10
1250.363625
 20
2517.181207
 30
0.0
 10
1243.180500
 20
2680.880692
 30
0.0
 10
1291.712925
 20
2816.448465
 30
0.0
 10
1399.210200
 20
2932.959292
 30
0.0
  0
SPLINE
  5
17c
100
AcDbEntity
  8
0
 62
7
100
AcDbSpline
 70
8
 71
3
 72
8
 73
4
 74
0
 40
0
 40
0
 40
0
 40
0
 40
1
 40
1
 40
1
 40
1
 10
1399.210200
 20
2932.959292
 30
0.0
 10
1472.557575
 20
3012.457320
 30
0.0
 10
1580.666625
 20
3077.078002
 30
0.0
 10
1679.164800
 20
3100.298693
 30
0.0
  0
SPLINE
  5
17d
100
AcDbEntity
  8
0
 62
7
100
AcDbSpline
 70
8
 71
3
 72
8
 73
4
 74
0
 40
0
 40
0
 40
0
 40
0
 40
1
 40
1
 40
1
 40
1
 10
1679.164800
 20
3100.298693
 30
0.0
 10
1725.259050
 20
3111.165802
 30
0.0
 10
1727.093325
 20
3112.330785
 30
0.0
 10
1724.041425
 20
3128.802735
 30
0.0
  0
SPLINE
  5
17e
100
AcDbEntity
  8
0
 62
7
100
AcDbSpline
 70
8
 71
3
 72
8
 73
4
 74
0
 40
0
 40
0
 40
0
 40
0
 40
1
 40
1
 40
1
 40
1
 10
1724.041425
 20
3128.802735
 30
0.0
 10
1722.291150
 20
3138.248505
 30
0.0
 10
1717.680600
 20
3148.038907
 30
0.0
 10
1713.795450
 20
3150.559980
 30
0.0
  0
SPLINE
  5
17f
100
AcDbEntity
  8
0
 62
7
100
AcDbSpline
 70
8
 71
3
 72
8
 73
4
 74
0
 40
0
 40
0
 40
0
 40
0
 40
1
 40
1
 40
1
 40
1
 10
1713.795450
 20
3150.559980
 30
0.0
 10
1696.234425
 20
3161.956178
 30
0.0
 10
1725.147675
 20
3165.712057
 30
0.0
 10
1827.169275
 20
3165.288390
 30
0.0
  0
SPLINE
  5
180
100
AcDbEntity
  8
0
 62
7
100
AcDbSpline
 70
8
 71
3
 72
8
 73
4
 74
0
 40
0
 40
0
 40
0
 40
0
 40
1
 40
1
 40
1
 40
1
 10
1827.169275
 20
3165.288390
 30
0.0
 10
1926.834375
 20
3164.873257
 30
0.0
 10
1942.324575
 20
3163.196933
 30
0.0
 10
1994.884875
 20
3147.123645
 30
0.0
  0
SPLINE
  5
181
100
AcDbEntity
  8
0
 62
7
100
AcDbSpline
 70
8
 71
3
 72
8
 73
4
 74
0
 40
0
 40
0
 40
0
 40
0
 40
1
 40
1
 40
1
 40
1
 10
1994.884875
 20
3147.123645
 30
0.0
 10
2100.873150
 20
3114.711510
 30
0.0
 10
2177.217525
 20
3070.126935
 30
0.0
 10
2255.629125
 20
2994.849997
 30
0.0
  0
SPLINE
  5
182
100
AcDbEntity
  8
0
 62
7
100
AcDbSpline
 70
8
 71
3
 72
8
 73
4
 74
0
 40
0
 40
0
 40
0
 40
0
 40
1
 40
1
 40
1
 40
1
 10
2255.629125
 20
2994.849997
 30
0.0
 10
2338.046175
 20
2915.728253
 30
0.0
 10
2391.375975
 20
2828.423880
 30
0.0
 10
2425.795950
 20
2716.276478
 30
0.0
  0
SPLINE
  5
183
100
AcDbEntity
  8
0
 62
7
100
AcDbSpline
 70
8
 71
3
 72
8
 73
4
 74
0
 40
0
 40
0
 40
0
 40
0
 40
1
 40
1
 40
1
 40
1
 10
2425.795950
 20
2716.276478
 30
0.0
 10
2442.032625
 20
2663.374883
 30
0.0
 10
2443.603575
 20
2648.682052
 30
0.0
 10
2443.961325
 20
2546.349432
 30
0.0
  0
SPLINE
  5
184
100
AcDbEntity
  8
0
 62
7
100
AcDbSpline
 70
8
 71
3
 72
8
 73
4
 74
0
 40
0
 40
0
 40
0
 40
0
 40
1
 40
1
 40
1
 40
1
 10
2443.961325
 20
2546.349432
 30
0.0
 10
2444.304075
 20
2448.486368
 30
0.0
 10
2442.441225
 20
2427.670080
 30
0.0
 10
2429.226975
 20
2381.616750
 30
0.0
  0
SPLINE
  5
185
100
AcDbEntity
  8
0
 62
7
100
AcDbSpline
 70
8
 71
3
 72
8
 73
4
 74
0
 40
0
 40
0
 40
0
 40
0
 40
1
 40
1
 40
1
 40
1
 10
2429.226975
 20
2381.616750
 30
0.0
 10
2371.044075
 20
2178.843337
 30
0.0
 10
2221.099125
 20
2018.695470
 30
0.0
 10
2027.661375
 20
1952.727270
 30
0.0
  0
SPLINE
  5
186
100
AcDbEntity
  8
0
 62
7
100
AcDbSpline
 70
8
 71
3
 72
8
 73
4
 74
0
 40
0
 40
0
 40
0
 40
0
 40
1
 40
1
 40
1
 40
1
 10
2027.661375
 20
1952.727270
 30
0.0
 10
1960.262550
 20
1929.741803
 30
0.0
 10
1889.292675
 20
1915.519432
 30
0.0
 10
1884.080250
 20
1923.953100
 30
0.0
  0
SPLINE
  5
187
100
AcDbEntity
  8
0
 62
7
100
AcDbSpline
 70
8
 71
3
 72
8
 73
4
 74
0
 40
0
 40
0
 40
0
 40
0
 40
1
 40
1
 40
1
 40
1
 10
1884.080250
 20
1923.953100
 30
0.0
 10
1882.396725
 20
1926.677100
 30
0.0
 10
1901.022900
 20
1932.369608
 30
0.0
 10
1925.471175
 20
1936.603245
 30
0.0
  0
SPLINE
  5
188
100
AcDbEntity
  8
0
 62
7
100
AcDbSpline
 70
8
 71
3
 72
8
 73
4
 74
0
 40
0
 40
0
 40
0
 40
0
 40
1
 40
1
 40
1
 40
1
 10
1925.471175
 20
1936.603245
 30
0.0
 10
2059.770375
 20
1959.860205
 30
0.0
 10
2198.039100
 20
2036.545245
 30
0.0
 10
2283.458175
 20
2135.145015
 30
0.0
  0
LWPOLYLINE
  5
189
100
AcDbEntity
  8
0
 62
7
100
AcDbPolyline
 90
5
 70
0
 10
1770.596025
 20
1932.198945
 30
0.0
 10
1834.841700
 20
1928.333010
 30
0.0
 10
1834.841700
 20
1948.083787
 30
0.0
 10
1834.841700
 20
1967.834587
 30
0.0
 10
1777.185225
 20
1971.699877
 30
0.0
  0
SPLINE
  5
18a
100
AcDbEntity
  8
0
 62
7
100
AcDbSpline
 70
8
 71
3
 72
8
 73
4
 74
0
 40
0
 40
0
 40
0
 40
0
 40
1
 40
1
 40
1
 40
1
 10
2272.061475
 20
2184.180015
 30
0.0
 10
2246.252925
 20
2155.222642
 30
0.0
 10
2250.696975
 20
2174.460780
 30
0.0
 10
2279.355300
 20
2215.753343
 30
0.0
  0
SPLINE
  5
18b
100
AcDbEntity
  8
0
 62
7
100
AcDbSpline
 70
8
 71
3
 72
8
 73
4
 74
0
 40
0
 40
0
 40
0
 40
0
 40
1
 40
1
 40
1
 40
1
 10
2279.355300
 20
2215.753343
 30
0.0
 10
2294.877525
 20
2238.120083
 30
0.0
 10
2312.483625
 20
2266.056765
 30
0.0
 10
2318.478675
 20
2277.835155
 30
0.0
  0
SPLINE
  5
18c
100
AcDbEntity
  8
0
 62
7
100
AcDbSpline
 70
8
 71
3
 72
8
 73
4
 74
0
 40
0
 40
0
 40
0
 40
0
 40
1
 40
1
 40
1
 40
1
 10
2318.478675
 20
2277.835155
 30
0.0
 10
2324.473425
 20
2289.613552
 30
0.0
 10
2332.327950
 20
2299.250415
 30
0.0
 10
2335.932300
 20
2299.250415
 30
0.0
  0
SPLINE
  5
18d
100
AcDbEntity
  8
0
 62
7
100
AcDbSpline
 70
8
 71
3
 72
8
 73
4
 74
0
 40
0
 40
0
 40
0
 40
0
 40
1
 40
1
 40
1
 40
1
 10
2335.932300
 20
2299.250415
 30
0.0
 10
2342.905725
 20
2299.250415
 30
0.0
 10
2322.307725
 20
2254.838475
 30
0.0
 10
2301.883875
 20
2225.837610
 30
0.0
  0
SPLINE
  5
18e
100
AcDbEntity
  8
0
 62
7
100
AcDbSpline
 70
8
 71
3
 72
8
 73
4
 74
0
 40
0
 40
0
 40
0
 40
0
 40
1
 40
1
 40
1
 40
1
 10
2301.883875
 20
2225.837610
 30
0.0
 10
2289.689250
 20
2208.520905
 30
0.0
 10
2289.712350
 20
2208.379252
 30
0.0
 10
2306.586825
 20
2197.323045
 30
0.0
  0
SPLINE
  5
18f
100
AcDbEntity
  8
0
 62
7
100
AcDbSpline
 70
8
 71
3
 72
8
 73
4
 74
0
 40
0
 40
0
 40
0
 40
0
 40
1
 40
1
 40
1
 40
1
 10
2306.586825
 20
2197.323045
 30
0.0
 10
2327.194275
 20
2183.820225
 30
0.0
 10
2328.967350
 20
2185.629653
 30
0.0
 10
2367.726975
 20
2259.714570
 30
0.0
  0
SPLINE
  5
190
100
AcDbEntity
  8
0
 62
7
100
AcDbSpline
 70
8
 71
3
 72
8
 73
4
 74
0
 40
0
 40
0
 40
0
 40
0
 40
1
 40
1
 40
1
 40
1
 10
2367.726975
 20
2259.714570
 30
0.0
 10
2527.851750
 20
2565.779335
 30
0.0
 10
2405.387550
 20
2940.575880
 30
0.0
 10
2094.476325
 20
3095.986005
 30
0.0
  0
SPLINE
  5
191
100
AcDbEntity
  8
0
 62
7
100
AcDbSpline
 70
8
 71
3
 72
8
 73
4
 74
0
 40
0
 40
0
 40
0
 40
0
 40
1
 40
1
 40
1
 40
1
 10
2094.476325
 20
3095.986005
 30
0.0
 10
2001.858375
 20
3142.281150
 30
0.0
 10
1873.717425
 20
3167.727757
 30
0.0
 10
1779.803925
 20
3158.473725
 30
0.0
  0
LWPOLYLINE
  5
192
100
AcDbEntity
  8
0
 62
7
100
AcDbPolyline
 90
5
 70
0
 10
2283.458175
 20
2135.145015
 30
0.0
 10
2317.229850
 20
2174.128013
 30
0.0
 10
2301.719325
 20
2187.091162
 30
0.0
 10
2286.209475
 20
2200.054312
 30
0.0
 10
2272.061475
 20
2184.180015
 30
0.0
  0
SPLINE
  5
193
100
AcDbEntity
  8
0
 62
7
100
AcDbSpline
 70
8
 71
3
 72
8
 73
4
 74
0
 40
0
 40
0
 40
0
 40
0
 40
1
 40
1
 40
1
 40
1
 10
1737.894675
 20
3128.813280
 30
0.0
 10
1741.624875
 20
3101.001135
 30
0.0
 10
1745.102700
 20
3103.505707
 30
0.0
 10
1683.291000
 20
3089.490930
 30
0.0
  0
SPLINE
  5
194
100
AcDbEntity
  8
0
 62
7
100
AcDbSpline
 70
8
 71
3
 72
8
 73
4
 74
0
 40
0
 40
0
 40
0
 40
0
 40
1
 40
1
 40
1
 40
1
 10
1683.291000
 20
3089.490930
 30
0.0
 10
1519.030200
 20
3052.248150
 30
0.0
 10
1361.830950
 20
2915.730225
 30
0.0
 10
1300.075950
 20
2756.691998
 30
0.0
  0
SPLINE
  5
195
100
AcDbEntity
  8
0
 62
7
100
AcDbSpline
 70
8
 71
3
 72
8
 73
4
 74
0
 40
0
 40
0
 40
0
 40
0
 40
1
 40
1
 40
1
 40
1
 10
1300.075950
 20
2756.691998
 30
0.0
 10
1268.402550
 20
2675.122957
 30
0.0
 10
1259.298750
 20
2626.245461
 30
0.0
 10
1259.669625
 20
2539.760132
 30
0.0
  0
SPLINE
  5
196
100
AcDbEntity
  8
0
 62
7
100
AcDbSpline
 70
8
 71
3
 72
8
 73
4
 74
0
 40
0
 40
0
 40
0
 40
0
 40
1
 40
1
 40
1
 40
1
 10
1259.669625
 20
2539.760132
 30
0.0
 10
1260.091350
 20
2440.709017
 30
0.0
 10
1274.759775
 20
2380.982213
 30
0.0
 10
1321.669875
 20
2287.265775
 30
0.0
  0
SPLINE
  5
197
100
AcDbEntity
  8
0
 62
7
100
AcDbSpline
 70
8
 71
3
 72
8
 73
4
 74
0
 40
0
 40
0
 40
0
 40
0
 40
1
 40
1
 40
1
 40
1
 10
1321.669875
 20
2287.265775
 30
0.0
 10
1376.706225
 20
2177.313292
 30
0.0
 10
1472.768550
 20
2084.876505
 30
0.0
 10
1586.700225
 20
2032.236502
 30
0.0
  0
SPLINE
  5
198
100
AcDbEntity
  8
0
 62
7
100
AcDbSpline
 70
8
 71
3
 72
8
 73
4
 74
0
 40
0
 40
0
 40
0
 40
0
 40
1
 40
1
 40
1
 40
1
 10
1586.700225
 20
2032.236502
 30
0.0
 10
1731.132150
 20
1965.505260
 30
0.0
 10
1912.194375
 20
1965.505260
 30
0.0
 10
2056.626075
 20
2032.236502
 30
0.0
  0
SPLINE
  5
199
100
AcDbEntity
  8
0
 62
7
100
AcDbSpline
 70
8
 71
3
 72
8
 73
4
 74
0
 40
0
 40
0
 40
0
 40
0
 40
1
 40
1
 40
1
 40
1
 10
2056.626075
 20
2032.236502
 30
0.0
 10
2108.933400
 20
2056.404112
 30
0.0
 10
2176.579650
 20
2101.714823
 30
0.0
 10
2203.344225
 20
2130.509437
 30
0.0
  0
SPLINE
  5
19a
100
AcDbEntity
  8
0
 62
7
100
AcDbSpline
 70
8
 71
3
 72
8
 73
4
 74
0
 40
0
 40
0
 40
0
 40
0
 40
1
 40
1
 40
1
 40
1
 10
2203.344225
 20
2130.509437
 30
0.0
 10
2212.130550
 20
2139.962460
 30
0.0
 10
2223.991200
 20
2147.574428
 30
0.0
 10
2229.701550
 20
2147.426175
 30
0.0
  0
SPLINE
  5
19b
100
AcDbEntity
  8
0
 62
7
100
AcDbSpline
 70
8
 71
3
 72
8
 73
4
 74
0
 40
0
 40
0
 40
0
 40
0
 40
1
 40
1
 40
1
 40
1
 10
2229.701550
 20
2147.426175
 30
0.0
 10
2252.862750
 20
2146.826542
 30
0.0
 10
2142.951975
 20
2061.618225
 30
0.0
 10
2074.083000
 20
2026.787137
 30
0.0
  0
SPLINE
  5
19c
100
AcDbEntity
  8
0
 62
7
100
AcDbSpline
 70
8
 71
3
 72
8
 73
4
 74
0
 40
0
 40
0
 40
0
 40
0
 40
1
 40
1
 40
1
 40
1
 10
2074.083000
 20
2026.787137
 30
0.0
 10
2029.159125
 20
2004.066555
 30
0.0
 10
1937.561175
 20
1977.814095
 30
0.0
 10
1884.100800
 20
1972.337055
 30
0.0
  0
SPLINE
  5
19d
100
AcDbEntity
  8
0
 62
7
100
AcDbSpline
 70
8
 71
3
 72
8
 73
4
 74
0
 40
0
 40
0
 40
0
 40
0
 40
1
 40
1
 40
1
 40
1
 10
1884.100800
 20
1972.337055
 30
0.0
 10
1842.558450
 20
1968.080370
 30
0.0
 10
1841.430975
 20
1967.466893
 30
0.0
 10
1841.430975
 20
1949.107110
 30
0.0
  0
SPLINE
  5
19e
100
AcDbEntity
  8
0
 62
7
100
AcDbSpline
 70
8
 71
3
 72
8
 73
4
 74
0
 40
0
 40
0
 40
0
 40
0
 40
1
 40
1
 40
1
 40
1
 10
1841.430975
 20
1949.107110
 30
0.0
 10
1841.430975
 20
1938.735547
 30
0.0
 10
1844.396400
 20
1930.249170
 30
0.0
 10
1848.020475
 20
1930.249170
 30
0.0
  0
SPLINE
  5
19f
100
AcDbEntity
  8
0
 62
7
100
AcDbSpline
 70
8
 71
3
 72
8
 73
4
 74
0
 40
0
 40
0
 40
0
 40
0
 40
1
 40
1
 40
1
 40
1
 10
1848.020475
 20
1930.249170
 30
0.0
 10
1851.644475
 20
1930.249170
 30
0.0
 10
1854.609750
 20
1927.283985
 30
0.0
 10
1854.609750
 20
1923.659865
 30
0.0
  0
SPLINE
  5
1a0
100
AcDbEntity
  8
0
 62
7
100
AcDbSpline
 70
8
 71
3
 72
8
 73
4
 74
0
 40
0
 40
0
 40
0
 40
0
 40
1
 40
1
 40
1
 40
1
 10
1854.609750
 20
1923.659865
 30
0.0
 10
1854.609750
 20
1915.762583
 30
0.0
 10
1767.269775
 20
1916.136195
 30
0.0
 10
1718.821350
 20
1924.239720
 30
0.0
  0
LWPOLYLINE
  5
1a1
100
AcDbEntity
  8
0
 62
7
100
AcDbPolyline
 90
3
 70
0
 10
1779.803925
 20
3158.473725
 30
0.0
 10
1734.515100
 20
3154.010783
 30
0.0
 10
1737.894675
 20
3128.813280
 30
0.0
  0
SPLINE
  5
1a2
100
AcDbEntity
  8
0
 62
7
100
AcDbSpline
 70
8
 71
3
 72
8
 73
4
 74
0
 40
0
 40
0
 40
0
 40
0
 40
1
 40
1
 40
1
 40
1
 10
1716.234225
 20
2032.069792
 30
0.0
 10
1554.442350
 20
2066.712428
 30
0.0
 10
1425.707175
 20
2167.462282
 30
0.0
 10
1353.790125
 20
2315.723685
 30
0.0
  0
SPLINE
  5
1a3
100
AcDbEntity
  8
0
 62
7
100
AcDbSpline
 70
8
 71
3
 72
8
 73
4
 74
0
 40
0
 40
0
 40
0
 40
0
 40
1
 40
1
 40
1
 40
1
 10
1353.790125
 20
2315.723685
 30
0.0
 10
1310.048250
 20
2405.900325
 30
0.0
 10
1298.545875
 20
2462.742330
 30
0.0
 10
1302.620700
 20
2568.589004
 30
0.0
  0
SPLINE
  5
1a4
100
AcDbEntity
  8
0
 62
7
100
AcDbSpline
 70
8
 71
3
 72
8
 73
4
 74
0
 40
0
 40
0
 40
0
 40
0
 40
1
 40
1
 40
1
 40
1
 10
1302.620700
 20
2568.589004
 30
0.0
 10
1305.212925
 20
2635.917907
 30
0.0
 10
1309.225950
 20
2661.828375
 30
0.0
 10
1323.670275
 20
2704.492830
 30
0.0
  0
SPLINE
  5
1a5
100
AcDbEntity
  8
0
 62
7
100
AcDbSpline
 70
8
 71
3
 72
8
 73
4
 74
0
 40
0
 40
0
 40
0
 40
0
 40
1
 40
1
 40
1
 40
1
 10
1323.670275
 20
2704.492830
 30
0.0
 10
1378.528725
 20
2866.531162
 30
0.0
 10
1496.213325
 20
2984.401357
 30
0.0
 10
1660.225275
 20
3041.578088
 30
0.0
  0
SPLINE
  5
1a6
100
AcDbEntity
  8
0
 62
7
100
AcDbSpline
 70
8
 71
3
 72
8
 73
4
 74
0
 40
0
 40
0
 40
0
 40
0
 40
1
 40
1
 40
1
 40
1
 10
1660.225275
 20
3041.578088
 30
0.0
 10
1709.550675
 20
3058.773555
 30
0.0
 10
1719.929100
 20
3059.966865
 30
0.0
 10
1821.663150
 20
3060.134227
 30
0.0
  0
SPLINE
  5
1a7
100
AcDbEntity
  8
0
 62
7
100
AcDbSpline
 70
8
 71
3
 72
8
 73
4
 74
0
 40
0
 40
0
 40
0
 40
0
 40
1
 40
1
 40
1
 40
1
 10
1821.663150
 20
3060.134227
 30
0.0
 10
1922.235975
 20
3060.298875
 30
0.0
 10
1934.008275
 20
3059.028555
 30
0.0
 10
1978.695600
 20
3043.175348
 30
0.0
  0
LWPOLYLINE
  5
1a8
100
AcDbEntity
  8
0
 62
7
100
AcDbPolyline
 90
2
 70
0
 10
1718.821350
 20
1924.239720
 30
0.0
 10
1718.821350
 20
1924.240387
 30
0.0
  0
SPLINE
  5
1a9
100
AcDbEntity
  8
0
 62
7
100
AcDbSpline
 70
8
 71
3
 72
8
 73
4
 74
0
 40
0
 40
0
 40
0
 40
0
 40
1
 40
1
 40
1
 40
1
 10
2033.057475
 20
3041.958300
 30
0.0
 10
2041.256325
 20
3063.522458
 30
0.0
 10
2041.931100
 20
3062.254687
 30
0.0
 10
2016.627600
 20
3072.827220
 30
0.0
  0
SPLINE
  5
1aa
100
AcDbEntity
  8
0
 62
7
100
AcDbSpline
 70
8
 71
3
 72
8
 73
4
 74
0
 40
0
 40
0
 40
0
 40
0
 40
1
 40
1
 40
1
 40
1
 10
2016.627600
 20
3072.827220
 30
0.0
 10
1975.298775
 20
3090.095167
 30
0.0
 10
1891.786650
 20
3105.117458
 30
0.0
 10
1833.421050
 20
3105.782317
 30
0.0
  0
SPLINE
  5
1ab
100
AcDbEntity
  8
0
 62
7
100
AcDbSpline
 70
8
 71
3
 72
8
 73
4
 74
0
 40
0
 40
0
 40
0
 40
0
 40
1
 40
1
 40
1
 40
1
 10
1833.421050
 20
3105.782317
 30
0.0
 10
1801.643400
 20
3106.144732
 30
0.0
 10
1775.619750
 20
3108.664493
 30
0.0
 10
1775.590650
 20
3111.382582
 30
0.0
  0
SPLINE
  5
1ac
100
AcDbEntity
  8
0
 62
7
100
AcDbSpline
 70
8
 71
3
 72
8
 73
4
 74
0
 40
0
 40
0
 40
0
 40
0
 40
1
 40
1
 40
1
 40
1
 10
1775.590650
 20
3111.382582
 30
0.0
 10
1775.498775
 20
3120.153600
 30
0.0
 10
1891.829325
 20
3116.630288
 30
0.0
 10
1940.521200
 20
3106.387883
 30
0.0
  0
SPLINE
  5
1ad
100
AcDbEntity
  8
0
 62
7
100
AcDbSpline
 70
8
 71
3
 72
8
 73
4
 74
0
 40
0
 40
0
 40
0
 40
0
 40
1
 40
1
 40
1
 40
1
 10
1940.521200
 20
3106.387883
 30
0.0
 10
2160.324750
 20
3060.150720
 30
0.0
 10
2338.759200
 20
2881.716217
 30
0.0
 10
2384.996250
 20
2661.912712
 30
0.0
  0
SPLINE
  5
1ae
100
AcDbEntity
  8
0
 62
7
100
AcDbSpline
 70
8
 71
3
 72
8
 73
4
 74
0
 40
0
 40
0
 40
0
 40
0
 40
1
 40
1
 40
1
 40
1
 10
2384.996250
 20
2661.912712
 30
0.0
 10
2404.830750
 20
2567.623009
 30
0.0
 10
2393.364750
 20
2415.212340
 30
0.0
 10
2361.431025
 20
2348.670218
 30
0.0
  0
SPLINE
  5
1af
100
AcDbEntity
  8
0
 62
7
100
AcDbSpline
 70
8
 71
3
 72
8
 73
4
 74
0
 40
0
 40
0
 40
0
 40
0
 40
1
 40
1
 40
1
 40
1
 10
2361.431025
 20
2348.670218
 30
0.0
 10
2345.950725
 20
2316.412928
 30
0.0
 10
2347.935900
 20
2333.149770
 30
0.0
 10
2368.464975
 20
2407.974000
 30
0.0
  0
SPLINE
  5
1b0
100
AcDbEntity
  8
0
 62
7
100
AcDbSpline
 70
8
 71
3
 72
8
 73
4
 74
0
 40
0
 40
0
 40
0
 40
0
 40
1
 40
1
 40
1
 40
1
 10
2368.464975
 20
2407.974000
 30
0.0
 10
2387.744025
 20
2478.244350
 30
0.0
 10
2389.662975
 20
2590.918855
 30
0.0
 10
2372.819250
 20
2663.708303
 30
0.0
  0
SPLINE
  5
1b1
100
AcDbEntity
  8
0
 62
7
100
AcDbSpline
 70
8
 71
3
 72
8
 73
4
 74
0
 40
0
 40
0
 40
0
 40
0
 40
1
 40
1
 40
1
 40
1
 10
2372.819250
 20
2663.708303
 30
0.0
 10
2337.363375
 20
2816.930820
 30
0.0
 10
2243.144925
 20
2948.041545
 30
0.0
 10
2111.696850
 20
3027.076350
 30
0.0
  0
SPLINE
  5
1b2
100
AcDbEntity
  8
0
 62
7
100
AcDbSpline
 70
8
 71
3
 72
8
 73
4
 74
0
 40
0
 40
0
 40
0
 40
0
 40
1
 40
1
 40
1
 40
1
 10
2111.696850
 20
3027.076350
 30
0.0
 10
2059.696650
 20
3058.342598
 30
0.0
 10
2056.999575
 20
3059.199218
 30
0.0
 10
2048.249025
 20
3047.232367
 30
0.0
  0
SPLINE
  5
1b3
100
AcDbEntity
  8
0
 62
7
100
AcDbSpline
 70
8
 71
3
 72
8
 73
4
 74
0
 40
0
 40
0
 40
0
 40
0
 40
1
 40
1
 40
1
 40
1
 10
2048.249025
 20
3047.232367
 30
0.0
 10
2037.964500
 20
3033.166837
 30
0.0
 10
2036.174700
 20
3017.484945
 30
0.0
 10
2044.854375
 20
3017.484945
 30
0.0
  0
SPLINE
  5
1b4
100
AcDbEntity
  8
0
 62
7
100
AcDbSpline
 70
8
 71
3
 72
8
 73
4
 74
0
 40
0
 40
0
 40
0
 40
0
 40
1
 40
1
 40
1
 40
1
 10
2044.854375
 20
3017.484945
 30
0.0
 10
2059.159650
 20
3017.484945
 30
0.0
 10
2157.894450
 20
2946.046298
 30
0.0
 10
2195.332950
 20
2908.607182
 30
0.0
  0
SPLINE
  5
1b5
100
AcDbEntity
  8
0
 62
7
100
AcDbSpline
 70
8
 71
3
 72
8
 73
4
 74
0
 40
0
 40
0
 40
0
 40
0
 40
1
 40
1
 40
1
 40
1
 10
2195.332950
 20
2908.607182
 30
0.0
 10
2258.585100
 20
2845.355745
 30
0.0
 10
2244.715200
 20
2843.304495
 30
0.0
 10
2178.880200
 20
2906.174422
 30
0.0
  0
SPLINE
  5
1b6
100
AcDbEntity
  8
0
 62
7
100
AcDbSpline
 70
8
 71
3
 72
8
 73
4
 74
0
 40
0
 40
0
 40
0
 40
0
 40
1
 40
1
 40
1
 40
1
 10
2178.880200
 20
2906.174422
 30
0.0
 10
2112.358425
 20
2969.700600
 30
0.0
 10
2066.587650
 20
2998.804267
 30
0.0
 10
1991.310150
 20
3025.442858
 30
0.0
  0
SPLINE
  5
1b7
100
AcDbEntity
  8
0
 62
7
100
AcDbSpline
 70
8
 71
3
 72
8
 73
4
 74
0
 40
0
 40
0
 40
0
 40
0
 40
1
 40
1
 40
1
 40
1
 10
1991.310150
 20
3025.442858
 30
0.0
 10
1949.458275
 20
3040.252980
 30
0.0
 10
1936.852800
 20
3042.480847
 30
0.0
 10
1932.525600
 20
3035.832217
 30
0.0
  0
SPLINE
  5
1b8
100
AcDbEntity
  8
0
 62
7
100
AcDbSpline
 70
8
 71
3
 72
8
 73
4
 74
0
 40
0
 40
0
 40
0
 40
0
 40
1
 40
1
 40
1
 40
1
 10
1932.525600
 20
3035.832217
 30
0.0
 10
1919.172300
 20
3015.317047
 30
0.0
 10
1930.121925
 20
3002.685352
 30
0.0
 10
1974.045450
 20
2987.929920
 30
0.0
  0
SPLINE
  5
1b9
100
AcDbEntity
  8
0
 62
7
100
AcDbSpline
 70
8
 71
3
 72
8
 73
4
 74
0
 40
0
 40
0
 40
0
 40
0
 40
1
 40
1
 40
1
 40
1
 10
1974.045450
 20
2987.929920
 30
0.0
 10
2112.425550
 20
2941.445640
 30
0.0
 10
2221.646700
 20
2829.787845
 30
0.0
 10
2270.632950
 20
2684.724907
 30
0.0
  0
SPLINE
  5
1ba
100
AcDbEntity
  8
0
 62
7
100
AcDbSpline
 70
8
 71
3
 72
8
 73
4
 74
0
 40
0
 40
0
 40
0
 40
0
 40
1
 40
1
 40
1
 40
1
 10
2270.632950
 20
2684.724907
 30
0.0
 10
2284.355175
 20
2644.089968
 30
0.0
 10
2286.167775
 20
2626.834548
 30
0.0
 10
2285.860875
 20
2539.760131
 30
0.0
  0
SPLINE
  5
1bb
100
AcDbEntity
  8
0
 62
7
100
AcDbSpline
 70
8
 71
3
 72
8
 73
4
 74
0
 40
0
 40
0
 40
0
 40
0
 40
1
 40
1
 40
1
 40
1
 10
2285.860875
 20
2539.760131
 30
0.0
 10
2285.538000
 20
2448.180623
 30
0.0
 10
2284.159500
 20
2437.290472
 30
0.0
 10
2267.089200
 20
2391.500715
 30
0.0
  0
SPLINE
  5
1bc
100
AcDbEntity
  8
0
 62
7
100
AcDbSpline
 70
8
 71
3
 72
8
 73
4
 74
0
 40
0
 40
0
 40
0
 40
0
 40
1
 40
1
 40
1
 40
1
 10
2267.089200
 20
2391.500715
 30
0.0
 10
2226.269025
 20
2282.003565
 30
0.0
 10
2141.064675
 20
2181.792705
 30
0.0
 10
2046.559650
 20
2132.131725
 30
0.0
  0
SPLINE
  5
1bd
100
AcDbEntity
  8
0
 62
7
100
AcDbSpline
 70
8
 71
3
 72
8
 73
4
 74
0
 40
0
 40
0
 40
0
 40
0
 40
1
 40
1
 40
1
 40
1
 10
2046.559650
 20
2132.131725
 30
0.0
 10
1988.726475
 20
2101.741178
 30
0.0
 10
1946.860125
 20
2086.523183
 30
0.0
 10
1946.860125
 20
2095.891200
 30
0.0
  0
SPLINE
  5
1be
100
AcDbEntity
  8
0
 62
7
100
AcDbSpline
 70
8
 71
3
 72
8
 73
4
 74
0
 40
0
 40
0
 40
0
 40
0
 40
1
 40
1
 40
1
 40
1
 10
1946.860125
 20
2095.891200
 30
0.0
 10
1946.860125
 20
2099.693880
 30
0.0
 10
1953.531825
 20
2104.541633
 30
0.0
 10
1961.685825
 20
2106.664058
 30
0.0
  0
SPLINE
  5
1bf
100
AcDbEntity
  8
0
 62
7
100
AcDbSpline
 70
8
 71
3
 72
8
 73
4
 74
0
 40
0
 40
0
 40
0
 40
0
 40
1
 40
1
 40
1
 40
1
 10
1961.685825
 20
2106.664058
 30
0.0
 10
1969.840275
 20
2108.786468
 30
0.0
 10
2002.432350
 20
2123.489198
 30
0.0
 10
2034.113625
 20
2139.337132
 30
0.0
  0
SPLINE
  5
1c0
100
AcDbEntity
  8
0
 62
7
100
AcDbSpline
 70
8
 71
3
 72
8
 73
4
 74
0
 40
0
 40
0
 40
0
 40
0
 40
1
 40
1
 40
1
 40
1
 10
2034.113625
 20
2139.337132
 30
0.0
 10
2199.168675
 20
2221.903140
 30
0.0
 10
2302.861125
 20
2416.525598
 30
0.0
 10
2277.467400
 20
2596.092775
 30
0.0
  0
SPLINE
  5
1c1
100
AcDbEntity
  8
0
 62
7
100
AcDbSpline
 70
8
 71
3
 72
8
 73
4
 74
0
 40
0
 40
0
 40
0
 40
0
 40
1
 40
1
 40
1
 40
1
 10
2277.467400
 20
2596.092775
 30
0.0
 10
2257.572225
 20
2736.774495
 30
0.0
 10
2186.177100
 20
2852.207978
 30
0.0
 10
2073.422850
 20
2925.997020
 30
0.0
  0
SPLINE
  5
1c2
100
AcDbEntity
  8
0
 62
7
100
AcDbSpline
 70
8
 71
3
 72
8
 73
4
 74
0
 40
0
 40
0
 40
0
 40
0
 40
1
 40
1
 40
1
 40
1
 10
2073.422850
 20
2925.997020
 30
0.0
 10
2025.028875
 20
2957.667210
 30
0.0
 10
1957.022550
 20
2987.524687
 30
0.0
 10
1947.161775
 20
2981.430232
 30
0.0
  0
SPLINE
  5
1c3
100
AcDbEntity
  8
0
 62
7
100
AcDbSpline
 70
8
 71
3
 72
8
 73
4
 74
0
 40
0
 40
0
 40
0
 40
0
 40
1
 40
1
 40
1
 40
1
 10
1947.161775
 20
2981.430232
 30
0.0
 10
1944.236700
 20
2979.622770
 30
0.0
 10
1940.463000
 20
2970.918300
 30
0.0
 10
1938.774975
 20
2962.087320
 30
0.0
  0
SPLINE
  5
1c4
100
AcDbEntity
  8
0
 62
7
100
AcDbSpline
 70
8
 71
3
 72
8
 73
4
 74
0
 40
0
 40
0
 40
0
 40
0
 40
1
 40
1
 40
1
 40
1
 10
1938.774975
 20
2962.087320
 30
0.0
 10
1936.025775
 20
2947.706813
 30
0.0
 10
1939.613625
 20
2944.605225
 30
0.0
 10
1973.142225
 20
2932.380097
 30
0.0
  0
SPLINE
  5
1c5
100
AcDbEntity
  8
0
 62
7
100
AcDbSpline
 70
8
 71
3
 72
8
 73
4
 74
0
 40
0
 40
0
 40
0
 40
0
 40
1
 40
1
 40
1
 40
1
 10
1973.142225
 20
2932.380097
 30
0.0
 10
2093.123325
 20
2888.633017
 30
0.0
 10
2194.824900
 20
2772.598590
 30
0.0
 10
2227.598100
 20
2642.064412
 30
0.0
  0
SPLINE
  5
1c6
100
AcDbEntity
  8
0
 62
7
100
AcDbSpline
 70
8
 71
3
 72
8
 73
4
 74
0
 40
0
 40
0
 40
0
 40
0
 40
1
 40
1
 40
1
 40
1
 10
2227.598100
 20
2642.064412
 30
0.0
 10
2244.051750
 20
2576.529136
 30
0.0
 10
2237.772675
 20
2462.077470
 30
0.0
 10
2214.393675
 20
2401.384680
 30
0.0
  0
SPLINE
  5
1c7
100
AcDbEntity
  8
0
 62
7
100
AcDbSpline
 70
8
 71
3
 72
8
 73
4
 74
0
 40
0
 40
0
 40
0
 40
0
 40
1
 40
1
 40
1
 40
1
 10
2214.393675
 20
2401.384680
 30
0.0
 10
2170.804125
 20
2288.221222
 30
0.0
 10
2088.030075
 20
2202.860700
 30
0.0
 10
1976.511975
 20
2156.069362
 30
0.0
  0
SPLINE
  5
1c8
100
AcDbEntity
  8
0
 62
7
100
AcDbSpline
 70
8
 71
3
 72
8
 73
4
 74
0
 40
0
 40
0
 40
0
 40
0
 40
1
 40
1
 40
1
 40
1
 10
1976.511975
 20
2156.069362
 30
0.0
 10
1933.815150
 20
2138.154352
 30
0.0
 10
1894.145550
 20
2130.595102
 30
0.0
 10
1894.145550
 20
2140.373625
 30
0.0
  0
SPLINE
  5
1c9
100
AcDbEntity
  8
0
 62
7
100
AcDbSpline
 70
8
 71
3
 72
8
 73
4
 74
0
 40
0
 40
0
 40
0
 40
0
 40
1
 40
1
 40
1
 40
1
 10
1894.145550
 20
2140.373625
 30
0.0
 10
1894.145550
 20
2144.401012
 30
0.0
 10
1900.171425
 20
2147.696325
 30
0.0
 10
1907.537025
 20
2147.696325
 30
0.0
  0
SPLINE
  5
1ca
100
AcDbEntity
  8
0
 62
7
100
AcDbSpline
 70
8
 71
3
 72
8
 73
4
 74
0
 40
0
 40
0
 40
0
 40
0
 40
1
 40
1
 40
1
 40
1
 10
1907.537025
 20
2147.696325
 30
0.0
 10
1935.146850
 20
2147.696325
 30
0.0
 10
2024.195325
 20
2188.363560
 30
0.0
 10
2066.739300
 20
2220.400770
 30
0.0
  0
SPLINE
  5
1cb
100
AcDbEntity
  8
0
 62
7
100
AcDbSpline
 70
8
 71
3
 72
8
 73
4
 74
0
 40
0
 40
0
 40
0
 40
0
 40
1
 40
1
 40
1
 40
1
 10
2066.739300
 20
2220.400770
 30
0.0
 10
2222.153325
 20
2337.436110
 30
0.0
 10
2271.852600
 20
2550.076360
 30
0.0
 10
2184.503400
 20
2724.260745
 30
0.0
  0
SPLINE
  5
1cc
100
AcDbEntity
  8
0
 62
7
100
AcDbSpline
 70
8
 71
3
 72
8
 73
4
 74
0
 40
0
 40
0
 40
0
 40
0
 40
1
 40
1
 40
1
 40
1
 10
2184.503400
 20
2724.260745
 30
0.0
 10
2169.963975
 20
2753.253712
 30
0.0
 10
2147.812200
 20
2788.835977
 30
0.0
 10
2135.275875
 20
2803.332450
 30
0.0
  0
LWPOLYLINE
  5
1cd
100
AcDbEntity
  8
0
 62
7
100
AcDbPolyline
 90
3
 70
0
 10
1978.695600
 20
3043.175348
 30
0.0
 10
2027.004525
 20
3026.037862
 30
0.0
 10
2033.057475
 20
3041.958300
 30
0.0
  0
SPLINE
  5
1ce
100
AcDbEntity
  8
0
 62
7
100
AcDbSpline
 70
8
 71
3
 72
8
 73
4
 74
0
 40
0
 40
0
 40
0
 40
0
 40
1
 40
1
 40
1
 40
1
 10
2108.119575
 20
2770.172415
 30
0.0
 10
2138.943675
 20
2729.789842
 30
0.0
 10
2160.216525
 20
2687.645280
 30
0.0
 10
2174.397525
 20
2638.866608
 30
0.0
  0
SPLINE
  5
1cf
100
AcDbEntity
  8
0
 62
7
100
AcDbSpline
 70
8
 71
3
 72
8
 73
4
 74
0
 40
0
 40
0
 40
0
 40
0
 40
1
 40
1
 40
1
 40
1
 10
2174.397525
 20
2638.866608
 30
0.0
 10
2196.116325
 20
2564.155055
 30
0.0
 10
2176.813575
 20
2396.767545
 30
0.0
 10
2145.266775
 20
2386.252350
 30
0.0
  0
SPLINE
  5
1d0
100
AcDbEntity
  8
0
 62
7
100
AcDbSpline
 70
8
 71
3
 72
8
 73
4
 74
0
 40
0
 40
0
 40
0
 40
0
 40
1
 40
1
 40
1
 40
1
 10
2145.266775
 20
2386.252350
 30
0.0
 10
2140.233675
 20
2384.574030
 30
0.0
 10
2137.917750
 20
2386.120447
 30
0.0
 10
2140.121175
 20
2389.682070
 30
0.0
  0
SPLINE
  5
1d1
100
AcDbEntity
  8
0
 62
7
100
AcDbSpline
 70
8
 71
3
 72
8
 73
4
 74
0
 40
0
 40
0
 40
0
 40
0
 40
1
 40
1
 40
1
 40
1
 10
2140.121175
 20
2389.682070
 30
0.0
 10
2143.286025
 20
2394.803940
 30
0.0
 10
2119.255275
 20
2411.268660
 30
0.0
 10
2108.614425
 20
2411.268660
 30
0.0
  0
SPLINE
  5
1d2
100
AcDbEntity
  8
0
 62
7
100
AcDbSpline
 70
8
 71
3
 72
8
 73
4
 74
0
 40
0
 40
0
 40
0
 40
0
 40
1
 40
1
 40
1
 40
1
 10
2108.614425
 20
2411.268660
 30
0.0
 10
2107.316775
 20
2411.268660
 30
0.0
 10
2098.868025
 20
2398.666598
 30
0.0
 10
2089.839375
 20
2383.264087
 30
0.0
  0
SPLINE
  5
1d3
100
AcDbEntity
  8
0
 62
7
100
AcDbSpline
 70
8
 71
3
 72
8
 73
4
 74
0
 40
0
 40
0
 40
0
 40
0
 40
1
 40
1
 40
1
 40
1
 10
2089.839375
 20
2383.264087
 30
0.0
 10
2069.153550
 20
2347.977030
 30
0.0
 10
2003.860800
 20
2285.292285
 30
0.0
 10
1969.628775
 20
2267.854995
 30
0.0
  0
SPLINE
  5
1d4
100
AcDbEntity
  8
0
 62
7
100
AcDbSpline
 70
8
 71
3
 72
8
 73
4
 74
0
 40
0
 40
0
 40
0
 40
0
 40
1
 40
1
 40
1
 40
1
 10
1969.628775
 20
2267.854995
 30
0.0
 10
1955.293500
 20
2260.553377
 30
0.0
 10
1927.459800
 20
2249.804242
 30
0.0
 10
1907.775600
 20
2243.968087
 30
0.0
  0
SPLINE
  5
1d5
100
AcDbEntity
  8
0
 62
7
100
AcDbSpline
 70
8
 71
3
 72
8
 73
4
 74
0
 40
0
 40
0
 40
0
 40
0
 40
1
 40
1
 40
1
 40
1
 10
1907.775600
 20
2243.968087
 30
0.0
 10
1868.556525
 20
2232.340598
 30
0.0
 10
1795.306050
 20
2229.586928
 30
0.0
 10
1795.306050
 20
2239.739738
 30
0.0
  0
SPLINE
  5
1d6
100
AcDbEntity
  8
0
 62
7
100
AcDbSpline
 70
8
 71
3
 72
8
 73
4
 74
0
 40
0
 40
0
 40
0
 40
0
 40
1
 40
1
 40
1
 40
1
 10
1795.306050
 20
2239.739738
 30
0.0
 10
1795.306050
 20
2243.249857
 30
0.0
 10
1799.588850
 20
2244.478770
 30
0.0
 10
1804.823550
 20
2242.470345
 30
0.0
  0
SPLINE
  5
1d7
100
AcDbEntity
  8
0
 62
7
100
AcDbSpline
 70
8
 71
3
 72
8
 73
4
 74
0
 40
0
 40
0
 40
0
 40
0
 40
1
 40
1
 40
1
 40
1
 10
1804.823550
 20
2242.470345
 30
0.0
 10
1824.063075
 20
2235.087030
 30
0.0
 10
1911.294225
 20
2253.714997
 30
0.0
 10
1953.449400
 20
2274.207742
 30
0.0
  0
SPLINE
  5
1d8
100
AcDbEntity
  8
0
 62
7
100
AcDbSpline
 70
8
 71
3
 72
8
 73
4
 74
0
 40
0
 40
0
 40
0
 40
0
 40
1
 40
1
 40
1
 40
1
 10
1953.449400
 20
2274.207742
 30
0.0
 10
2031.720375
 20
2312.258355
 30
0.0
 10
2103.619725
 20
2403.156532
 30
0.0
 10
2116.054425
 20
2479.779646
 30
0.0
  0
SPLINE
  5
1d9
100
AcDbEntity
  8
0
 62
7
100
AcDbSpline
 70
8
 71
3
 72
8
 73
4
 74
0
 40
0
 40
0
 40
0
 40
0
 40
1
 40
1
 40
1
 40
1
 10
2116.054425
 20
2479.779646
 30
0.0
 10
2119.753425
 20
2502.579315
 30
0.0
 10
2119.130925
 20
2503.518947
 30
0.0
 10
2100.318975
 20
2503.518947
 30
0.0
  0
SPLINE
  5
1da
100
AcDbEntity
  8
0
 62
7
100
AcDbSpline
 70
8
 71
3
 72
8
 73
4
 74
0
 40
0
 40
0
 40
0
 40
0
 40
1
 40
1
 40
1
 40
1
 10
2100.318975
 20
2503.518947
 30
0.0
 10
2082.965325
 20
2503.518947
 30
0.0
 10
2079.790200
 20
2500.326427
 30
0.0
 10
2072.466825
 20
2475.514395
 30
0.0
  0
SPLINE
  5
1db
100
AcDbEntity
  8
0
 62
7
100
AcDbSpline
 70
8
 71
3
 72
8
 73
4
 74
0
 40
0
 40
0
 40
0
 40
0
 40
1
 40
1
 40
1
 40
1
 10
2072.466825
 20
2475.514395
 30
0.0
 10
2067.920025
 20
2460.111885
 30
0.0
 10
2056.782150
 20
2433.757965
 30
0.0
 10
2047.716075
 20
2416.949265
 30
0.0
  0
SPLINE
  5
1dc
100
AcDbEntity
  8
0
 62
7
100
AcDbSpline
 70
8
 71
3
 72
8
 73
4
 74
0
 40
0
 40
0
 40
0
 40
0
 40
1
 40
1
 40
1
 40
1
 10
2047.716075
 20
2416.949265
 30
0.0
 10
2028.962025
 20
2382.182790
 30
0.0
 10
1976.014350
 20
2327.203575
 30
0.0
 10
1968.511950
 20
2334.706155
 30
0.0
  0
SPLINE
  5
1dd
100
AcDbEntity
  8
0
 62
7
100
AcDbSpline
 70
8
 71
3
 72
8
 73
4
 74
0
 40
0
 40
0
 40
0
 40
0
 40
1
 40
1
 40
1
 40
1
 10
1968.511950
 20
2334.706155
 30
0.0
 10
1965.771900
 20
2337.445995
 30
0.0
 10
1970.899050
 20
2345.283975
 30
0.0
 10
1979.904750
 20
2352.124335
 30
0.0
  0
LWPOLYLINE
  5
1de
100
AcDbEntity
  8
0
 62
7
100
AcDbPolyline
 90
5
 70
0
 10
2135.275875
 20
2803.332450
 30
0.0
 10
2112.483600
 20
2829.689678
 30
0.0
 10
2098.250700
 20
2815.719022
 30
0.0
 10
2084.017050
 20
2801.747722
 30
0.0
 10
2108.119575
 20
2770.172415
 30
0.0
  0
SPLINE
  5
1df
100
AcDbEntity
  8
0
 62
7
100
AcDbSpline
 70
8
 71
3
 72
8
 73
4
 74
0
 40
0
 40
0
 40
0
 40
0
 40
1
 40
1
 40
1
 40
1
 10
1982.246400
 20
2378.702295
 30
0.0
 10
1968.757575
 20
2392.295400
 30
0.0
 10
1967.545200
 20
2392.405447
 30
0.0
 10
1950.947250
 20
2381.530432
 30
0.0
  0
SPLINE
  5
1e0
100
AcDbEntity
  8
0
 62
7
100
AcDbSpline
 70
8
 71
3
 72
8
 73
4
 74
0
 40
0
 40
0
 40
0
 40
0
 40
1
 40
1
 40
1
 40
1
 10
1950.947250
 20
2381.530432
 30
0.0
 10
1929.040725
 20
2367.176272
 30
0.0
 10
1928.705325
 20
2375.701538
 30
0.0
 10
1950.288525
 20
2398.232347
 30
0.0
  0
SPLINE
  5
1e1
100
AcDbEntity
  8
0
 62
7
100
AcDbSpline
 70
8
 71
3
 72
8
 73
4
 74
0
 40
0
 40
0
 40
0
 40
0
 40
1
 40
1
 40
1
 40
1
 10
1950.288525
 20
2398.232347
 30
0.0
 10
1966.436850
 20
2415.087150
 30
0.0
 10
1966.556025
 20
2415.878520
 30
0.0
 10
1954.580100
 20
2426.716612
 30
0.0
  0
SPLINE
  5
1e2
100
AcDbEntity
  8
0
 62
7
100
AcDbSpline
 70
8
 71
3
 72
8
 73
4
 74
0
 40
0
 40
0
 40
0
 40
0
 40
1
 40
1
 40
1
 40
1
 10
1954.580100
 20
2426.716612
 30
0.0
 10
1942.913700
 20
2437.274002
 30
0.0
 10
1940.222550
 20
2436.636832
 30
0.0
 10
1903.764075
 20
2414.682548
 30
0.0
  0
SPLINE
  5
1e3
100
AcDbEntity
  8
0
 62
7
100
AcDbSpline
 70
8
 71
3
 72
8
 73
4
 74
0
 40
0
 40
0
 40
0
 40
0
 40
1
 40
1
 40
1
 40
1
 10
1903.764075
 20
2414.682548
 30
0.0
 10
1870.070775
 20
2394.393435
 30
0.0
 10
1859.836950
 20
2391.500715
 30
0.0
 10
1821.756750
 20
2391.500715
 30
0.0
  0
SPLINE
  5
1e4
100
AcDbEntity
  8
0
 62
7
100
AcDbSpline
 70
8
 71
3
 72
8
 73
4
 74
0
 40
0
 40
0
 40
0
 40
0
 40
1
 40
1
 40
1
 40
1
 10
1821.756750
 20
2391.500715
 30
0.0
 10
1784.310375
 20
2391.500715
 30
0.0
 10
1773.323250
 20
2394.485002
 30
0.0
 10
1742.910975
 20
2412.915975
 30
0.0
  0
SPLINE
  5
1e5
100
AcDbEntity
  8
0
 62
7
100
AcDbSpline
 70
8
 71
3
 72
8
 73
4
 74
0
 40
0
 40
0
 40
0
 40
0
 40
1
 40
1
 40
1
 40
1
 10
1742.910975
 20
2412.915975
 30
0.0
 10
1625.869050
 20
2483.848546
 30
0.0
 10
1649.470875
 20
2653.670820
 30
0.0
 10
1781.751150
 20
2692.378372
 30
0.0
  0
SPLINE
  5
1e6
100
AcDbEntity
  8
0
 62
7
100
AcDbSpline
 70
8
 71
3
 72
8
 73
4
 74
0
 40
0
 40
0
 40
0
 40
0
 40
1
 40
1
 40
1
 40
1
 10
1781.751150
 20
2692.378372
 30
0.0
 10
1816.463550
 20
2702.535810
 30
0.0
 10
1848.344625
 20
2700.302017
 30
0.0
 10
1888.027350
 20
2684.932470
 30
0.0
  0
SPLINE
  5
1e7
100
AcDbEntity
  8
0
 62
7
100
AcDbSpline
 70
8
 71
3
 72
8
 73
4
 74
0
 40
0
 40
0
 40
0
 40
0
 40
1
 40
1
 40
1
 40
1
 10
1888.027350
 20
2684.932470
 30
0.0
 10
1895.012025
 20
2682.227557
 30
0.0
 10
1900.913400
 20
2686.470412
 30
0.0
 10
1906.148100
 20
2697.958875
 30
0.0
  0
SPLINE
  5
1e8
100
AcDbEntity
  8
0
 62
7
100
AcDbSpline
 70
8
 71
3
 72
8
 73
4
 74
0
 40
0
 40
0
 40
0
 40
0
 40
1
 40
1
 40
1
 40
1
 10
1906.148100
 20
2697.958875
 30
0.0
 10
1910.417850
 20
2707.329510
 30
0.0
 10
1913.910825
 20
2716.257375
 30
0.0
 10
1913.910825
 20
2717.797305
 30
0.0
  0
SPLINE
  5
1e9
100
AcDbEntity
  8
0
 62
7
100
AcDbSpline
 70
8
 71
3
 72
8
 73
4
 74
0
 40
0
 40
0
 40
0
 40
0
 40
1
 40
1
 40
1
 40
1
 10
1913.910825
 20
2717.797305
 30
0.0
 10
1913.910825
 20
2719.337880
 30
0.0
 10
1897.083075
 20
2725.489657
 30
0.0
 10
1876.516425
 20
2731.468792
 30
0.0
  0
SPLINE
  5
1ea
100
AcDbEntity
  8
0
 62
7
100
AcDbSpline
 70
8
 71
3
 72
8
 73
4
 74
0
 40
0
 40
0
 40
0
 40
0
 40
1
 40
1
 40
1
 40
1
 10
1876.516425
 20
2731.468792
 30
0.0
 10
1840.273350
 20
2742.005107
 30
0.0
 10
1796.005050
 20
2741.483212
 30
0.0
 10
1756.384200
 20
2730.053408
 30
0.0
  0
SPLINE
  5
1eb
100
AcDbEntity
  8
0
 62
7
100
AcDbSpline
 70
8
 71
3
 72
8
 73
4
 74
0
 40
0
 40
0
 40
0
 40
0
 40
1
 40
1
 40
1
 40
1
 10
1756.384200
 20
2730.053408
 30
0.0
 10
1745.466375
 20
2726.903722
 30
0.0
 10
1741.947075
 20
2727.775485
 30
0.0
 10
1745.084250
 20
2732.851230
 30
0.0
  0
SPLINE
  5
1ec
100
AcDbEntity
  8
0
 62
7
100
AcDbSpline
 70
8
 71
3
 72
8
 73
4
 74
0
 40
0
 40
0
 40
0
 40
0
 40
1
 40
1
 40
1
 40
1
 10
1745.084250
 20
2732.851230
 30
0.0
 10
1747.590150
 20
2736.906300
 30
0.0
 10
1760.092650
 20
2742.184320
 30
0.0
 10
1772.866725
 20
2744.580862
 30
0.0
  0
SPLINE
  5
1ed
100
AcDbEntity
  8
0
 62
7
100
AcDbSpline
 70
8
 71
3
 72
8
 73
4
 74
0
 40
0
 40
0
 40
0
 40
0
 40
1
 40
1
 40
1
 40
1
 10
1772.866725
 20
2744.580862
 30
0.0
 10
1789.554750
 20
2747.711445
 30
0.0
 10
1795.054875
 20
2751.645262
 30
0.0
 10
1792.404000
 20
2758.553482
 30
0.0
  0
SPLINE
  5
1ee
100
AcDbEntity
  8
0
 62
7
100
AcDbSpline
 70
8
 71
3
 72
8
 73
4
 74
0
 40
0
 40
0
 40
0
 40
0
 40
1
 40
1
 40
1
 40
1
 10
1792.404000
 20
2758.553482
 30
0.0
 10
1790.374425
 20
2763.842055
 30
0.0
 10
1788.713925
 20
2772.374550
 30
0.0
 10
1788.713925
 20
2777.514225
 30
0.0
  0
SPLINE
  5
1ef
100
AcDbEntity
  8
0
 62
7
100
AcDbSpline
 70
8
 71
3
 72
8
 73
4
 74
0
 40
0
 40
0
 40
0
 40
0
 40
1
 40
1
 40
1
 40
1
 10
1788.713925
 20
2777.514225
 30
0.0
 10
1788.713925
 20
2789.466562
 30
0.0
 10
1771.166775
 20
2789.382870
 30
0.0
 10
1736.827650
 20
2777.270400
 30
0.0
  0
SPLINE
  5
1f0
100
AcDbEntity
  8
0
 62
7
100
AcDbSpline
 70
8
 71
3
 72
8
 73
4
 74
0
 40
0
 40
0
 40
0
 40
0
 40
1
 40
1
 40
1
 40
1
 10
1736.827650
 20
2777.270400
 30
0.0
 10
1721.876025
 20
2771.995020
 30
0.0
 10
1709.642400
 20
2770.312110
 30
0.0
 10
1709.642400
 20
2773.531628
 30
0.0
  0
SPLINE
  5
1f1
100
AcDbEntity
  8
0
 62
7
100
AcDbSpline
 70
8
 71
3
 72
8
 73
4
 74
0
 40
0
 40
0
 40
0
 40
0
 40
1
 40
1
 40
1
 40
1
 10
1709.642400
 20
2773.531628
 30
0.0
 10
1709.642400
 20
2776.750515
 30
0.0
 10
1715.370975
 20
2781.202905
 30
0.0
 10
1722.372900
 20
2783.424817
 30
0.0
  0
SPLINE
  5
1f2
100
AcDbEntity
  8
0
 62
7
100
AcDbSpline
 70
8
 71
3
 72
8
 73
4
 74
0
 40
0
 40
0
 40
0
 40
0
 40
1
 40
1
 40
1
 40
1
 10
1722.372900
 20
2783.424817
 30
0.0
 10
1733.362950
 20
2786.913195
 30
0.0
 10
1734.175725
 20
2790.126802
 30
0.0
 10
1728.317775
 20
2806.931535
 30
0.0
  0
SPLINE
  5
1f3
100
AcDbEntity
  8
0
 62
7
100
AcDbSpline
 70
8
 71
3
 72
8
 73
4
 74
0
 40
0
 40
0
 40
0
 40
0
 40
1
 40
1
 40
1
 40
1
 10
1728.317775
 20
2806.931535
 30
0.0
 10
1724.585475
 20
2817.637830
 30
0.0
 10
1720.013250
 20
2826.397657
 30
0.0
 10
1718.157150
 20
2826.397657
 30
0.0
  0
SPLINE
  5
1f4
100
AcDbEntity
  8
0
 62
7
100
AcDbSpline
 70
8
 71
3
 72
8
 73
4
 74
0
 40
0
 40
0
 40
0
 40
0
 40
1
 40
1
 40
1
 40
1
 10
1718.157150
 20
2826.397657
 30
0.0
 10
1716.300150
 20
2826.397657
 30
0.0
 10
1697.396025
 20
2817.131107
 30
0.0
 10
1676.147550
 20
2805.806070
 30
0.0
  0
SPLINE
  5
1f5
100
AcDbEntity
  8
0
 62
7
100
AcDbSpline
 70
8
 71
3
 72
8
 73
4
 74
0
 40
0
 40
0
 40
0
 40
0
 40
1
 40
1
 40
1
 40
1
 10
1676.147550
 20
2805.806070
 30
0.0
 10
1600.887075
 20
2765.692327
 30
0.0
 10
1541.037000
 20
2681.388735
 30
0.0
 10
1524.525450
 20
2592.233434
 30
0.0
  0
SPLINE
  5
1f6
100
AcDbEntity
  8
0
 62
7
100
AcDbSpline
 70
8
 71
3
 72
8
 73
4
 74
0
 40
0
 40
0
 40
0
 40
0
 40
1
 40
1
 40
1
 40
1
 10
1524.525450
 20
2592.233434
 30
0.0
 10
1517.229975
 20
2552.837927
 30
0.0
 10
1520.755050
 20
2489.559503
 30
0.0
 10
1531.876050
 20
2460.309562
 30
0.0
  0
SPLINE
  5
1f7
100
AcDbEntity
  8
0
 62
7
100
AcDbSpline
 70
8
 71
3
 72
8
 73
4
 74
0
 40
0
 40
0
 40
0
 40
0
 40
1
 40
1
 40
1
 40
1
 10
1531.876050
 20
2460.309562
 30
0.0
 10
1535.436750
 20
2450.944178
 30
0.0
 10
1535.401200
 20
2443.191202
 30
0.0
 10
1531.784250
 20
2440.957432
 30
0.0
  0
SPLINE
  5
1f8
100
AcDbEntity
  8
0
 62
7
100
AcDbSpline
 70
8
 71
3
 72
8
 73
4
 74
0
 40
0
 40
0
 40
0
 40
0
 40
1
 40
1
 40
1
 40
1
 10
1531.784250
 20
2440.957432
 30
0.0
 10
1520.022900
 20
2433.688755
 30
0.0
 10
1510.591575
 20
2493.728563
 30
0.0
 10
1513.163400
 20
2559.494461
 30
0.0
  0
SPLINE
  5
1f9
100
AcDbEntity
  8
0
 62
7
100
AcDbSpline
 70
8
 71
3
 72
8
 73
4
 74
0
 40
0
 40
0
 40
0
 40
0
 40
1
 40
1
 40
1
 40
1
 10
1513.163400
 20
2559.494461
 30
0.0
 10
1515.990375
 20
2631.778500
 30
0.0
 10
1529.937825
 20
2672.321190
 30
0.0
 10
1572.240675
 20
2731.226977
 30
0.0
  0
LWPOLYLINE
  5
1fa
100
AcDbEntity
  8
0
 62
7
100
AcDbPolyline
 90
3
 70
0
 10
1979.904750
 20
2352.124335
 30
0.0
 10
1996.279725
 20
2364.560340
 30
0.0
 10
1982.246400
 20
2378.702295
 30
0.0
  0
SPLINE
  5
1fb
100
AcDbEntity
  8
0
 62
7
100
AcDbSpline
 70
8
 71
3
 72
8
 73
4
 74
0
 40
0
 40
0
 40
0
 40
0
 40
1
 40
1
 40
1
 40
1
 10
1578.899100
 20
2775.532807
 30
0.0
 10
1567.211475
 20
2787.192585
 30
0.0
 10
1563.116325
 20
2788.344412
 30
0.0
 10
1558.692375
 20
2781.216090
 30
0.0
  0
SPLINE
  5
1fc
100
AcDbEntity
  8
0
 62
7
100
AcDbSpline
 70
8
 71
3
 72
8
 73
4
 74
0
 40
0
 40
0
 40
0
 40
0
 40
1
 40
1
 40
1
 40
1
 10
1558.692375
 20
2781.216090
 30
0.0
 10
1555.230975
 20
2775.638895
 30
0.0
 10
1551.591525
 20
2774.786902
 30
0.0
 10
1549.017900
 20
2778.952012
 30
0.0
  0
SPLINE
  5
1fd
100
AcDbEntity
  8
0
 62
7
100
AcDbSpline
 70
8
 71
3
 72
8
 73
4
 74
0
 40
0
 40
0
 40
0
 40
0
 40
1
 40
1
 40
1
 40
1
 10
1549.017900
 20
2778.952012
 30
0.0
 10
1542.394875
 20
2789.667540
 30
0.0
 10
1607.746500
 20
2843.726220
 30
0.0
 10
1657.281675
 20
2868.507960
 30
0.0
  0
SPLINE
  5
1fe
100
AcDbEntity
  8
0
 62
7
100
AcDbSpline
 70
8
 71
3
 72
8
 73
4
 74
0
 40
0
 40
0
 40
0
 40
0
 40
1
 40
1
 40
1
 40
1
 10
1657.281675
 20
2868.507960
 30
0.0
 10
1701.539250
 20
2890.648672
 30
0.0
 10
1739.032275
 20
2901.028807
 30
0.0
 10
1803.537150
 20
2908.999245
 30
0.0
  0
SPLINE
  5
1ff
100
AcDbEntity
  8
0
 62
7
100
AcDbSpline
 70
8
 71
3
 72
8
 73
4
 74
0
 40
0
 40
0
 40
0
 40
0
 40
1
 40
1
 40
1
 40
1
 10
1803.537150
 20
2908.999245
 30
0.0
 10
1833.235200
 20
2912.668162
 30
0.0
 10
1834.836375
 20
2913.900367
 30
0.0
 10
1834.836375
 20
2933.081842
 30
0.0
  0
LWPOLYLINE
  5
200
100
AcDbEntity
  8
0
 62
7
100
AcDbPolyline
 90
3
 70
0
 10
1572.240675
 20
2731.226977
 30
0.0
 10
1593.556350
 20
2760.908497
 30
0.0
 10
1578.899100
 20
2775.532807
 30
0.0
  0
SPLINE
  5
201
100
AcDbEntity
  8
0
 62
7
100
AcDbSpline
 70
8
 71
3
 72
8
 73
4
 74
0
 40
0
 40
0
 40
0
 40
0
 40
1
 40
1
 40
1
 40
1
 10
1788.490350
 20
2948.730787
 30
0.0
 10
1727.990025
 20
2942.768790
 30
0.0
 10
1683.803550
 20
2929.405673
 30
0.0
 10
1627.794375
 20
2900.131357
 30
0.0
  0
SPLINE
  5
202
100
AcDbEntity
  8
0
 62
7
100
AcDbSpline
 70
8
 71
3
 72
8
 73
4
 74
0
 40
0
 40
0
 40
0
 40
0
 40
1
 40
1
 40
1
 40
1
 10
1627.794375
 20
2900.131357
 30
0.0
 10
1583.662500
 20
2877.065497
 30
0.0
 10
1515.876975
 20
2817.824962
 30
0.0
 10
1486.876800
 20
2776.977847
 30
0.0
  0
SPLINE
  5
203
100
AcDbEntity
  8
0
 62
7
100
AcDbSpline
 70
8
 71
3
 72
8
 73
4
 74
0
 40
0
 40
0
 40
0
 40
0
 40
1
 40
1
 40
1
 40
1
 10
1486.876800
 20
2776.977847
 30
0.0
 10
1476.536025
 20
2762.412840
 30
0.0
 10
1472.787525
 20
2760.239685
 30
0.0
 10
1472.633250
 20
2768.721435
 30
0.0
  0
SPLINE
  5
204
100
AcDbEntity
  8
0
 62
7
100
AcDbSpline
 70
8
 71
3
 72
8
 73
4
 74
0
 40
0
 40
0
 40
0
 40
0
 40
1
 40
1
 40
1
 40
1
 10
1472.633250
 20
2768.721435
 30
0.0
 10
1472.323500
 20
2785.810808
 30
0.0
 10
1557.906825
 20
2872.489867
 30
0.0
 10
1600.348725
 20
2898.070867
 30
0.0
  0
SPLINE
  5
205
100
AcDbEntity
  8
0
 62
7
100
AcDbSpline
 70
8
 71
3
 72
8
 73
4
 74
0
 40
0
 40
0
 40
0
 40
0
 40
1
 40
1
 40
1
 40
1
 10
1600.348725
 20
2898.070867
 30
0.0
 10
1644.099600
 20
2924.441280
 30
0.0
 10
1707.908475
 20
2948.550907
 30
0.0
 10
1751.085450
 20
2955.026220
 30
0.0
  0
SPLINE
  5
206
100
AcDbEntity
  8
0
 62
7
100
AcDbSpline
 70
8
 71
3
 72
8
 73
4
 74
0
 40
0
 40
0
 40
0
 40
0
 40
1
 40
1
 40
1
 40
1
 10
1751.085450
 20
2955.026220
 30
0.0
 10
1779.831450
 20
2959.336935
 30
0.0
 10
1782.121800
 20
2961.083767
 30
0.0
 10
1782.121800
 20
2978.699617
 30
0.0
  0
SPLINE
  5
207
100
AcDbEntity
  8
0
 62
7
100
AcDbSpline
 70
8
 71
3
 72
8
 73
4
 74
0
 40
0
 40
0
 40
0
 40
0
 40
1
 40
1
 40
1
 40
1
 10
1782.121800
 20
2978.699617
 30
0.0
 10
1782.121800
 20
2995.093815
 30
0.0
 10
1779.620475
 20
2997.697897
 30
0.0
 10
1764.001350
 20
2997.562170
 30
0.0
  0
SPLINE
  5
208
100
AcDbEntity
  8
0
 62
7
100
AcDbSpline
 70
8
 71
3
 72
8
 73
4
 74
0
 40
0
 40
0
 40
0
 40
0
 40
1
 40
1
 40
1
 40
1
 10
1764.001350
 20
2997.562170
 30
0.0
 10
1754.034975
 20
2997.476445
 30
0.0
 10
1734.761250
 20
2994.822997
 30
0.0
 10
1721.170650
 20
2991.667380
 30
0.0
  0
SPLINE
  5
209
100
AcDbEntity
  8
0
 62
7
100
AcDbSpline
 70
8
 71
3
 72
8
 73
4
 74
0
 40
0
 40
0
 40
0
 40
0
 40
1
 40
1
 40
1
 40
1
 10
1721.170650
 20
2991.667380
 30
0.0
 10
1707.580275
 20
2988.511095
 30
0.0
 10
1696.460700
 20
2988.264660
 30
0.0
 10
1696.460700
 20
2991.120472
 30
0.0
  0
SPLINE
  5
20a
100
AcDbEntity
  8
0
 62
7
100
AcDbSpline
 70
8
 71
3
 72
8
 73
4
 74
0
 40
0
 40
0
 40
0
 40
0
 40
1
 40
1
 40
1
 40
1
 10
1696.460700
 20
2991.120472
 30
0.0
 10
1696.460700
 20
3000.774457
 30
0.0
 10
1719.307875
 20
3005.585985
 30
0.0
 10
1775.532525
 20
3007.774957
 30
0.0
  0
SPLINE
  5
20b
100
AcDbEntity
  8
0
 62
7
100
AcDbSpline
 70
8
 71
3
 72
8
 73
4
 74
0
 40
0
 40
0
 40
0
 40
0
 40
1
 40
1
 40
1
 40
1
 10
1775.532525
 20
3007.774957
 30
0.0
 10
1806.337650
 20
3008.974185
 30
0.0
 10
1823.387325
 20
3008.488567
 30
0.0
 10
1813.421025
 20
3006.694965
 30
0.0
  0
SPLINE
  5
20c
100
AcDbEntity
  8
0
 62
7
100
AcDbSpline
 70
8
 71
3
 72
8
 73
4
 74
0
 40
0
 40
0
 40
0
 40
0
 40
1
 40
1
 40
1
 40
1
 10
1813.421025
 20
3006.694965
 30
0.0
 10
1797.724725
 20
3003.870795
 30
0.0
 10
1795.300650
 20
3000.348795
 30
0.0
 10
1795.300650
 20
2980.366057
 30
0.0
  0
SPLINE
  5
20d
100
AcDbEntity
  8
0
 62
7
100
AcDbSpline
 70
8
 71
3
 72
8
 73
4
 74
0
 40
0
 40
0
 40
0
 40
0
 40
1
 40
1
 40
1
 40
1
 10
1795.300650
 20
2980.366057
 30
0.0
 10
1795.300650
 20
2960.295697
 30
0.0
 10
1797.013650
 20
2957.840497
 30
0.0
 10
1808.479125
 20
2961.479790
 30
0.0
  0
SPLINE
  5
20e
100
AcDbEntity
  8
0
 62
7
100
AcDbSpline
 70
8
 71
3
 72
8
 73
4
 74
0
 40
0
 40
0
 40
0
 40
0
 40
1
 40
1
 40
1
 40
1
 10
1808.479125
 20
2961.479790
 30
0.0
 10
1834.164825
 20
2969.632080
 30
0.0
 10
1848.014775
 20
2959.410090
 30
0.0
 10
1848.014775
 20
2932.301663
 30
0.0
  0
SPLINE
  5
20f
100
AcDbEntity
  8
0
 62
7
100
AcDbSpline
 70
8
 71
3
 72
8
 73
4
 74
0
 40
0
 40
0
 40
0
 40
0
 40
1
 40
1
 40
1
 40
1
 10
1848.014775
 20
2932.301663
 30
0.0
 10
1848.014775
 20
2907.387502
 30
0.0
 10
1848.114075
 20
2907.293917
 30
0.0
 10
1879.385925
 20
2903.590740
 30
0.0
  0
SPLINE
  5
210
100
AcDbEntity
  8
0
 62
7
100
AcDbSpline
 70
8
 71
3
 72
8
 73
4
 74
0
 40
0
 40
0
 40
0
 40
0
 40
1
 40
1
 40
1
 40
1
 10
1879.385925
 20
2903.590740
 30
0.0
 10
1936.299075
 20
2896.850520
 30
0.0
 10
2045.694300
 20
2845.875000
 30
0.0
 10
2045.694300
 20
2826.095220
 30
0.0
  0
SPLINE
  5
211
100
AcDbEntity
  8
0
 62
7
100
AcDbSpline
 70
8
 71
3
 72
8
 73
4
 74
0
 40
0
 40
0
 40
0
 40
0
 40
1
 40
1
 40
1
 40
1
 10
2045.694300
 20
2826.095220
 30
0.0
 10
2045.694300
 20
2822.144910
 30
0.0
 10
2036.987850
 20
2825.112075
 30
0.0
 10
2026.346700
 20
2832.689138
 30
0.0
  0
SPLINE
  5
212
100
AcDbEntity
  8
0
 62
7
100
AcDbSpline
 70
8
 71
3
 72
8
 73
4
 74
0
 40
0
 40
0
 40
0
 40
0
 40
1
 40
1
 40
1
 40
1
 10
2026.346700
 20
2832.689138
 30
0.0
 10
1988.428575
 20
2859.689467
 30
0.0
 10
1923.015750
 20
2885.503102
 30
0.0
 10
1872.724875
 20
2893.313400
 30
0.0
  0
SPLINE
  5
213
100
AcDbEntity
  8
0
 62
7
100
AcDbSpline
 70
8
 71
3
 72
8
 73
4
 74
0
 40
0
 40
0
 40
0
 40
0
 40
1
 40
1
 40
1
 40
1
 10
1872.724875
 20
2893.313400
 30
0.0
 10
1782.279450
 20
2907.359820
 30
0.0
 10
1682.044725
 20
2881.447357
 30
0.0
 10
1606.296750
 20
2824.436685
 30
0.0
  0
SPLINE
  5
214
100
AcDbEntity
  8
0
 62
7
100
AcDbSpline
 70
8
 71
3
 72
8
 73
4
 74
0
 40
0
 40
0
 40
0
 40
0
 40
1
 40
1
 40
1
 40
1
 10
1606.296750
 20
2824.436685
 30
0.0
 10
1574.961225
 20
2800.852890
 30
0.0
 10
1573.198650
 20
2796.339217
 30
0.0
 10
1588.656525
 20
2779.258417
 30
0.0
  0
SPLINE
  5
215
100
AcDbEntity
  8
0
 62
7
100
AcDbSpline
 70
8
 71
3
 72
8
 73
4
 74
0
 40
0
 40
0
 40
0
 40
0
 40
1
 40
1
 40
1
 40
1
 10
1588.656525
 20
2779.258417
 30
0.0
 10
1599.004425
 20
2767.823970
 30
0.0
 10
1600.776750
 20
2768.289195
 30
0.0
 10
1630.774800
 20
2790.309337
 30
0.0
  0
SPLINE
  5
216
100
AcDbEntity
  8
0
 62
7
100
AcDbSpline
 70
8
 71
3
 72
8
 73
4
 74
0
 40
0
 40
0
 40
0
 40
0
 40
1
 40
1
 40
1
 40
1
 10
1630.774800
 20
2790.309337
 30
0.0
 10
1702.587600
 20
2843.025128
 30
0.0
 10
1786.363950
 20
2865.182985
 30
0.0
 10
1866.135600
 20
2852.560485
 30
0.0
  0
SPLINE
  5
217
100
AcDbEntity
  8
0
 62
7
100
AcDbSpline
 70
8
 71
3
 72
8
 73
4
 74
0
 40
0
 40
0
 40
0
 40
0
 40
1
 40
1
 40
1
 40
1
 10
1866.135600
 20
2852.560485
 30
0.0
 10
1910.956725
 20
2845.468425
 30
0.0
 10
1993.271550
 20
2812.275465
 30
0.0
 10
2006.970075
 20
2795.769908
 30
0.0
  0
SPLINE
  5
218
100
AcDbEntity
  8
0
 62
7
100
AcDbSpline
 70
8
 71
3
 72
8
 73
4
 74
0
 40
0
 40
0
 40
0
 40
0
 40
1
 40
1
 40
1
 40
1
 10
2006.970075
 20
2795.769908
 30
0.0
 10
2018.880300
 20
2781.418387
 30
0.0
 10
2005.302225
 20
2785.344945
 30
0.0
 10
1959.817725
 20
2809.405807
 30
0.0
  0
SPLINE
  5
219
100
AcDbEntity
  8
0
 62
7
100
AcDbSpline
 70
8
 71
3
 72
8
 73
4
 74
0
 40
0
 40
0
 40
0
 40
0
 40
1
 40
1
 40
1
 40
1
 10
1959.817725
 20
2809.405807
 30
0.0
 10
1908.819675
 20
2836.383750
 30
0.0
 10
1846.270650
 20
2848.923877
 30
0.0
 10
1791.795600
 20
2843.091660
 30
0.0
  0
SPLINE
  5
21a
100
AcDbEntity
  8
0
 62
7
100
AcDbSpline
 70
8
 71
3
 72
8
 73
4
 74
0
 40
0
 40
0
 40
0
 40
0
 40
1
 40
1
 40
1
 40
1
 10
1791.795600
 20
2843.091660
 30
0.0
 10
1741.060425
 20
2837.660100
 30
0.0
 10
1734.027300
 20
2833.247902
 30
0.0
 10
1739.750025
 20
2810.444947
 30
0.0
  0
SPLINE
  5
21b
100
AcDbEntity
  8
0
 62
7
100
AcDbSpline
 70
8
 71
3
 72
8
 73
4
 74
0
 40
0
 40
0
 40
0
 40
0
 40
1
 40
1
 40
1
 40
1
 10
1739.750025
 20
2810.444947
 30
0.0
 10
1743.317400
 20
2796.231802
 30
0.0
 10
1747.209825
 20
2793.167130
 30
0.0
 10
1758.252675
 20
2795.875327
 30
0.0
  0
SPLINE
  5
21c
100
AcDbEntity
  8
0
 62
7
100
AcDbSpline
 70
8
 71
3
 72
8
 73
4
 74
0
 40
0
 40
0
 40
0
 40
0
 40
1
 40
1
 40
1
 40
1
 10
1758.252675
 20
2795.875327
 30
0.0
 10
1796.151075
 20
2805.168885
 30
0.0
 10
1840.006350
 20
2807.668860
 30
0.0
 10
1844.265000
 20
2800.778430
 30
0.0
  0
SPLINE
  5
21d
100
AcDbEntity
  8
0
 62
7
100
AcDbSpline
 70
8
 71
3
 72
8
 73
4
 74
0
 40
0
 40
0
 40
0
 40
0
 40
1
 40
1
 40
1
 40
1
 10
1844.265000
 20
2800.778430
 30
0.0
 10
1847.263050
 20
2795.927385
 30
0.0
 10
1840.870875
 20
2793.452430
 30
0.0
 10
1825.341825
 20
2793.452430
 30
0.0
  0
SPLINE
  5
21e
100
AcDbEntity
  8
0
 62
7
100
AcDbSpline
 70
8
 71
3
 72
8
 73
4
 74
0
 40
0
 40
0
 40
0
 40
0
 40
1
 40
1
 40
1
 40
1
 10
1825.341825
 20
2793.452430
 30
0.0
 10
1803.924600
 20
2793.452430
 30
0.0
 10
1801.889850
 20
2791.814992
 30
0.0
 10
1801.889850
 20
2774.580007
 30
0.0
  0
SPLINE
  5
21f
100
AcDbEntity
  8
0
 62
7
100
AcDbSpline
 70
8
 71
3
 72
8
 73
4
 74
0
 40
0
 40
0
 40
0
 40
0
 40
1
 40
1
 40
1
 40
1
 10
1801.889850
 20
2774.580007
 30
0.0
 10
1801.889850
 20
2757.055072
 30
0.0
 10
1804.124700
 20
2755.404457
 30
0.0
 10
1833.189000
 20
2751.457447
 30
0.0
  0
SPLINE
  5
220
100
AcDbEntity
  8
0
 62
7
100
AcDbSpline
 70
8
 71
3
 72
8
 73
4
 74
0
 40
0
 40
0
 40
0
 40
0
 40
1
 40
1
 40
1
 40
1
 10
1833.189000
 20
2751.457447
 30
0.0
 10
1894.778700
 20
2743.092982
 30
0.0
 10
1928.392725
 20
2727.308302
 30
0.0
 10
1967.149500
 20
2688.550650
 30
0.0
  0
SPLINE
  5
221
100
AcDbEntity
  8
0
 62
7
100
AcDbSpline
 70
8
 71
3
 72
8
 73
4
 74
0
 40
0
 40
0
 40
0
 40
0
 40
1
 40
1
 40
1
 40
1
 10
1967.149500
 20
2688.550650
 30
0.0
 10
2007.852525
 20
2647.848502
 30
0.0
 10
2026.688025
 20
2605.244012
 30
0.0
 10
2028.013800
 20
2550.881569
 30
0.0
  0
SPLINE
  5
222
100
AcDbEntity
  8
0
 62
7
100
AcDbSpline
 70
8
 71
3
 72
8
 73
4
 74
0
 40
0
 40
0
 40
0
 40
0
 40
1
 40
1
 40
1
 40
1
 10
2028.013800
 20
2550.881569
 30
0.0
 10
2028.955500
 20
2512.287335
 30
0.0
 10
2020.805775
 20
2470.576357
 30
0.0
 10
2012.324025
 20
2470.576357
 30
0.0
  0
SPLINE
  5
223
100
AcDbEntity
  8
0
 62
7
100
AcDbSpline
 70
8
 71
3
 72
8
 73
4
 74
0
 40
0
 40
0
 40
0
 40
0
 40
1
 40
1
 40
1
 40
1
 10
2012.324025
 20
2470.576357
 30
0.0
 10
2008.488300
 20
2470.576357
 30
0.0
 10
2007.945825
 20
2477.865458
 30
0.0
 10
2010.975150
 20
2488.696954
 30
0.0
  0
SPLINE
  5
224
100
AcDbEntity
  8
0
 62
7
100
AcDbSpline
 70
8
 71
3
 72
8
 73
4
 74
0
 40
0
 40
0
 40
0
 40
0
 40
1
 40
1
 40
1
 40
1
 10
2010.975150
 20
2488.696954
 30
0.0
 10
2020.541400
 20
2522.903367
 30
0.0
 10
2015.670600
 20
2590.934680
 30
0.0
 10
2001.351600
 20
2623.113562
 30
0.0
  0
SPLINE
  5
225
100
AcDbEntity
  8
0
 62
7
100
AcDbSpline
 70
8
 71
3
 72
8
 73
4
 74
0
 40
0
 40
0
 40
0
 40
0
 40
1
 40
1
 40
1
 40
1
 10
2001.351600
 20
2623.113562
 30
0.0
 10
1988.516250
 20
2651.958922
 30
0.0
 10
1940.246850
 20
2707.791442
 30
0.0
 10
1928.144925
 20
2707.791442
 30
0.0
  0
SPLINE
  5
226
100
AcDbEntity
  8
0
 62
7
100
AcDbSpline
 70
8
 71
3
 72
8
 73
4
 74
0
 40
0
 40
0
 40
0
 40
0
 40
1
 40
1
 40
1
 40
1
 10
1928.144925
 20
2707.791442
 30
0.0
 10
1925.101875
 20
2707.791442
 30
0.0
 10
1919.308725
 20
2700.538590
 30
0.0
 10
1915.269300
 20
2691.673995
 30
0.0
  0
SPLINE
  5
227
100
AcDbEntity
  8
0
 62
7
100
AcDbSpline
 70
8
 71
3
 72
8
 73
4
 74
0
 40
0
 40
0
 40
0
 40
0
 40
1
 40
1
 40
1
 40
1
 10
1915.269300
 20
2691.673995
 30
0.0
 10
1908.757800
 20
2677.382445
 30
0.0
 10
1910.504625
 20
2672.976840
 30
0.0
 10
1930.685100
 20
2652.797062
 30
0.0
  0
SPLINE
  5
228
100
AcDbEntity
  8
0
 62
7
100
AcDbSpline
 70
8
 71
3
 72
8
 73
4
 74
0
 40
0
 40
0
 40
0
 40
0
 40
1
 40
1
 40
1
 40
1
 10
1930.685100
 20
2652.797062
 30
0.0
 10
1952.249250
 20
2631.232905
 30
0.0
 10
1964.089500
 20
2605.106959
 30
0.0
 10
1945.207125
 20
2620.751944
 30
0.0
  0
SPLINE
  5
229
100
AcDbEntity
  8
0
 62
7
100
AcDbSpline
 70
8
 71
3
 72
8
 73
4
 74
0
 40
0
 40
0
 40
0
 40
0
 40
1
 40
1
 40
1
 40
1
 10
1945.207125
 20
2620.751944
 30
0.0
 10
1939.342875
 20
2625.611569
 30
0.0
 10
1932.862875
 20
2624.246921
 30
0.0
 10
1922.704725
 20
2616.014234
 30
0.0
  0
SPLINE
  5
22a
100
AcDbEntity
  8
0
 62
7
100
AcDbSpline
 70
8
 71
3
 72
8
 73
4
 74
0
 40
0
 40
0
 40
0
 40
0
 40
1
 40
1
 40
1
 40
1
 10
1922.704725
 20
2616.014234
 30
0.0
 10
1909.012875
 20
2604.916531
 30
0.0
 10
1908.833700
 20
2603.250089
 30
0.0
 10
1918.253625
 20
2574.635355
 30
0.0
  0
SPLINE
  5
22b
100
AcDbEntity
  8
0
 62
7
100
AcDbSpline
 70
8
 71
3
 72
8
 73
4
 74
0
 40
0
 40
0
 40
0
 40
0
 40
1
 40
1
 40
1
 40
1
 10
1918.253625
 20
2574.635355
 30
0.0
 10
1931.244600
 20
2535.175299
 30
0.0
 10
1922.167050
 20
2500.934615
 30
0.0
 10
1890.606975
 20
2470.345087
 30
0.0
  0
SPLINE
  5
22c
100
AcDbEntity
  8
0
 62
7
100
AcDbSpline
 70
8
 71
3
 72
8
 73
4
 74
0
 40
0
 40
0
 40
0
 40
0
 40
1
 40
1
 40
1
 40
1
 10
1890.606975
 20
2470.345087
 30
0.0
 10
1868.337150
 20
2448.759832
 30
0.0
 10
1864.559400
 20
2447.513790
 30
0.0
 10
1821.402075
 20
2447.513790
 30
0.0
  0
SPLINE
  5
22d
100
AcDbEntity
  8
0
 62
7
100
AcDbSpline
 70
8
 71
3
 72
8
 73
4
 74
0
 40
0
 40
0
 40
0
 40
0
 40
1
 40
1
 40
1
 40
1
 10
1821.402075
 20
2447.513790
 30
0.0
 10
1777.510125
 20
2447.513790
 30
0.0
 10
1774.809675
 20
2448.456727
 30
0.0
 10
1751.262075
 20
2472.004275
 30
0.0
  0
SPLINE
  5
22e
100
AcDbEntity
  8
0
 62
7
100
AcDbSpline
 70
8
 71
3
 72
8
 73
4
 74
0
 40
0
 40
0
 40
0
 40
0
 40
1
 40
1
 40
1
 40
1
 10
1751.262075
 20
2472.004275
 30
0.0
 10
1737.792225
 20
2485.473480
 30
0.0
 10
1728.725400
 20
2498.447818
 30
0.0
 10
1731.113400
 20
2500.835782
 30
0.0
  0
SPLINE
  5
22f
100
AcDbEntity
  8
0
 62
7
100
AcDbSpline
 70
8
 71
3
 72
8
 73
4
 74
0
 40
0
 40
0
 40
0
 40
0
 40
1
 40
1
 40
1
 40
1
 10
1731.113400
 20
2500.835782
 30
0.0
 10
1733.501325
 20
2503.223758
 30
0.0
 10
1743.206700
 20
2495.965635
 30
0.0
 10
1752.680175
 20
2484.706469
 30
0.0
  0
SPLINE
  5
230
100
AcDbEntity
  8
0
 62
7
100
AcDbSpline
 70
8
 71
3
 72
8
 73
4
 74
0
 40
0
 40
0
 40
0
 40
0
 40
1
 40
1
 40
1
 40
1
 10
1752.680175
 20
2484.706469
 30
0.0
 10
1772.031600
 20
2461.709122
 30
0.0
 10
1811.437575
 20
2448.131212
 30
0.0
 10
1839.531975
 20
2454.780487
 30
0.0
  0
SPLINE
  5
231
100
AcDbEntity
  8
0
 62
7
100
AcDbSpline
 70
8
 71
3
 72
8
 73
4
 74
0
 40
0
 40
0
 40
0
 40
0
 40
1
 40
1
 40
1
 40
1
 10
1839.531975
 20
2454.780487
 30
0.0
 10
1905.070575
 20
2470.293030
 30
0.0
 10
1933.843350
 20
2547.096657
 30
0.0
 10
1893.385725
 20
2598.530815
 30
0.0
  0
SPLINE
  5
232
100
AcDbEntity
  8
0
 62
7
100
AcDbSpline
 70
8
 71
3
 72
8
 73
4
 74
0
 40
0
 40
0
 40
0
 40
0
 40
1
 40
1
 40
1
 40
1
 10
1893.385725
 20
2598.530815
 30
0.0
 10
1850.949750
 20
2652.479475
 30
0.0
 10
1772.017875
 20
2644.161787
 30
0.0
 10
1740.907725
 20
2582.463446
 30
0.0
  0
LWPOLYLINE
  5
233
100
AcDbEntity
  8
0
 62
7
100
AcDbPolyline
 90
3
 70
0
 10
1834.836375
 20
2933.081842
 30
0.0
 10
1834.836375
 20
2953.297170
 30
0.0
 10
1788.490350
 20
2948.730787
 30
0.0
  0
SPLINE
  5
234
100
AcDbEntity
  8
0
 62
7
100
AcDbSpline
 70
8
 71
3
 72
8
 73
4
 74
0
 40
0
 40
0
 40
0
 40
0
 40
1
 40
1
 40
1
 40
1
 10
1749.104175
 20
2557.470216
 30
0.0
 10
1764.100050
 20
2555.905250
 30
0.0
 10
1772.707875
 20
2559.875970
 30
0.0
 10
1784.815500
 20
2573.943484
 30
0.0
  0
SPLINE
  5
235
100
AcDbEntity
  8
0
 62
7
100
AcDbSpline
 70
8
 71
3
 72
8
 73
4
 74
0
 40
0
 40
0
 40
0
 40
0
 40
1
 40
1
 40
1
 40
1
 10
1784.815500
 20
2573.943484
 30
0.0
 10
1793.589825
 20
2584.137802
 30
0.0
 10
1802.750850
 20
2590.501745
 30
0.0
 10
1805.173200
 20
2588.085443
 30
0.0
  0
SPLINE
  5
236
100
AcDbEntity
  8
0
 62
7
100
AcDbSpline
 70
8
 71
3
 72
8
 73
4
 74
0
 40
0
 40
0
 40
0
 40
0
 40
1
 40
1
 40
1
 40
1
 10
1805.173200
 20
2588.085443
 30
0.0
 10
1807.595325
 20
2585.669828
 30
0.0
 10
1803.400050
 20
2577.515549
 30
0.0
 10
1795.850025
 20
2569.964867
 30
0.0
  0
SPLINE
  5
237
100
AcDbEntity
  8
0
 62
7
100
AcDbSpline
 70
8
 71
3
 72
8
 73
4
 74
0
 40
0
 40
0
 40
0
 40
0
 40
1
 40
1
 40
1
 40
1
 10
1795.850025
 20
2569.964867
 30
0.0
 10
1778.554350
 20
2552.669243
 30
0.0
 10
1778.357925
 20
2533.644595
 30
0.0
 10
1795.303125
 20
2516.701519
 30
0.0
  0
SPLINE
  5
238
100
AcDbEntity
  8
0
 62
7
100
AcDbSpline
 70
8
 71
3
 72
8
 73
4
 74
0
 40
0
 40
0
 40
0
 40
0
 40
1
 40
1
 40
1
 40
1
 10
1795.303125
 20
2516.701519
 30
0.0
 10
1812.080775
 20
2499.923170
 30
0.0
 10
1831.239225
 20
2499.923170
 30
0.0
 10
1848.017625
 20
2516.701519
 30
0.0
  0
SPLINE
  5
239
100
AcDbEntity
  8
0
 62
7
100
AcDbSpline
 70
8
 71
3
 72
8
 73
4
 74
0
 40
0
 40
0
 40
0
 40
0
 40
1
 40
1
 40
1
 40
1
 10
1848.017625
 20
2516.701519
 30
0.0
 10
1864.960050
 20
2533.644595
 30
0.0
 10
1864.764300
 20
2552.669243
 30
0.0
 10
1847.470800
 20
2569.964867
 30
0.0
  0
SPLINE
  5
23a
100
AcDbEntity
  8
0
 62
7
100
AcDbSpline
 70
8
 71
3
 72
8
 73
4
 74
0
 40
0
 40
0
 40
0
 40
0
 40
1
 40
1
 40
1
 40
1
 10
1847.470800
 20
2569.964867
 30
0.0
 10
1839.920025
 20
2577.515549
 30
0.0
 10
1835.554425
 20
2585.505093
 30
0.0
 10
1837.769250
 20
2587.719760
 30
0.0
  0
SPLINE
  5
23b
100
AcDbEntity
  8
0
 62
7
100
AcDbSpline
 70
8
 71
3
 72
8
 73
4
 74
0
 40
0
 40
0
 40
0
 40
0
 40
1
 40
1
 40
1
 40
1
 10
1837.769250
 20
2587.719760
 30
0.0
 10
1846.047450
 20
2595.997244
 30
0.0
 10
1869.983700
 20
2563.148223
 30
0.0
 10
1869.983700
 20
2543.510118
 30
0.0
  0
SPLINE
  5
23c
100
AcDbEntity
  8
0
 62
7
100
AcDbSpline
 70
8
 71
3
 72
8
 73
4
 74
0
 40
0
 40
0
 40
0
 40
0
 40
1
 40
1
 40
1
 40
1
 10
1869.983700
 20
2543.510118
 30
0.0
 10
1869.983700
 20
2487.591278
 30
0.0
 10
1792.445400
 20
2477.966287
 30
0.0
 10
1773.450975
 20
2531.527439
 30
0.0
  0
SPLINE
  5
23d
100
AcDbEntity
  8
0
 62
7
100
AcDbSpline
 70
8
 71
3
 72
8
 73
4
 74
0
 40
0
 40
0
 40
0
 40
0
 40
1
 40
1
 40
1
 40
1
 10
1773.450975
 20
2531.527439
 30
0.0
 10
1769.041425
 20
2543.960802
 30
0.0
 10
1729.411275
 20
2548.407938
 30
0.0
 10
1729.411275
 20
2536.469434
 30
0.0
  0
SPLINE
  5
23e
100
AcDbEntity
  8
0
 62
7
100
AcDbSpline
 70
8
 71
3
 72
8
 73
4
 74
0
 40
0
 40
0
 40
0
 40
0
 40
1
 40
1
 40
1
 40
1
 10
1729.411275
 20
2536.469434
 30
0.0
 10
1729.411275
 20
2532.845318
 30
0.0
 10
1726.116675
 20
2529.880122
 30
0.0
 10
1722.088575
 20
2529.880122
 30
0.0
  0
SPLINE
  5
23f
100
AcDbEntity
  8
0
 62
7
100
AcDbSpline
 70
8
 71
3
 72
8
 73
4
 74
0
 40
0
 40
0
 40
0
 40
0
 40
1
 40
1
 40
1
 40
1
 10
1722.088575
 20
2529.880122
 30
0.0
 10
1711.610400
 20
2529.880122
 30
0.0
 10
1720.920225
 20
2574.404728
 30
0.0
 10
1736.802525
 20
2600.247334
 30
0.0
  0
SPLINE
  5
240
100
AcDbEntity
  8
0
 62
7
100
AcDbSpline
 70
8
 71
3
 72
8
 73
4
 74
0
 40
0
 40
0
 40
0
 40
0
 40
1
 40
1
 40
1
 40
1
 10
1736.802525
 20
2600.247334
 30
0.0
 10
1750.815375
 20
2623.048314
 30
0.0
 10
1796.145225
 20
2648.487668
 30
0.0
 10
1822.760850
 20
2648.487668
 30
0.0
  0
SPLINE
  5
241
100
AcDbEntity
  8
0
 62
7
100
AcDbSpline
 70
8
 71
3
 72
8
 73
4
 74
0
 40
0
 40
0
 40
0
 40
0
 40
1
 40
1
 40
1
 40
1
 10
1822.760850
 20
2648.487668
 30
0.0
 10
1831.949700
 20
2648.487668
 30
0.0
 10
1853.345625
 20
2641.108290
 30
0.0
 10
1870.309200
 20
2632.088857
 30
0.0
  0
SPLINE
  5
242
100
AcDbEntity
  8
0
 62
7
100
AcDbSpline
 70
8
 71
3
 72
8
 73
4
 74
0
 40
0
 40
0
 40
0
 40
0
 40
1
 40
1
 40
1
 40
1
 10
1870.309200
 20
2632.088857
 30
0.0
 10
1896.166350
 20
2618.340256
 30
0.0
 10
1903.247175
 20
2616.999349
 30
0.0
 10
1914.120900
 20
2623.789607
 30
0.0
  0
SPLINE
  5
243
100
AcDbEntity
  8
0
 62
7
100
AcDbSpline
 70
8
 71
3
 72
8
 73
4
 74
0
 40
0
 40
0
 40
0
 40
0
 40
1
 40
1
 40
1
 40
1
 10
1914.120900
 20
2623.789607
 30
0.0
 10
1932.291450
 20
2635.137735
 30
0.0
 10
1930.332525
 20
2642.924317
 30
0.0
 10
1904.960550
 20
2660.198842
 30
0.0
  0
SPLINE
  5
244
100
AcDbEntity
  8
0
 62
7
100
AcDbSpline
 70
8
 71
3
 72
8
 73
4
 74
0
 40
0
 40
0
 40
0
 40
0
 40
1
 40
1
 40
1
 40
1
 10
1904.960550
 20
2660.198842
 30
0.0
 10
1843.044675
 20
2702.353275
 30
0.0
 10
1775.003550
 20
2695.885875
 30
0.0
 10
1721.919225
 20
2642.801753
 30
0.0
  0
SPLINE
  5
245
100
AcDbEntity
  8
0
 62
7
100
AcDbSpline
 70
8
 71
3
 72
8
 73
4
 74
0
 40
0
 40
0
 40
0
 40
0
 40
1
 40
1
 40
1
 40
1
 10
1721.919225
 20
2642.801753
 30
0.0
 10
1661.422125
 20
2582.304655
 30
0.0
 10
1661.845875
 20
2504.965970
 30
0.0
 10
1723.009650
 20
2443.535175
 30
0.0
  0
SPLINE
  5
246
100
AcDbEntity
  8
0
 62
7
100
AcDbSpline
 70
8
 71
3
 72
8
 73
4
 74
0
 40
0
 40
0
 40
0
 40
0
 40
1
 40
1
 40
1
 40
1
 10
1723.009650
 20
2443.535175
 30
0.0
 10
1781.477400
 20
2384.813242
 30
0.0
 10
1861.732500
 20
2384.822445
 30
0.0
 10
1920.467700
 20
2443.535175
 30
0.0
  0
SPLINE
  5
247
100
AcDbEntity
  8
0
 62
7
100
AcDbSpline
 70
8
 71
3
 72
8
 73
4
 74
0
 40
0
 40
0
 40
0
 40
0
 40
1
 40
1
 40
1
 40
1
 10
1920.467700
 20
2443.535175
 30
0.0
 10
1956.727350
 20
2479.794818
 30
0.0
 10
1970.586600
 20
2519.646266
 30
0.0
 10
1963.575525
 20
2567.493875
 30
0.0
  0
SPLINE
  5
248
100
AcDbEntity
  8
0
 62
7
100
AcDbSpline
 70
8
 71
3
 72
8
 73
4
 74
0
 40
0
 40
0
 40
0
 40
0
 40
1
 40
1
 40
1
 40
1
 10
1963.575525
 20
2567.493875
 30
0.0
 10
1959.888075
 20
2592.662389
 30
0.0
 10
1960.618275
 20
2597.423154
 30
0.0
 10
1967.182500
 20
2591.028237
 30
0.0
  0
SPLINE
  5
249
100
AcDbEntity
  8
0
 62
7
100
AcDbSpline
 70
8
 71
3
 72
8
 73
4
 74
0
 40
0
 40
0
 40
0
 40
0
 40
1
 40
1
 40
1
 40
1
 10
1967.182500
 20
2591.028237
 30
0.0
 10
1981.246875
 20
2577.327757
 30
0.0
 10
1977.244425
 20
2510.583322
 30
0.0
 10
1960.387800
 20
2477.694120
 30
0.0
  0
LWPOLYLINE
  5
24a
100
AcDbEntity
  8
0
 62
7
100
AcDbPolyline
 90
3
 70
0
 10
1740.907725
 20
2582.463446
 30
0.0
 10
1729.345650
 20
2559.532004
 30
0.0
 10
1749.104175
 20
2557.470216
 30
0.0
  0
SPLINE
  5
24b
100
AcDbEntity
  8
0
 62
7
100
AcDbSpline
 70
8
 71
3
 72
8
 73
4
 74
0
 40
0
 40
0
 40
0
 40
0
 40
1
 40
1
 40
1
 40
1
 10
1960.991775
 20
2436.711278
 30
0.0
 10
1975.334775
 20
2425.730190
 30
0.0
 10
1977.129825
 20
2425.651777
 30
0.0
 10
1984.679175
 20
2435.679390
 30
0.0
  0
SPLINE
  5
24c
100
AcDbEntity
  8
0
 62
7
100
AcDbSpline
 70
8
 71
3
 72
8
 73
4
 74
0
 40
0
 40
0
 40
0
 40
0
 40
1
 40
1
 40
1
 40
1
 10
1984.679175
 20
2435.679390
 30
0.0
 10
1997.802525
 20
2453.110087
 30
0.0
 10
2001.752025
 20
2440.468492
 30
0.0
 10
1989.178500
 20
2421.278452
 30
0.0
  0
SPLINE
  5
24d
100
AcDbEntity
  8
0
 62
7
100
AcDbSpline
 70
8
 71
3
 72
8
 73
4
 74
0
 40
0
 40
0
 40
0
 40
0
 40
1
 40
1
 40
1
 40
1
 10
1989.178500
 20
2421.278452
 30
0.0
 10
1978.133400
 20
2404.422367
 30
0.0
 10
1978.228350
 20
2403.309420
 30
0.0
 10
1991.860200
 20
2389.677450
 30
0.0
  0
SPLINE
  5
24e
100
AcDbEntity
  8
0
 62
7
100
AcDbSpline
 70
8
 71
3
 72
8
 73
4
 74
0
 40
0
 40
0
 40
0
 40
0
 40
1
 40
1
 40
1
 40
1
 10
1991.860200
 20
2389.677450
 30
0.0
 10
2005.845525
 20
2375.691660
 30
0.0
 10
2006.095050
 20
2375.679120
 30
0.0
 10
2016.347325
 20
2388.456450
 30
0.0
  0
SPLINE
  5
24f
100
AcDbEntity
  8
0
 62
7
100
AcDbSpline
 70
8
 71
3
 72
8
 73
4
 74
0
 40
0
 40
0
 40
0
 40
0
 40
1
 40
1
 40
1
 40
1
 10
2016.347325
 20
2388.456450
 30
0.0
 10
2039.063250
 20
2416.767412
 30
0.0
 10
2065.532700
 20
2482.432498
 30
0.0
 10
2069.489400
 20
2520.290698
 30
0.0
  0
SPLINE
  5
250
100
AcDbEntity
  8
0
 62
7
100
AcDbSpline
 70
8
 71
3
 72
8
 73
4
 74
0
 40
0
 40
0
 40
0
 40
0
 40
1
 40
1
 40
1
 40
1
 10
2069.489400
 20
2520.290698
 30
0.0
 10
2074.704225
 20
2570.180333
 30
0.0
 10
2059.454025
 20
2632.848592
 30
0.0
 10
2031.497475
 20
2676.415800
 30
0.0
  0
SPLINE
  5
251
100
AcDbEntity
  8
0
 62
7
100
AcDbSpline
 70
8
 71
3
 72
8
 73
4
 74
0
 40
0
 40
0
 40
0
 40
0
 40
1
 40
1
 40
1
 40
1
 10
2031.497475
 20
2676.415800
 30
0.0
 10
2000.009175
 20
2725.488345
 30
0.0
 10
1957.491750
 20
2757.941332
 30
0.0
 10
1890.849225
 20
2783.774070
 30
0.0
  0
SPLINE
  5
252
100
AcDbEntity
  8
0
 62
7
100
AcDbSpline
 70
8
 71
3
 72
8
 73
4
 74
0
 40
0
 40
0
 40
0
 40
0
 40
1
 40
1
 40
1
 40
1
 10
1890.849225
 20
2783.774070
 30
0.0
 10
1879.465800
 20
2788.186252
 30
0.0
 10
1879.185750
 20
2789.247142
 30
0.0
 10
1888.791675
 20
2791.561320
 30
0.0
  0
SPLINE
  5
253
100
AcDbEntity
  8
0
 62
7
100
AcDbSpline
 70
8
 71
3
 72
8
 73
4
 74
0
 40
0
 40
0
 40
0
 40
0
 40
1
 40
1
 40
1
 40
1
 10
1888.791675
 20
2791.561320
 30
0.0
 10
1907.311350
 20
2796.022252
 30
0.0
 10
1971.752325
 20
2760.067057
 30
0.0
 10
2005.221300
 20
2726.597325
 30
0.0
  0
SPLINE
  5
254
100
AcDbEntity
  8
0
 62
7
100
AcDbSpline
 70
8
 71
3
 72
8
 73
4
 74
0
 40
0
 40
0
 40
0
 40
0
 40
1
 40
1
 40
1
 40
1
 10
2005.221300
 20
2726.597325
 30
0.0
 10
2022.548550
 20
2709.270067
 30
0.0
 10
2044.533150
 20
2679.147712
 30
0.0
 10
2054.076375
 20
2659.657867
 30
0.0
  0
SPLINE
  5
255
100
AcDbEntity
  8
0
 62
7
100
AcDbSpline
 70
8
 71
3
 72
8
 73
4
 74
0
 40
0
 40
0
 40
0
 40
0
 40
1
 40
1
 40
1
 40
1
 10
2054.076375
 20
2659.657867
 30
0.0
 10
2072.233800
 20
2622.575863
 30
0.0
 10
2086.711275
 20
2553.405255
 30
0.0
 10
2080.936950
 20
2531.324506
 30
0.0
  0
SPLINE
  5
256
100
AcDbEntity
  8
0
 62
7
100
AcDbSpline
 70
8
 71
3
 72
8
 73
4
 74
0
 40
0
 40
0
 40
0
 40
0
 40
1
 40
1
 40
1
 40
1
 10
2080.936950
 20
2531.324506
 30
0.0
 10
2078.302050
 20
2521.247455
 30
0.0
 10
2081.640000
 20
2517.645079
 30
0.0
 10
2096.187450
 20
2514.863748
 30
0.0
  0
SPLINE
  5
257
100
AcDbEntity
  8
0
 62
7
100
AcDbSpline
 70
8
 71
3
 72
8
 73
4
 74
0
 40
0
 40
0
 40
0
 40
0
 40
1
 40
1
 40
1
 40
1
 10
2096.187450
 20
2514.863748
 30
0.0
 10
2120.897250
 20
2510.140524
 30
0.0
 10
2124.769800
 20
2513.442433
 30
0.0
 10
2124.769800
 20
2539.232986
 30
0.0
  0
SPLINE
  5
258
100
AcDbEntity
  8
0
 62
7
100
AcDbSpline
 70
8
 71
3
 72
8
 73
4
 74
0
 40
0
 40
0
 40
0
 40
0
 40
1
 40
1
 40
1
 40
1
 10
2124.769800
 20
2539.232986
 30
0.0
 10
2124.769800
 20
2602.726897
 30
0.0
 10
2092.477575
 20
2690.642107
 30
0.0
 10
2052.381675
 20
2736.309300
 30
0.0
  0
SPLINE
  5
259
100
AcDbEntity
  8
0
 62
7
100
AcDbSpline
 70
8
 71
3
 72
8
 73
4
 74
0
 40
0
 40
0
 40
0
 40
0
 40
1
 40
1
 40
1
 40
1
 10
2052.381675
 20
2736.309300
 30
0.0
 10
2040.493275
 20
2749.849657
 30
0.0
 10
2032.871325
 20
2763.033547
 30
0.0
 10
2035.444575
 20
2765.606693
 30
0.0
  0
SPLINE
  5
25a
100
AcDbEntity
  8
0
 62
7
100
AcDbSpline
 70
8
 71
3
 72
8
 73
4
 74
0
 40
0
 40
0
 40
0
 40
0
 40
1
 40
1
 40
1
 40
1
 10
2035.444575
 20
2765.606693
 30
0.0
 10
2042.970225
 20
2773.132335
 30
0.0
 10
2076.779775
 20
2728.188630
 30
0.0
 10
2103.285450
 20
2675.424750
 30
0.0
  0
SPLINE
  5
25b
100
AcDbEntity
  8
0
 62
7
100
AcDbSpline
 70
8
 71
3
 72
8
 73
4
 74
0
 40
0
 40
0
 40
0
 40
0
 40
1
 40
1
 40
1
 40
1
 10
2103.285450
 20
2675.424750
 30
0.0
 10
2125.963800
 20
2630.278110
 30
0.0
 10
2127.999300
 20
2621.475454
 30
0.0
 10
2130.333075
 20
2558.433571
 30
0.0
  0
SPLINE
  5
25c
100
AcDbEntity
  8
0
 62
7
100
AcDbSpline
 70
8
 71
3
 72
8
 73
4
 74
0
 40
0
 40
0
 40
0
 40
0
 40
1
 40
1
 40
1
 40
1
 10
2130.333075
 20
2558.433571
 30
0.0
 10
2132.233500
 20
2507.092965
 30
0.0
 10
2130.142275
 20
2481.956749
 30
0.0
 10
2121.852675
 20
2456.620207
 30
0.0
  0
SPLINE
  5
25d
100
AcDbEntity
  8
0
 62
7
100
AcDbSpline
 70
8
 71
3
 72
8
 73
4
 74
0
 40
0
 40
0
 40
0
 40
0
 40
1
 40
1
 40
1
 40
1
 10
2121.852675
 20
2456.620207
 30
0.0
 10
2115.800550
 20
2438.116770
 30
0.0
 10
2111.763225
 20
2422.062592
 30
0.0
 10
2112.880800
 20
2420.945032
 30
0.0
  0
SPLINE
  5
25e
100
AcDbEntity
  8
0
 62
7
100
AcDbSpline
 70
8
 71
3
 72
8
 73
4
 74
0
 40
0
 40
0
 40
0
 40
0
 40
1
 40
1
 40
1
 40
1
 10
2112.880800
 20
2420.945032
 30
0.0
 10
2113.998225
 20
2419.827495
 30
0.0
 10
2122.865550
 20
2416.917000
 30
0.0
 10
2132.585550
 20
2414.476980
 30
0.0
  0
SPLINE
  5
25f
100
AcDbEntity
  8
0
 62
7
100
AcDbSpline
 70
8
 71
3
 72
8
 73
4
 74
0
 40
0
 40
0
 40
0
 40
0
 40
1
 40
1
 40
1
 40
1
 10
2132.585550
 20
2414.476980
 30
0.0
 10
2149.302375
 20
2410.281562
 30
0.0
 10
2150.819925
 20
2411.936122
 30
0.0
 10
2160.671025
 20
2445.108697
 30
0.0
  0
SPLINE
  5
260
100
AcDbEntity
  8
0
 62
7
100
AcDbSpline
 70
8
 71
3
 72
8
 73
4
 74
0
 40
0
 40
0
 40
0
 40
0
 40
1
 40
1
 40
1
 40
1
 10
2160.671025
 20
2445.108697
 30
0.0
 10
2194.196925
 20
2558.001321
 30
0.0
 10
2171.486025
 20
2668.914510
 30
0.0
 10
2094.549375
 20
2768.032860
 30
0.0
  0
LWPOLYLINE
  5
261
100
AcDbEntity
  8
0
 62
7
100
AcDbPolyline
 90
3
 70
0
 10
1960.387800
 20
2477.694120
 30
0.0
 10
1945.472775
 20
2448.593122
 30
0.0
 10
1960.991775
 20
2436.711278
 30
0.0
  0
SPLINE
  5
262
100
AcDbEntity
  8
0
 62
7
100
AcDbSpline
 70
8
 71
3
 72
8
 73
4
 74
0
 40
0
 40
0
 40
0
 40
0
 40
1
 40
1
 40
1
 40
1
 10
2082.043950
 20
2815.956892
 30
0.0
 10
2091.047025
 20
2821.856317
 30
0.0
 10
2098.412475
 20
2830.809202
 30
0.0
 10
2098.412475
 20
2835.853305
 30
0.0
  0
SPLINE
  5
263
100
AcDbEntity
  8
0
 62
7
100
AcDbSpline
 70
8
 71
3
 72
8
 73
4
 74
0
 40
0
 40
0
 40
0
 40
0
 40
1
 40
1
 40
1
 40
1
 10
2098.412475
 20
2835.853305
 30
0.0
 10
2098.412475
 20
2856.362535
 30
0.0
 10
2000.668275
 20
2914.525695
 30
0.0
 10
1930.103850
 20
2936.004870
 30
0.0
  0
SPLINE
  5
264
100
AcDbEntity
  8
0
 62
7
100
AcDbSpline
 70
8
 71
3
 72
8
 73
4
 74
0
 40
0
 40
0
 40
0
 40
0
 40
1
 40
1
 40
1
 40
1
 10
1930.103850
 20
2936.004870
 30
0.0
 10
1898.827050
 20
2945.525085
 30
0.0
 10
1894.395675
 20
2948.397367
 30
0.0
 10
1908.299100
 20
2950.137615
 30
0.0
  0
SPLINE
  5
265
100
AcDbEntity
  8
0
 62
7
100
AcDbSpline
 70
8
 71
3
 72
8
 73
4
 74
0
 40
0
 40
0
 40
0
 40
0
 40
1
 40
1
 40
1
 40
1
 10
1908.299100
 20
2950.137615
 30
0.0
 10
1919.626200
 20
2951.554965
 30
0.0
 10
1927.108950
 20
2957.392447
 30
0.0
 10
1929.624675
 20
2966.774302
 30
0.0
  0
SPLINE
  5
266
100
AcDbEntity
  8
0
 62
7
100
AcDbSpline
 70
8
 71
3
 72
8
 73
4
 74
0
 40
0
 40
0
 40
0
 40
0
 40
1
 40
1
 40
1
 40
1
 10
1929.624675
 20
2966.774302
 30
0.0
 10
1935.646800
 20
2989.231312
 30
0.0
 10
1935.282975
 20
2989.682025
 30
0.0
 10
1907.322675
 20
2994.405885
 30
0.0
  0
SPLINE
  5
267
100
AcDbEntity
  8
0
 62
7
100
AcDbSpline
 70
8
 71
3
 72
8
 73
4
 74
0
 40
0
 40
0
 40
0
 40
0
 40
1
 40
1
 40
1
 40
1
 10
1907.322675
 20
2994.405885
 30
0.0
 10
1892.826150
 20
2996.855137
 30
0.0
 10
1880.965350
 20
3001.619880
 30
0.0
 10
1880.965350
 20
3004.994910
 30
0.0
  0
SPLINE
  5
268
100
AcDbEntity
  8
0
 62
7
100
AcDbSpline
 70
8
 71
3
 72
8
 73
4
 74
0
 40
0
 40
0
 40
0
 40
0
 40
1
 40
1
 40
1
 40
1
 10
1880.965350
 20
3004.994910
 30
0.0
 10
1880.965350
 20
3008.369295
 30
0.0
 10
1888.249950
 20
3009.302355
 30
0.0
 10
1897.152150
 20
3007.067902
 30
0.0
  0
SPLINE
  5
269
100
AcDbEntity
  8
0
 62
7
100
AcDbSpline
 70
8
 71
3
 72
8
 73
4
 74
0
 40
0
 40
0
 40
0
 40
0
 40
1
 40
1
 40
1
 40
1
 10
1897.152150
 20
3007.067902
 30
0.0
 10
1910.571900
 20
3003.699450
 30
0.0
 10
1914.057000
 20
3005.866695
 30
0.0
 10
1917.540750
 20
3019.746390
 30
0.0
  0
SPLINE
  5
26a
100
AcDbEntity
  8
0
 62
7
100
AcDbSpline
 70
8
 71
3
 72
8
 73
4
 74
0
 40
0
 40
0
 40
0
 40
0
 40
1
 40
1
 40
1
 40
1
 10
1917.540750
 20
3019.746390
 30
0.0
 10
1919.851575
 20
3028.953637
 30
0.0
 10
1919.997075
 20
3039.310702
 30
0.0
 10
1917.863700
 20
3042.762195
 30
0.0
  0
SPLINE
  5
26b
100
AcDbEntity
  8
0
 62
7
100
AcDbSpline
 70
8
 71
3
 72
8
 73
4
 74
0
 40
0
 40
0
 40
0
 40
0
 40
1
 40
1
 40
1
 40
1
 10
1917.863700
 20
3042.762195
 30
0.0
 10
1911.052725
 20
3053.781502
 30
0.0
 10
1814.451075
 20
3058.450005
 30
0.0
 10
1756.746525
 20
3050.549430
 30
0.0
  0
SPLINE
  5
26c
100
AcDbEntity
  8
0
 62
7
100
AcDbSpline
 70
8
 71
3
 72
8
 73
4
 74
0
 40
0
 40
0
 40
0
 40
0
 40
1
 40
1
 40
1
 40
1
 10
1756.746525
 20
3050.549430
 30
0.0
 10
1691.389725
 20
3041.600482
 30
0.0
 10
1613.448000
 20
3015.203722
 30
0.0
 10
1560.293400
 20
2984.016525
 30
0.0
  0
SPLINE
  5
26d
100
AcDbEntity
  8
0
 62
7
100
AcDbSpline
 70
8
 71
3
 72
8
 73
4
 74
0
 40
0
 40
0
 40
0
 40
0
 40
1
 40
1
 40
1
 40
1
 10
1560.293400
 20
2984.016525
 30
0.0
 10
1510.802400
 20
2954.978782
 30
0.0
 10
1409.720625
 20
2853.897472
 30
0.0
 10
1380.683475
 20
2804.406510
 30
0.0
  0
SPLINE
  5
26e
100
AcDbEntity
  8
0
 62
7
100
AcDbSpline
 70
8
 71
3
 72
8
 73
4
 74
0
 40
0
 40
0
 40
0
 40
0
 40
1
 40
1
 40
1
 40
1
 10
1380.683475
 20
2804.406510
 30
0.0
 10
1326.057300
 20
2711.304195
 30
0.0
 10
1300.458600
 20
2588.335180
 30
0.0
 10
1314.163725
 20
2484.863317
 30
0.0
  0
SPLINE
  5
26f
100
AcDbEntity
  8
0
 62
7
100
AcDbSpline
 70
8
 71
3
 72
8
 73
4
 74
0
 40
0
 40
0
 40
0
 40
0
 40
1
 40
1
 40
1
 40
1
 10
1314.163725
 20
2484.863317
 30
0.0
 10
1323.519975
 20
2414.225932
 30
0.0
 10
1347.219750
 20
2341.692802
 30
0.0
 10
1378.460250
 20
2288.084167
 30
0.0
  0
SPLINE
  5
270
100
AcDbEntity
  8
0
 62
7
100
AcDbSpline
 70
8
 71
3
 72
8
 73
4
 74
0
 40
0
 40
0
 40
0
 40
0
 40
1
 40
1
 40
1
 40
1
 10
1378.460250
 20
2288.084167
 30
0.0
 10
1399.097100
 20
2252.670585
 30
0.0
 10
1403.875800
 20
2248.158892
 30
0.0
 10
1414.642050
 20
2253.921240
 30
0.0
  0
SPLINE
  5
271
100
AcDbEntity
  8
0
 62
7
100
AcDbSpline
 70
8
 71
3
 72
8
 73
4
 74
0
 40
0
 40
0
 40
0
 40
0
 40
1
 40
1
 40
1
 40
1
 10
1414.642050
 20
2253.921240
 30
0.0
 10
1434.661125
 20
2264.634795
 30
0.0
 10
1434.946350
 20
2276.473815
 30
0.0
 10
1415.910600
 20
2306.627797
 30
0.0
  0
SPLINE
  5
272
100
AcDbEntity
  8
0
 62
7
100
AcDbSpline
 70
8
 71
3
 72
8
 73
4
 74
0
 40
0
 40
0
 40
0
 40
0
 40
1
 40
1
 40
1
 40
1
 10
1415.910600
 20
2306.627797
 30
0.0
 10
1406.054250
 20
2322.241830
 30
0.0
 10
1389.165225
 20
2358.841470
 30
0.0
 10
1378.379700
 20
2387.960280
 30
0.0
  0
SPLINE
  5
273
100
AcDbEntity
  8
0
 62
7
100
AcDbSpline
 70
8
 71
3
 72
8
 73
4
 74
0
 40
0
 40
0
 40
0
 40
0
 40
1
 40
1
 40
1
 40
1
 10
1378.379700
 20
2387.960280
 30
0.0
 10
1352.420475
 20
2458.044825
 30
0.0
 10
1345.703325
 20
2575.743025
 30
0.0
 10
1363.418175
 20
2650.119180
 30
0.0
  0
SPLINE
  5
274
100
AcDbEntity
  8
0
 62
7
100
AcDbSpline
 70
8
 71
3
 72
8
 73
4
 74
0
 40
0
 40
0
 40
0
 40
0
 40
1
 40
1
 40
1
 40
1
 10
1363.418175
 20
2650.119180
 30
0.0
 10
1395.427050
 20
2784.512722
 30
0.0
 10
1491.075375
 20
2904.681945
 30
0.0
 10
1614.333600
 20
2965.361542
 30
0.0
  0
SPLINE
  5
275
100
AcDbEntity
  8
0
 62
7
100
AcDbSpline
 70
8
 71
3
 72
8
 73
4
 74
0
 40
0
 40
0
 40
0
 40
0
 40
1
 40
1
 40
1
 40
1
 10
1614.333600
 20
2965.361542
 30
0.0
 10
1637.287725
 20
2976.661552
 30
0.0
 10
1659.459225
 20
2984.776275
 30
0.0
 10
1663.605375
 20
2983.394505
 30
0.0
  0
SPLINE
  5
276
100
AcDbEntity
  8
0
 62
7
100
AcDbSpline
 70
8
 71
3
 72
8
 73
4
 74
0
 40
0
 40
0
 40
0
 40
0
 40
1
 40
1
 40
1
 40
1
 10
1663.605375
 20
2983.394505
 30
0.0
 10
1667.751225
 20
2982.012727
 30
0.0
 10
1645.753425
 20
2968.007805
 30
0.0
 10
1614.721725
 20
2952.273195
 30
0.0
  0
SPLINE
  5
277
100
AcDbEntity
  8
0
 62
7
100
AcDbSpline
 70
8
 71
3
 72
8
 73
4
 74
0
 40
0
 40
0
 40
0
 40
0
 40
1
 40
1
 40
1
 40
1
 10
1614.721725
 20
2952.273195
 30
0.0
 10
1446.059325
 20
2866.753882
 30
0.0
 10
1342.563675
 20
2677.817332
 30
0.0
 10
1365.284850
 20
2496.913175
 30
0.0
  0
SPLINE
  5
278
100
AcDbEntity
  8
0
 62
7
100
AcDbSpline
 70
8
 71
3
 72
8
 73
4
 74
0
 40
0
 40
0
 40
0
 40
0
 40
1
 40
1
 40
1
 40
1
 10
1365.284850
 20
2496.913175
 30
0.0
 10
1369.153500
 20
2466.108165
 30
0.0
 10
1378.735575
 20
2421.630315
 30
0.0
 10
1386.578100
 20
2398.073565
 30
0.0
  0
SPLINE
  5
279
100
AcDbEntity
  8
0
 62
7
100
AcDbSpline
 70
8
 71
3
 72
8
 73
4
 74
0
 40
0
 40
0
 40
0
 40
0
 40
1
 40
1
 40
1
 40
1
 10
1386.578100
 20
2398.073565
 30
0.0
 10
1443.135675
 20
2228.185380
 30
0.0
 10
1605.244500
 20
2100.512932
 30
0.0
 10
1777.712325
 20
2090.026042
 30
0.0
  0
LWPOLYLINE
  5
27a
100
AcDbEntity
  8
0
 62
7
100
AcDbPolyline
 90
3
 70
0
 10
2094.549375
 20
2768.032860
 30
0.0
 10
2065.674975
 20
2805.231487
 30
0.0
 10
2082.043950
 20
2815.956892
 30
0.0
  0
SPLINE
  5
27b
100
AcDbEntity
  8
0
 62
7
100
AcDbSpline
 70
8
 71
3
 72
8
 73
4
 74
0
 40
0
 40
0
 40
0
 40
0
 40
1
 40
1
 40
1
 40
1
 10
1833.721350
 20
2105.552422
 30
0.0
 10
1831.605450
 20
2124.086850
 30
0.0
 10
1830.261450
 20
2124.733905
 30
0.0
 10
1785.419775
 20
2128.800180
 30
0.0
  0
SPLINE
  5
27c
100
AcDbEntity
  8
0
 62
7
100
AcDbSpline
 70
8
 71
3
 72
8
 73
4
 74
0
 40
0
 40
0
 40
0
 40
0
 40
1
 40
1
 40
1
 40
1
 10
1785.419775
 20
2128.800180
 30
0.0
 10
1715.766150
 20
2135.116680
 30
0.0
 10
1623.981750
 20
2164.889160
 30
0.0
 10
1623.981750
 20
2181.166710
 30
0.0
  0
SPLINE
  5
27d
100
AcDbEntity
  8
0
 62
7
100
AcDbSpline
 70
8
 71
3
 72
8
 73
4
 74
0
 40
0
 40
0
 40
0
 40
0
 40
1
 40
1
 40
1
 40
1
 10
1623.981750
 20
2181.166710
 30
0.0
 10
1623.981750
 20
2185.167097
 30
0.0
 10
1629.339000
 20
2184.812580
 30
0.0
 10
1637.868075
 20
2180.247510
 30
0.0
  0
SPLINE
  5
27e
100
AcDbEntity
  8
0
 62
7
100
AcDbSpline
 70
8
 71
3
 72
8
 73
4
 74
0
 40
0
 40
0
 40
0
 40
0
 40
1
 40
1
 40
1
 40
1
 10
1637.868075
 20
2180.247510
 30
0.0
 10
1652.905575
 20
2172.199987
 30
0.0
 10
1660.041825
 20
2176.536412
 30
0.0
 10
1665.597150
 20
2197.099665
 30
0.0
  0
SPLINE
  5
27f
100
AcDbEntity
  8
0
 62
7
100
AcDbSpline
 70
8
 71
3
 72
8
 73
4
 74
0
 40
0
 40
0
 40
0
 40
0
 40
1
 40
1
 40
1
 40
1
 10
1665.597150
 20
2197.099665
 30
0.0
 10
1668.476100
 20
2207.755230
 30
0.0
 10
1660.271550
 20
2215.955632
 30
0.0
 10
1622.745600
 20
2239.930162
 30
0.0
  0
SPLINE
  5
280
100
AcDbEntity
  8
0
 62
7
100
AcDbSpline
 70
8
 71
3
 72
8
 73
4
 74
0
 40
0
 40
0
 40
0
 40
0
 40
1
 40
1
 40
1
 40
1
 10
1622.745600
 20
2239.930162
 30
0.0
 10
1547.232750
 20
2288.174445
 30
0.0
 10
1490.336850
 20
2366.003392
 30
0.0
 10
1468.624275
 20
2450.754412
 30
0.0
  0
SPLINE
  5
281
100
AcDbEntity
  8
0
 62
7
100
AcDbSpline
 70
8
 71
3
 72
8
 73
4
 74
0
 40
0
 40
0
 40
0
 40
0
 40
1
 40
1
 40
1
 40
1
 10
1468.624275
 20
2450.754412
 30
0.0
 10
1453.871400
 20
2508.340328
 30
0.0
 10
1458.331200
 20
2617.506045
 30
0.0
 10
1477.440225
 20
2666.554245
 30
0.0
  0
SPLINE
  5
282
100
AcDbEntity
  8
0
 62
7
100
AcDbSpline
 70
8
 71
3
 72
8
 73
4
 74
0
 40
0
 40
0
 40
0
 40
0
 40
1
 40
1
 40
1
 40
1
 10
1477.440225
 20
2666.554245
 30
0.0
 10
1493.375625
 20
2707.458675
 30
0.0
 10
1524.920025
 20
2762.904397
 30
0.0
 10
1529.595075
 20
2758.229295
 30
0.0
  0
SPLINE
  5
283
100
AcDbEntity
  8
0
 62
7
100
AcDbSpline
 70
8
 71
3
 72
8
 73
4
 74
0
 40
0
 40
0
 40
0
 40
0
 40
1
 40
1
 40
1
 40
1
 10
1529.595075
 20
2758.229295
 30
0.0
 10
1531.405125
 20
2756.419207
 30
0.0
 10
1520.710875
 20
2730.240532
 30
0.0
 10
1505.830050
 20
2700.055590
 30
0.0
  0
SPLINE
  5
284
100
AcDbEntity
  8
0
 62
7
100
AcDbSpline
 70
8
 71
3
 72
8
 73
4
 74
0
 40
0
 40
0
 40
0
 40
0
 40
1
 40
1
 40
1
 40
1
 10
1505.830050
 20
2700.055590
 30
0.0
 10
1455.325875
 20
2597.608990
 30
0.0
 10
1455.234975
 20
2489.039611
 30
0.0
 10
1505.566575
 20
2386.797937
 30
0.0
  0
SPLINE
  5
285
100
AcDbEntity
  8
0
 62
7
100
AcDbSpline
 70
8
 71
3
 72
8
 73
4
 74
0
 40
0
 40
0
 40
0
 40
0
 40
1
 40
1
 40
1
 40
1
 10
1505.566575
 20
2386.797937
 30
0.0
 10
1529.783175
 20
2337.606772
 30
0.0
 10
1584.792450
 20
2275.894612
 30
0.0
 10
1630.661400
 20
2246.460832
 30
0.0
  0
SPLINE
  5
286
100
AcDbEntity
  8
0
 62
7
100
AcDbSpline
 70
8
 71
3
 72
8
 73
4
 74
0
 40
0
 40
0
 40
0
 40
0
 40
1
 40
1
 40
1
 40
1
 10
1630.661400
 20
2246.460832
 30
0.0
 10
1743.845925
 20
2173.830187
 30
0.0
 10
1899.263850
 20
2173.386727
 30
0.0
 10
2009.930775
 20
2245.377547
 30
0.0
  0
SPLINE
  5
287
100
AcDbEntity
  8
0
 62
7
100
AcDbSpline
 70
8
 71
3
 72
8
 73
4
 74
0
 40
0
 40
0
 40
0
 40
0
 40
1
 40
1
 40
1
 40
1
 10
2009.930775
 20
2245.377547
 30
0.0
 10
2047.620225
 20
2269.895707
 30
0.0
 10
2097.195600
 20
2318.263867
 30
0.0
 10
2118.710325
 20
2351.508892
 30
0.0
  0
SPLINE
  5
288
100
AcDbEntity
  8
0
 62
7
100
AcDbSpline
 70
8
 71
3
 72
8
 73
4
 74
0
 40
0
 40
0
 40
0
 40
0
 40
1
 40
1
 40
1
 40
1
 10
2118.710325
 20
2351.508892
 30
0.0
 10
2124.417225
 20
2360.327362
 30
0.0
 10
2130.895800
 20
2364.615675
 30
0.0
 10
2133.106500
 20
2361.038347
 30
0.0
  0
SPLINE
  5
289
100
AcDbEntity
  8
0
 62
7
100
AcDbSpline
 70
8
 71
3
 72
8
 73
4
 74
0
 40
0
 40
0
 40
0
 40
0
 40
1
 40
1
 40
1
 40
1
 10
2133.106500
 20
2361.038347
 30
0.0
 10
2140.307475
 20
2349.387135
 30
0.0
 10
2077.961250
 20
2279.330932
 30
0.0
 10
2031.109350
 20
2246.427885
 30
0.0
  0
SPLINE
  5
28a
100
AcDbEntity
  8
0
 62
7
100
AcDbSpline
 70
8
 71
3
 72
8
 73
4
 74
0
 40
0
 40
0
 40
0
 40
0
 40
1
 40
1
 40
1
 40
1
 10
2031.109350
 20
2246.427885
 30
0.0
 10
1961.472900
 20
2197.524015
 30
0.0
 10
1914.516825
 20
2183.825497
 30
0.0
 10
1818.365100
 20
2184.363187
 30
0.0
  0
SPLINE
  5
28b
100
AcDbEntity
  8
0
 62
7
100
AcDbSpline
 70
8
 71
3
 72
8
 73
4
 74
0
 40
0
 40
0
 40
0
 40
0
 40
1
 40
1
 40
1
 40
1
 10
1818.365100
 20
2184.363187
 30
0.0
 10
1761.541500
 20
2184.679477
 30
0.0
 10
1731.347400
 20
2187.867382
 30
0.0
 10
1711.052325
 20
2195.685600
 30
0.0
  0
LWPOLYLINE
  5
28c
100
AcDbEntity
  8
0
 62
7
100
AcDbPolyline
 90
3
 70
0
 10
1777.712325
 20
2090.026042
 30
0.0
 10
1835.897250
 20
2086.487580
 30
0.0
 10
1833.721350
 20
2105.552422
 30
0.0
  0
SPLINE
  5
28d
100
AcDbEntity
  8
0
 62
7
100
AcDbSpline
 70
8
 71
3
 72
8
 73
4
 74
0
 40
0
 40
0
 40
0
 40
0
 40
1
 40
1
 40
1
 40
1
 10
1675.319775
 20
2190.122910
 30
0.0
 10
1670.690700
 20
2179.962855
 30
0.0
 10
1670.173500
 20
2171.333497
 30
0.0
 10
1673.967600
 20
2167.539367
 30
0.0
  0
SPLINE
  5
28e
100
AcDbEntity
  8
0
 62
7
100
AcDbSpline
 70
8
 71
3
 72
8
 73
4
 74
0
 40
0
 40
0
 40
0
 40
0
 40
1
 40
1
 40
1
 40
1
 10
1673.967600
 20
2167.539367
 30
0.0
 10
1685.226825
 20
2156.280225
 30
0.0
 10
1760.717025
 20
2140.610842
 30
0.0
 10
1810.759050
 20
2139.146040
 30
0.0
  0
SPLINE
  5
28f
100
AcDbEntity
  8
0
 62
7
100
AcDbSpline
 70
8
 71
3
 72
8
 73
4
 74
0
 40
0
 40
0
 40
0
 40
0
 40
1
 40
1
 40
1
 40
1
 10
1810.759050
 20
2139.146040
 30
0.0
 10
1837.948425
 20
2138.350065
 30
0.0
 10
1862.396025
 20
2135.496885
 30
0.0
 10
1865.087850
 20
2132.805810
 30
0.0
  0
SPLINE
  5
290
100
AcDbEntity
  8
0
 62
7
100
AcDbSpline
 70
8
 71
3
 72
8
 73
4
 74
0
 40
0
 40
0
 40
0
 40
0
 40
1
 40
1
 40
1
 40
1
 10
1865.087850
 20
2132.805810
 30
0.0
 10
1867.779675
 20
2130.114075
 30
0.0
 10
1863.360150
 20
2127.911925
 30
0.0
 10
1855.267125
 20
2127.911925
 30
0.0
  0
SPLINE
  5
291
100
AcDbEntity
  8
0
 62
7
100
AcDbSpline
 70
8
 71
3
 72
8
 73
4
 74
0
 40
0
 40
0
 40
0
 40
0
 40
1
 40
1
 40
1
 40
1
 10
1855.267125
 20
2127.911925
 30
0.0
 10
1843.101900
 20
2127.911925
 30
0.0
 10
1840.913550
 20
2124.772125
 30
0.0
 10
1842.637500
 20
2109.791332
 30
0.0
  0
SPLINE
  5
292
100
AcDbEntity
  8
0
 62
7
100
AcDbSpline
 70
8
 71
3
 72
8
 73
4
 74
0
 40
0
 40
0
 40
0
 40
0
 40
1
 40
1
 40
1
 40
1
 10
1842.637500
 20
2109.791332
 30
0.0
 10
1844.621475
 20
2092.547107
 30
0.0
 10
1846.395300
 20
2091.684577
 30
0.0
 10
1879.316325
 20
2091.952110
 30
0.0
  0
SPLINE
  5
293
100
AcDbEntity
  8
0
 62
7
100
AcDbSpline
 70
8
 71
3
 72
8
 73
4
 74
0
 40
0
 40
0
 40
0
 40
0
 40
1
 40
1
 40
1
 40
1
 10
1879.316325
 20
2091.952110
 30
0.0
 10
1898.342700
 20
2092.110247
 30
0.0
 10
1913.910000
 20
2090.253375
 30
0.0
 10
1913.910000
 20
2087.833777
 30
0.0
  0
SPLINE
  5
294
100
AcDbEntity
  8
0
 62
7
100
AcDbSpline
 70
8
 71
3
 72
8
 73
4
 74
0
 40
0
 40
0
 40
0
 40
0
 40
1
 40
1
 40
1
 40
1
 10
1913.910000
 20
2087.833777
 30
0.0
 10
1913.910000
 20
2072.875402
 30
0.0
 10
1786.611000
 20
2071.052790
 30
0.0
 10
1719.525450
 20
2085.050452
 30
0.0
  0
SPLINE
  5
295
100
AcDbEntity
  8
0
 62
7
100
AcDbSpline
 70
8
 71
3
 72
8
 73
4
 74
0
 40
0
 40
0
 40
0
 40
0
 40
1
 40
1
 40
1
 40
1
 10
1719.525450
 20
2085.050452
 30
0.0
 10
1643.647575
 20
2100.883260
 30
0.0
 10
1560.932700
 20
2146.167615
 30
0.0
 10
1496.517600
 20
2207.141760
 30
0.0
  0
LWPOLYLINE
  5
296
100
AcDbEntity
  8
0
 62
7
100
AcDbPolyline
 90
3
 70
0
 10
1711.052325
 20
2195.685600
 30
0.0
 10
1682.811825
 20
2206.565865
 30
0.0
 10
1675.319775
 20
2190.122910
 30
0.0
  0
SPLINE
  5
297
100
AcDbEntity
  8
0
 62
7
100
AcDbSpline
 70
8
 71
3
 72
8
 73
4
 74
0
 40
0
 40
0
 40
0
 40
0
 40
1
 40
1
 40
1
 40
1
 10
1446.478950
 20
2197.217617
 30
0.0
 10
1515.786600
 20
2123.809425
 30
0.0
 10
1613.365725
 20
2067.418800
 30
0.0
 10
1707.647700
 20
2046.290182
 30
0.0
  0
SPLINE
  5
298
100
AcDbEntity
  8
0
 62
7
100
AcDbSpline
 70
8
 71
3
 72
8
 73
4
 74
0
 40
0
 40
0
 40
0
 40
0
 40
1
 40
1
 40
1
 40
1
 10
1707.647700
 20
2046.290182
 30
0.0
 10
1734.189975
 20
2040.342007
 30
0.0
 10
1784.394450
 20
2035.661632
 30
0.0
 10
1821.659775
 20
2035.661632
 30
0.0
  0
SPLINE
  5
299
100
AcDbEntity
  8
0
 62
7
100
AcDbSpline
 70
8
 71
3
 72
8
 73
4
 74
0
 40
0
 40
0
 40
0
 40
0
 40
1
 40
1
 40
1
 40
1
 10
1821.659775
 20
2035.661632
 30
0.0
 10
1901.406075
 20
2035.661632
 30
0.0
 10
1965.787725
 20
2048.985855
 30
0.0
 10
2031.465300
 20
2079.082522
 30
0.0
  0
SPLINE
  5
29a
100
AcDbEntity
  8
0
 62
7
100
AcDbSpline
 70
8
 71
3
 72
8
 73
4
 74
0
 40
0
 40
0
 40
0
 40
0
 40
1
 40
1
 40
1
 40
1
 10
2031.465300
 20
2079.082522
 30
0.0
 10
2272.614825
 20
2189.589172
 30
0.0
 10
2389.242150
 20
2455.967212
 30
0.0
 10
2305.844025
 20
2705.767860
 30
0.0
  0
SPLINE
  5
29b
100
AcDbEntity
  8
0
 62
7
100
AcDbSpline
 70
8
 71
3
 72
8
 73
4
 74
0
 40
0
 40
0
 40
0
 40
0
 40
1
 40
1
 40
1
 40
1
 10
2305.844025
 20
2705.767860
 30
0.0
 10
2296.401375
 20
2734.050495
 30
0.0
 10
2279.763450
 20
2773.073025
 30
0.0
 10
2268.869475
 20
2792.484465
 30
0.0
  0
SPLINE
  5
29c
100
AcDbEntity
  8
0
 62
7
100
AcDbSpline
 70
8
 71
3
 72
8
 73
4
 74
0
 40
0
 40
0
 40
0
 40
0
 40
1
 40
1
 40
1
 40
1
 10
2268.869475
 20
2792.484465
 30
0.0
 10
2257.542375
 20
2812.668180
 30
0.0
 10
2252.782200
 20
2826.592703
 30
0.0
 10
2257.750500
 20
2825.009288
 30
0.0
  0
SPLINE
  5
29d
100
AcDbEntity
  8
0
 62
7
100
AcDbSpline
 70
8
 71
3
 72
8
 73
4
 74
0
 40
0
 40
0
 40
0
 40
0
 40
1
 40
1
 40
1
 40
1
 10
2257.750500
 20
2825.009288
 30
0.0
 10
2272.886775
 20
2820.186570
 30
0.0
 10
2314.743525
 20
2727.610080
 30
0.0
 10
2328.737175
 20
2668.003207
 30
0.0
  0
SPLINE
  5
29e
100
AcDbEntity
  8
0
 62
7
100
AcDbSpline
 70
8
 71
3
 72
8
 73
4
 74
0
 40
0
 40
0
 40
0
 40
0
 40
1
 40
1
 40
1
 40
1
 10
2328.737175
 20
2668.003207
 30
0.0
 10
2345.269275
 20
2597.585905
 30
0.0
 10
2346.571275
 20
2496.303013
 30
0.0
 10
2331.808650
 20
2429.026162
 30
0.0
  0
SPLINE
  5
29f
100
AcDbEntity
  8
0
 62
7
100
AcDbSpline
 70
8
 71
3
 72
8
 73
4
 74
0
 40
0
 40
0
 40
0
 40
0
 40
1
 40
1
 40
1
 40
1
 10
2331.808650
 20
2429.026162
 30
0.0
 10
2317.541925
 20
2364.008145
 30
0.0
 10
2265.286200
 20
2258.806552
 30
0.0
 10
2222.468250
 20
2208.903750
 30
0.0
  0
SPLINE
  5
2a0
100
AcDbEntity
  8
0
 62
7
100
AcDbSpline
 70
8
 71
3
 72
8
 73
4
 74
0
 40
0
 40
0
 40
0
 40
0
 40
1
 40
1
 40
1
 40
1
 10
2222.468250
 20
2208.903750
 30
0.0
 10
2153.457000
 20
2128.472025
 30
0.0
 10
2054.030250
 20
2064.727065
 30
0.0
 10
1956.740475
 20
2038.539172
 30
0.0
  0
SPLINE
  5
2a1
100
AcDbEntity
  8
0
 62
7
100
AcDbSpline
 70
8
 71
3
 72
8
 73
4
 74
0
 40
0
 40
0
 40
0
 40
0
 40
1
 40
1
 40
1
 40
1
 10
1956.740475
 20
2038.539172
 30
0.0
 10
1902.457800
 20
2023.927387
 30
0.0
 10
1770.768450
 20
2020.376407
 30
0.0
 10
1716.230925
 20
2032.053315
 30
0.0
  0
LWPOLYLINE
  5
2a2
100
AcDbEntity
  8
0
 62
7
100
AcDbPolyline
 90
5
 70
0
 10
1496.517600
 20
2207.141760
 30
0.0
 10
1440.969675
 20
2259.722475
 30
0.0
 10
1425.808875
 20
2247.445935
 30
0.0
 10
1410.647700
 20
2235.168727
 30
0.0
 10
1446.478950
 20
2197.217617
 30
0.0
  0
SPLINE
  5
2a3
100
AcDbEntity
  8
0
 62
7
100
AcDbSpline
 70
8
 71
3
 72
8
 73
4
 74
0
 40
0
 40
0
 40
0
 40
0
 40
1
 40
1
 40
1
 40
1
 10
1563.162075
 20
2216.552625
 30
0.0
 10
1494.647100
 20
2268.868432
 30
0.0
 10
1439.196600
 20
2354.267182
 30
0.0
 10
1416.859650
 20
2441.871367
 30
0.0
  0
SPLINE
  5
2a4
100
AcDbEntity
  8
0
 62
7
100
AcDbSpline
 70
8
 71
3
 72
8
 73
4
 74
0
 40
0
 40
0
 40
0
 40
0
 40
1
 40
1
 40
1
 40
1
 10
1416.859650
 20
2441.871367
 30
0.0
 10
1396.260150
 20
2522.664167
 30
0.0
 10
1405.896300
 20
2636.687535
 30
0.0
 10
1439.800950
 20
2713.335030
 30
0.0
  0
SPLINE
  5
2a5
100
AcDbEntity
  8
0
 62
7
100
AcDbSpline
 70
8
 71
3
 72
8
 73
4
 74
0
 40
0
 40
0
 40
0
 40
0
 40
1
 40
1
 40
1
 40
1
 10
1439.800950
 20
2713.335030
 30
0.0
 10
1459.462800
 20
2757.783855
 30
0.0
 10
1462.932150
 20
2741.114227
 30
0.0
 10
1443.944850
 20
2693.422793
 30
0.0
  0
SPLINE
  5
2a6
100
AcDbEntity
  8
0
 62
7
100
AcDbSpline
 70
8
 71
3
 72
8
 73
4
 74
0
 40
0
 40
0
 40
0
 40
0
 40
1
 40
1
 40
1
 40
1
 10
1443.944850
 20
2693.422793
 30
0.0
 10
1377.178800
 20
2525.721608
 30
0.0
 10
1432.781400
 20
2328.203827
 30
0.0
 10
1577.657925
 20
2218.429912
 30
0.0
  0
SPLINE
  5
2a7
100
AcDbEntity
  8
0
 62
7
100
AcDbSpline
 70
8
 71
3
 72
8
 73
4
 74
0
 40
0
 40
0
 40
0
 40
0
 40
1
 40
1
 40
1
 40
1
 10
1577.657925
 20
2218.429912
 30
0.0
 10
1590.231525
 20
2208.902437
 30
0.0
 10
1598.850900
 20
2199.438210
 30
0.0
 10
1596.811650
 20
2197.398825
 30
0.0
  0
SPLINE
  5
2a8
100
AcDbEntity
  8
0
 62
7
100
AcDbSpline
 70
8
 71
3
 72
8
 73
4
 74
0
 40
0
 40
0
 40
0
 40
0
 40
1
 40
1
 40
1
 40
1
 10
1596.811650
 20
2197.398825
 30
0.0
 10
1594.772175
 20
2195.359432
 30
0.0
 10
1579.629975
 20
2203.978905
 30
0.0
 10
1563.162075
 20
2216.552625
 30
0.0
  0
LWPOLYLINE
  5
2a9
100
AcDbEntity
  8
0
 62
7
100
AcDbPolyline
 90
2
 70
0
 10
1716.230925
 20
2032.053315
 30
0.0
 10
1716.234225
 20
2032.069792
 30
0.0
  0
SPLINE
  5
2aa
100
AcDbEntity
  8
0
 62
7
100
AcDbSpline
 70
8
 71
3
 72
8
 73
4
 74
0
 40
0
 40
0
 40
0
 40
0
 40
1
 40
1
 40
1
 40
1
 10
1702.347150
 20
2255.459197
 30
0.0
 10
1682.024475
 20
2263.819050
 30
0.0
 10
1656.811875
 20
2276.772315
 30
0.0
 10
1646.317800
 20
2284.244587
 30
0.0
  0
SPLINE
  5
2ab
100
AcDbEntity
  8
0
 62
7
100
AcDbSpline
 70
8
 71
3
 72
8
 73
4
 74
0
 40
0
 40
0
 40
0
 40
0
 40
1
 40
1
 40
1
 40
1
 10
1646.317800
 20
2284.244587
 30
0.0
 10
1605.535275
 20
2313.284310
 30
0.0
 10
1538.322975
 20
2394.186510
 30
0.0
 10
1538.322975
 20
2414.235787
 30
0.0
  0
SPLINE
  5
2ac
100
AcDbEntity
  8
0
 62
7
100
AcDbSpline
 70
8
 71
3
 72
8
 73
4
 74
0
 40
0
 40
0
 40
0
 40
0
 40
1
 40
1
 40
1
 40
1
 10
1538.322975
 20
2414.235787
 30
0.0
 10
1538.322975
 20
2424.940793
 30
0.0
 10
1550.932275
 20
2415.392243
 30
0.0
 10
1557.468825
 20
2399.737358
 30
0.0
  0
SPLINE
  5
2ad
100
AcDbEntity
  8
0
 62
7
100
AcDbSpline
 70
8
 71
3
 72
8
 73
4
 74
0
 40
0
 40
0
 40
0
 40
0
 40
1
 40
1
 40
1
 40
1
 10
1557.468825
 20
2399.737358
 30
0.0
 10
1561.629900
 20
2389.771020
 30
0.0
 10
1575.317925
 20
2369.755995
 30
0.0
 10
1587.885675
 20
2355.259523
 30
0.0
  0
LWPOLYLINE
  5
2ae
100
AcDbEntity
  8
0
 62
7
100
AcDbPolyline
 90
1
 70
1
 10
1563.162075
 20
2216.552625
 30
0.0
  0
SPLINE
  5
2af
100
AcDbEntity
  8
0
 62
7
100
AcDbSpline
 70
8
 71
3
 72
8
 73
4
 74
0
 40
0
 40
0
 40
0
 40
0
 40
1
 40
1
 40
1
 40
1
 10
1617.556650
 20
2383.822845
 30
0.0
 10
1556.392875
 20
2460.245647
 30
0.0
 10
1545.561900
 20
2572.083320
 30
0.0
 10
1590.741525
 20
2660.709525
 30
0.0
  0
SPLINE
  5
2b0
100
AcDbEntity
  8
0
 62
7
100
AcDbSpline
 70
8
 71
3
 72
8
 73
4
 74
0
 40
0
 40
0
 40
0
 40
0
 40
1
 40
1
 40
1
 40
1
 10
1590.741525
 20
2660.709525
 30
0.0
 10
1610.195025
 20
2698.869510
 30
0.0
 10
1672.771125
 20
2766.625388
 30
0.0
 10
1680.980175
 20
2758.417080
 30
0.0
  0
SPLINE
  5
2b1
100
AcDbEntity
  8
0
 62
7
100
AcDbSpline
 70
8
 71
3
 72
8
 73
4
 74
0
 40
0
 40
0
 40
0
 40
0
 40
1
 40
1
 40
1
 40
1
 10
1680.980175
 20
2758.417080
 30
0.0
 10
1683.501675
 20
2755.894695
 30
0.0
 10
1673.548650
 20
2743.546342
 30
0.0
 10
1658.862450
 20
2730.974595
 30
0.0
  0
SPLINE
  5
2b2
100
AcDbEntity
  8
0
 62
7
100
AcDbSpline
 70
8
 71
3
 72
8
 73
4
 74
0
 40
0
 40
0
 40
0
 40
0
 40
1
 40
1
 40
1
 40
1
 10
1658.862450
 20
2730.974595
 30
0.0
 10
1575.373275
 20
2659.511580
 30
0.0
 10
1550.128425
 20
2540.354498
 30
0.0
 10
1597.177350
 20
2439.814185
 30
0.0
  0
SPLINE
  5
2b3
100
AcDbEntity
  8
0
 62
7
100
AcDbSpline
 70
8
 71
3
 72
8
 73
4
 74
0
 40
0
 40
0
 40
0
 40
0
 40
1
 40
1
 40
1
 40
1
 10
1597.177350
 20
2439.814185
 30
0.0
 10
1641.680850
 20
2344.712025
 30
0.0
 10
1749.574800
 20
2283.518437
 30
0.0
 10
1849.401525
 20
2296.760963
 30
0.0
  0
SPLINE
  5
2b4
100
AcDbEntity
  8
0
 62
7
100
AcDbSpline
 70
8
 71
3
 72
8
 73
4
 74
0
 40
0
 40
0
 40
0
 40
0
 40
1
 40
1
 40
1
 40
1
 10
1849.401525
 20
2296.760963
 30
0.0
 10
1885.183575
 20
2301.507907
 30
0.0
 10
1889.591100
 20
2305.336298
 30
0.0
 10
1884.154275
 20
2326.951860
 30
0.0
  0
SPLINE
  5
2b5
100
AcDbEntity
  8
0
 62
7
100
AcDbSpline
 70
8
 71
3
 72
8
 73
4
 74
0
 40
0
 40
0
 40
0
 40
0
 40
1
 40
1
 40
1
 40
1
 10
1884.154275
 20
2326.951860
 30
0.0
 10
1880.530125
 20
2341.359382
 30
0.0
 10
1877.456850
 20
2342.080913
 30
0.0
 10
1819.706850
 20
2342.080913
 30
0.0
  0
SPLINE
  5
2b6
100
AcDbEntity
  8
0
 62
7
100
AcDbSpline
 70
8
 71
3
 72
8
 73
4
 74
0
 40
0
 40
0
 40
0
 40
0
 40
1
 40
1
 40
1
 40
1
 10
1819.706850
 20
2342.080913
 30
0.0
 10
1764.895050
 20
2342.080913
 30
0.0
 10
1755.695475
 20
2343.947662
 30
0.0
 10
1724.016750
 20
2361.495638
 30
0.0
  0
SPLINE
  5
2b7
100
AcDbEntity
  8
0
 62
7
100
AcDbSpline
 70
8
 71
3
 72
8
 73
4
 74
0
 40
0
 40
0
 40
0
 40
0
 40
1
 40
1
 40
1
 40
1
 10
1724.016750
 20
2361.495638
 30
0.0
 10
1602.051975
 20
2429.059110
 30
0.0
 10
1577.793600
 20
2587.468038
 30
0.0
 10
1674.173550
 20
2686.975140
 30
0.0
  0
SPLINE
  5
2b8
100
AcDbEntity
  8
0
 62
7
100
AcDbSpline
 70
8
 71
3
 72
8
 73
4
 74
0
 40
0
 40
0
 40
0
 40
0
 40
1
 40
1
 40
1
 40
1
 10
1674.173550
 20
2686.975140
 30
0.0
 10
1693.565100
 20
2706.996120
 30
0.0
 10
1711.346400
 20
2721.460942
 30
0.0
 10
1713.687375
 20
2719.119780
 30
0.0
  0
SPLINE
  5
2b9
100
AcDbEntity
  8
0
 62
7
100
AcDbSpline
 70
8
 71
3
 72
8
 73
4
 74
0
 40
0
 40
0
 40
0
 40
0
 40
1
 40
1
 40
1
 40
1
 10
1713.687375
 20
2719.119780
 30
0.0
 10
1716.028500
 20
2716.778587
 30
0.0
 10
1704.009825
 20
2701.320060
 30
0.0
 10
1686.978450
 20
2684.767732
 30
0.0
  0
SPLINE
  5
2ba
100
AcDbEntity
  8
0
 62
7
100
AcDbSpline
 70
8
 71
3
 72
8
 73
4
 74
0
 40
0
 40
0
 40
0
 40
0
 40
1
 40
1
 40
1
 40
1
 10
1686.978450
 20
2684.767732
 30
0.0
 10
1643.531850
 20
2642.542118
 30
0.0
 10
1627.850625
 20
2604.705659
 30
0.0
 10
1628.245800
 20
2543.054776
 30
0.0
  0
SPLINE
  5
2bb
100
AcDbEntity
  8
0
 62
7
100
AcDbSpline
 70
8
 71
3
 72
8
 73
4
 74
0
 40
0
 40
0
 40
0
 40
0
 40
1
 40
1
 40
1
 40
1
 10
1628.245800
 20
2543.054776
 30
0.0
 10
1628.628075
 20
2483.312194
 30
0.0
 10
1639.995300
 20
2454.711285
 30
0.0
 10
1680.604350
 20
2411.296328
 30
0.0
  0
SPLINE
  5
2bc
100
AcDbEntity
  8
0
 62
7
100
AcDbSpline
 70
8
 71
3
 72
8
 73
4
 74
0
 40
0
 40
0
 40
0
 40
0
 40
1
 40
1
 40
1
 40
1
 10
1680.604350
 20
2411.296328
 30
0.0
 10
1730.107200
 20
2358.373628
 30
0.0
 10
1801.252650
 20
2336.761365
 30
0.0
 10
1867.779900
 20
2354.436532
 30
0.0
  0
SPLINE
  5
2bd
100
AcDbEntity
  8
0
 62
7
100
AcDbSpline
 70
8
 71
3
 72
8
 73
4
 74
0
 40
0
 40
0
 40
0
 40
0
 40
1
 40
1
 40
1
 40
1
 10
1867.779900
 20
2354.436532
 30
0.0
 10
1904.587575
 20
2364.215708
 30
0.0
 10
1919.681700
 20
2362.699523
 30
0.0
 10
1899.264075
 20
2351.273003
 30
0.0
  0
SPLINE
  5
2be
100
AcDbEntity
  8
0
 62
7
100
AcDbSpline
 70
8
 71
3
 72
8
 73
4
 74
0
 40
0
 40
0
 40
0
 40
0
 40
1
 40
1
 40
1
 40
1
 10
1899.264075
 20
2351.273003
 30
0.0
 10
1889.887500
 20
2346.025275
 30
0.0
 10
1889.271525
 20
2342.231153
 30
0.0
 10
1895.555625
 20
2328.439717
 30
0.0
  0
SPLINE
  5
2bf
100
AcDbEntity
  8
0
 62
7
100
AcDbSpline
 70
8
 71
3
 72
8
 73
4
 74
0
 40
0
 40
0
 40
0
 40
0
 40
1
 40
1
 40
1
 40
1
 10
1895.555625
 20
2328.439717
 30
0.0
 10
1901.927550
 20
2314.454580
 30
0.0
 10
1906.090575
 20
2312.558175
 30
0.0
 10
1922.505375
 20
2316.163837
 30
0.0
  0
SPLINE
  5
2c0
100
AcDbEntity
  8
0
 62
7
100
AcDbSpline
 70
8
 71
3
 72
8
 73
4
 74
0
 40
0
 40
0
 40
0
 40
0
 40
1
 40
1
 40
1
 40
1
 10
1922.505375
 20
2316.163837
 30
0.0
 10
1955.347050
 20
2323.376505
 30
0.0
 10
1936.593900
 20
2307.214905
 30
0.0
 10
1899.255675
 20
2296.127085
 30
0.0
  0
SPLINE
  5
2c1
100
AcDbEntity
  8
0
 62
7
100
AcDbSpline
 70
8
 71
3
 72
8
 73
4
 74
0
 40
0
 40
0
 40
0
 40
0
 40
1
 40
1
 40
1
 40
1
 10
1899.255675
 20
2296.127085
 30
0.0
 10
1826.199075
 20
2274.431782
 30
0.0
 10
1738.786950
 20
2287.120147
 30
0.0
 10
1677.588675
 20
2328.303330
 30
0.0
  0
SPLINE
  5
2c2
100
AcDbEntity
  8
0
 62
7
100
AcDbSpline
 70
8
 71
3
 72
8
 73
4
 74
0
 40
0
 40
0
 40
0
 40
0
 40
1
 40
1
 40
1
 40
1
 10
1677.588675
 20
2328.303330
 30
0.0
 10
1646.549700
 20
2349.190770
 30
0.0
 10
1643.889600
 20
2349.860250
 30
0.0
 10
1634.252025
 20
2339.210610
 30
0.0
  0
SPLINE
  5
2c3
100
AcDbEntity
  8
0
 62
7
100
AcDbSpline
 70
8
 71
3
 72
8
 73
4
 74
0
 40
0
 40
0
 40
0
 40
0
 40
1
 40
1
 40
1
 40
1
 10
1634.252025
 20
2339.210610
 30
0.0
 10
1628.604375
 20
2332.970535
 30
0.0
 10
1623.983850
 20
2324.700945
 30
0.0
 10
1623.983850
 20
2320.833683
 30
0.0
  0
SPLINE
  5
2c4
100
AcDbEntity
  8
0
 62
7
100
AcDbSpline
 70
8
 71
3
 72
8
 73
4
 74
0
 40
0
 40
0
 40
0
 40
0
 40
1
 40
1
 40
1
 40
1
 10
1623.983850
 20
2320.833683
 30
0.0
 10
1623.983850
 20
2310.565567
 30
0.0
 10
1686.886050
 20
2271.880402
 30
0.0
 10
1724.027550
 20
2259.307343
 30
0.0
  0
SPLINE
  5
2c5
100
AcDbEntity
  8
0
 62
7
100
AcDbSpline
 70
8
 71
3
 72
8
 73
4
 74
0
 40
0
 40
0
 40
0
 40
0
 40
1
 40
1
 40
1
 40
1
 10
1724.027550
 20
2259.307343
 30
0.0
 10
1741.628175
 20
2253.348638
 30
0.0
 10
1757.947875
 20
2246.555048
 30
0.0
 10
1760.292375
 20
2244.209917
 30
0.0
  0
SPLINE
  5
2c6
100
AcDbEntity
  8
0
 62
7
100
AcDbSpline
 70
8
 71
3
 72
8
 73
4
 74
0
 40
0
 40
0
 40
0
 40
0
 40
1
 40
1
 40
1
 40
1
 10
1760.292375
 20
2244.209917
 30
0.0
 10
1769.681475
 20
2234.821485
 30
0.0
 10
1737.176250
 20
2241.131400
 30
0.0
 10
1702.347150
 20
2255.459197
 30
0.0
  0
LWPOLYLINE
  5
2c7
100
AcDbEntity
  8
0
 62
7
100
AcDbPolyline
 90
5
 70
0
 10
1587.885675
 20
2355.259523
 30
0.0
 10
1610.736825
 20
2328.902295
 30
0.0
 10
1623.811125
 20
2344.287015
 30
0.0
 10
1636.885125
 20
2359.671720
 30
0.0
 10
1617.556650
 20
2383.822845
 30
0.0
  0
LWPOLYLINE
  5
2c8
100
AcDbEntity
  8
0
 62
7
100
AcDbPolyline
 90
1
 70
1
 10
1702.347150
 20
2255.459197
 30
0.0
  0
SPLINE
  5
2c9
100
AcDbEntity
  8
0
 62
7
100
AcDbSpline
 70
8
 71
3
 72
8
 73
4
 74
0
 40
0
 40
0
 40
0
 40
0
 40
1
 40
1
 40
1
 40
1
 10
1766.899950
 20
1898.691562
 30
0.0
 10
1642.980900
 20
1907.358697
 30
0.0
 10
1524.425325
 20
1950.553695
 30
0.0
 10
1422.228000
 20
2024.270715
 30
0.0
  0
SPLINE
  5
2ca
100
AcDbEntity
  8
0
 62
7
100
AcDbSpline
 70
8
 71
3
 72
8
 73
4
 74
0
 40
0
 40
0
 40
0
 40
0
 40
1
 40
1
 40
1
 40
1
 10
1422.228000
 20
2024.270715
 30
0.0
 10
1385.281200
 20
2050.921155
 30
0.0
 10
1341.378000
 20
2091.090720
 30
0.0
 10
1311.969900
 20
2125.152090
 30
0.0
  0
SPLINE
  5
2cb
100
AcDbEntity
  8
0
 62
7
100
AcDbSpline
 70
8
 71
3
 72
8
 73
4
 74
0
 40
0
 40
0
 40
0
 40
0
 40
1
 40
1
 40
1
 40
1
 10
1311.969900
 20
2125.152090
 30
0.0
 10
1308.299175
 20
2129.403750
 30
0.0
 10
1304.543925
 20
2133.667777
 30
0.0
 10
1303.625250
 20
2134.627733
 30
0.0
  0
SPLINE
  5
2cc
100
AcDbEntity
  8
0
 62
7
100
AcDbSpline
 70
8
 71
3
 72
8
 73
4
 74
0
 40
0
 40
0
 40
0
 40
0
 40
1
 40
1
 40
1
 40
1
 10
1303.625250
 20
2134.627733
 30
0.0
 10
1302.706500
 20
2135.587687
 30
0.0
 10
1300.952475
 20
2137.683555
 30
0.0
 10
1299.727500
 20
2139.285322
 30
0.0
  0
SPLINE
  5
2cd
100
AcDbEntity
  8
0
 62
7
100
AcDbSpline
 70
8
 71
3
 72
8
 73
4
 74
0
 40
0
 40
0
 40
0
 40
0
 40
1
 40
1
 40
1
 40
1
 10
1299.727500
 20
2139.285322
 30
0.0
 10
1298.502525
 20
2140.886955
 30
0.0
 10
1293.217200
 20
2147.647980
 30
0.0
 10
1287.982275
 20
2154.309780
 30
0.0
  0
SPLINE
  5
2ce
100
AcDbEntity
  8
0
 62
7
100
AcDbSpline
 70
8
 71
3
 72
8
 73
4
 74
0
 40
0
 40
0
 40
0
 40
0
 40
1
 40
1
 40
1
 40
1
 10
1287.982275
 20
2154.309780
 30
0.0
 10
1253.706075
 20
2197.928692
 30
0.0
 10
1222.408050
 20
2250.630202
 30
0.0
 10
1201.756500
 20
2299.502033
 30
0.0
  0
SPLINE
  5
2cf
100
AcDbEntity
  8
0
 62
7
100
AcDbSpline
 70
8
 71
3
 72
8
 73
4
 74
0
 40
0
 40
0
 40
0
 40
0
 40
1
 40
1
 40
1
 40
1
 10
1201.756500
 20
2299.502033
 30
0.0
 10
1198.262550
 20
2307.770827
 30
0.0
 10
1194.740850
 20
2316.039607
 30
0.0
 10
1193.930475
 20
2317.877107
 30
0.0
  0
SPLINE
  5
2d0
100
AcDbEntity
  8
0
 62
7
100
AcDbSpline
 70
8
 71
3
 72
8
 73
4
 74
0
 40
0
 40
0
 40
0
 40
0
 40
1
 40
1
 40
1
 40
1
 10
1193.930475
 20
2317.877107
 30
0.0
 10
1188.013725
 20
2331.295455
 30
0.0
 10
1174.330050
 20
2373.740175
 30
0.0
 10
1167.785400
 20
2398.975560
 30
0.0
  0
SPLINE
  5
2d1
100
AcDbEntity
  8
0
 62
7
100
AcDbSpline
 70
8
 71
3
 72
8
 73
4
 74
0
 40
0
 40
0
 40
0
 40
0
 40
1
 40
1
 40
1
 40
1
 10
1167.785400
 20
2398.975560
 30
0.0
 10
1159.378425
 20
2431.391887
 30
0.0
 10
1151.380725
 20
2480.852446
 30
0.0
 10
1148.845725
 20
2516.105176
 30
0.0
  0
SPLINE
  5
2d2
100
AcDbEntity
  8
0
 62
7
100
AcDbSpline
 70
8
 71
3
 72
8
 73
4
 74
0
 40
0
 40
0
 40
0
 40
0
 40
1
 40
1
 40
1
 40
1
 10
1148.845725
 20
2516.105176
 30
0.0
 10
1147.408425
 20
2536.094316
 30
0.0
 10
1147.408425
 20
2590.587973
 30
0.0
 10
1148.845800
 20
2610.764648
 30
0.0
  0
SPLINE
  5
2d3
100
AcDbEntity
  8
0
 62
7
100
AcDbSpline
 70
8
 71
3
 72
8
 73
4
 74
0
 40
0
 40
0
 40
0
 40
0
 40
1
 40
1
 40
1
 40
1
 10
1148.845800
 20
2610.764648
 30
0.0
 10
1152.178875
 20
2657.548027
 30
0.0
 10
1162.378350
 20
2712.571035
 30
0.0
 10
1176.050700
 20
2757.525142
 30
0.0
  0
SPLINE
  5
2d4
100
AcDbEntity
  8
0
 62
7
100
AcDbSpline
 70
8
 71
3
 72
8
 73
4
 74
0
 40
0
 40
0
 40
0
 40
0
 40
1
 40
1
 40
1
 40
1
 10
1176.050700
 20
2757.525142
 30
0.0
 10
1199.784375
 20
2835.561285
 30
0.0
 10
1241.291850
 20
2914.907925
 30
0.0
 10
1289.990325
 20
2975.334562
 30
0.0
  0
SPLINE
  5
2d5
100
AcDbEntity
  8
0
 62
7
100
AcDbSpline
 70
8
 71
3
 72
8
 73
4
 74
0
 40
0
 40
0
 40
0
 40
0
 40
1
 40
1
 40
1
 40
1
 10
1289.990325
 20
2975.334562
 30
0.0
 10
1294.120875
 20
2980.459725
 30
0.0
 10
1298.502525
 20
2986.006050
 30
0.0
 10
1299.727500
 20
2987.659703
 30
0.0
  0
SPLINE
  5
2d6
100
AcDbEntity
  8
0
 62
7
100
AcDbSpline
 70
8
 71
3
 72
8
 73
4
 74
0
 40
0
 40
0
 40
0
 40
0
 40
1
 40
1
 40
1
 40
1
 10
1299.727500
 20
2987.659703
 30
0.0
 10
1304.786925
 20
2994.489472
 30
0.0
 10
1329.694425
 20
3021.603300
 30
0.0
 10
1343.972100
 20
3035.823367
 30
0.0
  0
SPLINE
  5
2d7
100
AcDbEntity
  8
0
 62
7
100
AcDbSpline
 70
8
 71
3
 72
8
 73
4
 74
0
 40
0
 40
0
 40
0
 40
0
 40
1
 40
1
 40
1
 40
1
 10
1343.972100
 20
3035.823367
 30
0.0
 10
1404.385650
 20
3095.993220
 30
0.0
 10
1475.070975
 20
3143.654430
 30
0.0
 10
1553.080800
 20
3176.819692
 30
0.0
  0
SPLINE
  5
2d8
100
AcDbEntity
  8
0
 62
7
100
AcDbSpline
 70
8
 71
3
 72
8
 73
4
 74
0
 40
0
 40
0
 40
0
 40
0
 40
1
 40
1
 40
1
 40
1
 10
1553.080800
 20
3176.819692
 30
0.0
 10
1632.533775
 20
3210.598492
 30
0.0
 10
1722.350325
 20
3229.335045
 30
0.0
 10
1805.042100
 20
3229.381118
 30
0.0
  0
LWPOLYLINE
  5
2d9
100
AcDbEntity
  8
0
 62
7
100
AcDbPolyline
 90
3
 70
0
 10
1865.769450
 20
3205.401037
 30
0.0
 10
1824.809175
 20
3207.119242
 30
0.0
 10
1824.809175
 20
3207.119242
 30
0.0
  0
SPLINE
  5
2da
100
AcDbEntity
  8
0
 62
7
100
AcDbSpline
 70
8
 71
3
 72
8
 73
4
 74
0
 40
0
 40
0
 40
0
 40
0
 40
1
 40
1
 40
1
 40
1
 10
1805.598900
 20
3207.108293
 30
0.0
 10
1744.791900
 20
3207.073417
 30
0.0
 10
1677.278100
 20
3196.151370
 30
0.0
 10
1614.887850
 20
3176.255940
 30
0.0
  0
SPLINE
  5
2db
100
AcDbEntity
  8
0
 62
7
100
AcDbSpline
 70
8
 71
3
 72
8
 73
4
 74
0
 40
0
 40
0
 40
0
 40
0
 40
1
 40
1
 40
1
 40
1
 10
1614.887850
 20
3176.255940
 30
0.0
 10
1607.553975
 20
3173.917245
 30
0.0
 10
1594.457700
 20
3169.154092
 30
0.0
 10
1580.169750
 20
3163.628820
 30
0.0
  0
LWPOLYLINE
  5
2dc
100
AcDbEntity
  8
0
 62
7
100
AcDbPolyline
 90
5
 70
0
 10
1805.042100
 20
3229.381118
 30
0.0
 10
1824.809175
 20
3229.392067
 30
0.0
 10
1824.809175
 20
3218.255647
 30
0.0
 10
1824.809175
 20
3207.119242
 30
0.0
 10
1805.598900
 20
3207.108293
 30
0.0
  0
SPLINE
  5
2dd
100
AcDbEntity
  8
0
 62
7
100
AcDbSpline
 70
8
 71
3
 72
8
 73
4
 74
0
 40
0
 40
0
 40
0
 40
0
 40
1
 40
1
 40
1
 40
1
 10
1581.416775
 20
3153.445282
 30
0.0
 10
1583.435100
 20
3148.359608
 30
0.0
 10
1587.111075
 20
3139.437788
 30
0.0
 10
1589.585550
 20
3133.619010
 30
0.0
  0
SPLINE
  5
2de
100
AcDbEntity
  8
0
 62
7
100
AcDbSpline
 70
8
 71
3
 72
8
 73
4
 74
0
 40
0
 40
0
 40
0
 40
0
 40
1
 40
1
 40
1
 40
1
 10
1589.585550
 20
3133.619010
 30
0.0
 10
1600.366650
 20
3108.266280
 30
0.0
 10
1603.193100
 20
3101.258940
 30
0.0
 10
1603.169325
 20
3099.941632
 30
0.0
  0
SPLINE
  5
2df
100
AcDbEntity
  8
0
 62
7
100
AcDbSpline
 70
8
 71
3
 72
8
 73
4
 74
0
 40
0
 40
0
 40
0
 40
0
 40
1
 40
1
 40
1
 40
1
 10
1603.169325
 20
3099.941632
 30
0.0
 10
1603.155075
 20
3099.170370
 30
0.0
 10
1597.768125
 20
3096.340672
 30
0.0
 10
1591.197675
 20
3093.653430
 30
0.0
  0
SPLINE
  5
2e0
100
AcDbEntity
  8
0
 62
7
100
AcDbSpline
 70
8
 71
3
 72
8
 73
4
 74
0
 40
0
 40
0
 40
0
 40
0
 40
1
 40
1
 40
1
 40
1
 10
1591.197675
 20
3093.653430
 30
0.0
 10
1584.627300
 20
3090.966180
 30
0.0
 10
1568.781000
 20
3083.562742
 30
0.0
 10
1555.983600
 20
3077.201325
 30
0.0
  0
SPLINE
  5
2e1
100
AcDbEntity
  8
0
 62
7
100
AcDbSpline
 70
8
 71
3
 72
8
 73
4
 74
0
 40
0
 40
0
 40
0
 40
0
 40
1
 40
1
 40
1
 40
1
 10
1555.983600
 20
3077.201325
 30
0.0
 10
1543.186425
 20
3070.839930
 30
0.0
 10
1542.221700
 20
3070.889295
 30
0.0
 10
1532.495625
 20
3068.283195
 30
0.0
  0
SPLINE
  5
2e2
100
AcDbEntity
  8
0
 62
7
100
AcDbSpline
 70
8
 71
3
 72
8
 73
4
 74
0
 40
0
 40
0
 40
0
 40
0
 40
1
 40
1
 40
1
 40
1
 10
1532.495625
 20
3068.283195
 30
0.0
 10
1530.964200
 20
3070.399140
 30
0.0
 10
1523.012625
 20
3085.865295
 30
0.0
 10
1523.012625
 20
3086.728110
 30
0.0
  0
SPLINE
  5
2e3
100
AcDbEntity
  8
0
 62
7
100
AcDbSpline
 70
8
 71
3
 72
8
 73
4
 74
0
 40
0
 40
0
 40
0
 40
0
 40
1
 40
1
 40
1
 40
1
 10
1523.012625
 20
3086.728110
 30
0.0
 10
1523.012625
 20
3088.042335
 30
0.0
 10
1541.612175
 20
3095.607802
 30
0.0
 10
1561.147800
 20
3104.701500
 30
0.0
  0
SPLINE
  5
2e4
100
AcDbEntity
  8
0
 62
7
100
AcDbSpline
 70
8
 71
3
 72
8
 73
4
 74
0
 40
0
 40
0
 40
0
 40
0
 40
1
 40
1
 40
1
 40
1
 10
1561.147800
 20
3104.701500
 30
0.0
 10
1568.340975
 20
3108.049837
 30
0.0
 10
1574.229300
 20
3111.148793
 30
0.0
 10
1574.233200
 20
3111.588052
 30
0.0
  0
SPLINE
  5
2e5
100
AcDbEntity
  8
0
 62
7
100
AcDbSpline
 70
8
 71
3
 72
8
 73
4
 74
0
 40
0
 40
0
 40
0
 40
0
 40
1
 40
1
 40
1
 40
1
 10
1574.233200
 20
3111.588052
 30
0.0
 10
1574.233200
 20
3112.027327
 30
0.0
 10
1571.676225
 20
3118.542120
 30
0.0
 10
1568.542725
 20
3126.065385
 30
0.0
  0
SPLINE
  5
2e6
100
AcDbEntity
  8
0
 62
7
100
AcDbSpline
 70
8
 71
3
 72
8
 73
4
 74
0
 40
0
 40
0
 40
0
 40
0
 40
1
 40
1
 40
1
 40
1
 10
1568.542725
 20
3126.065385
 30
0.0
 10
1565.409150
 20
3133.588657
 30
0.0
 10
1561.601850
 20
3142.876170
 30
0.0
 10
1560.082125
 20
3146.704297
 30
0.0
  0
SPLINE
  5
2e7
100
AcDbEntity
  8
0
 62
7
100
AcDbSpline
 70
8
 71
3
 72
8
 73
4
 74
0
 40
0
 40
0
 40
0
 40
0
 40
1
 40
1
 40
1
 40
1
 10
1560.082125
 20
3146.704297
 30
0.0
 10
1558.562325
 20
3150.532440
 30
0.0
 10
1556.928825
 20
3153.664552
 30
0.0
 10
1556.452050
 20
3153.664552
 30
0.0
  0
SPLINE
  5
2e8
100
AcDbEntity
  8
0
 62
7
100
AcDbSpline
 70
8
 71
3
 72
8
 73
4
 74
0
 40
0
 40
0
 40
0
 40
0
 40
1
 40
1
 40
1
 40
1
 10
1556.452050
 20
3153.664552
 30
0.0
 10
1554.293400
 20
3153.664552
 30
0.0
 10
1520.845725
 20
3137.513220
 30
0.0
 10
1505.499600
 20
3129.060427
 30
0.0
  0
SPLINE
  5
2e9
100
AcDbEntity
  8
0
 62
7
100
AcDbSpline
 70
8
 71
3
 72
8
 73
4
 74
0
 40
0
 40
0
 40
0
 40
0
 40
1
 40
1
 40
1
 40
1
 10
1505.499600
 20
3129.060427
 30
0.0
 10
1485.891075
 20
3118.259925
 30
0.0
 10
1465.257225
 20
3105.311542
 30
0.0
 10
1465.910100
 20
3104.216790
 30
0.0
  0
SPLINE
  5
2ea
100
AcDbEntity
  8
0
 62
7
100
AcDbSpline
 70
8
 71
3
 72
8
 73
4
 74
0
 40
0
 40
0
 40
0
 40
0
 40
1
 40
1
 40
1
 40
1
 10
1465.910100
 20
3104.216790
 30
0.0
 10
1471.764075
 20
3094.400160
 30
0.0
 10
1528.938900
 20
3010.004895
 30
0.0
 10
1529.735550
 20
3010.004895
 30
0.0
  0
SPLINE
  5
2eb
100
AcDbEntity
  8
0
 62
7
100
AcDbSpline
 70
8
 71
3
 72
8
 73
4
 74
0
 40
0
 40
0
 40
0
 40
0
 40
1
 40
1
 40
1
 40
1
 10
1529.735550
 20
3010.004895
 30
0.0
 10
1530.339000
 20
3010.004895
 30
0.0
 10
1537.968450
 20
3014.171362
 30
0.0
 10
1546.689900
 20
3019.263705
 30
0.0
  0
SPLINE
  5
2ec
100
AcDbEntity
  8
0
 62
7
100
AcDbSpline
 70
8
 71
3
 72
8
 73
4
 74
0
 40
0
 40
0
 40
0
 40
0
 40
1
 40
1
 40
1
 40
1
 10
1546.689900
 20
3019.263705
 30
0.0
 10
1593.343800
 20
3046.504785
 30
0.0
 10
1639.535025
 20
3064.989712
 30
0.0
 10
1694.045850
 20
3078.232927
 30
0.0
  0
LWPOLYLINE
  5
2ed
100
AcDbEntity
  8
0
 62
7
100
AcDbPolyline
 90
3
 70
0
 10
1580.169750
 20
3163.628820
 30
0.0
 10
1577.747025
 20
3162.691965
 30
0.0
 10
1581.416775
 20
3153.445282
 30
0.0
  0
SPLINE
  5
2ee
100
AcDbEntity
  8
0
 62
7
100
AcDbSpline
 70
8
 71
3
 72
8
 73
4
 74
0
 40
0
 40
0
 40
0
 40
0
 40
1
 40
1
 40
1
 40
1
 10
1695.300675
 20
3101.880262
 30
0.0
 10
1692.879000
 20
3114.130312
 30
0.0
 10
1690.693200
 20
3124.377750
 30
0.0
 10
1690.443000
 20
3124.652317
 30
0.0
  0
SPLINE
  5
2ef
100
AcDbEntity
  8
0
 62
7
100
AcDbSpline
 70
8
 71
3
 72
8
 73
4
 74
0
 40
0
 40
0
 40
0
 40
0
 40
1
 40
1
 40
1
 40
1
 10
1690.443000
 20
3124.652317
 30
0.0
 10
1689.815850
 20
3125.340810
 30
0.0
 10
1666.524975
 20
3119.629725
 30
0.0
 10
1651.450050
 20
3115.091025
 30
0.0
  0
SPLINE
  5
2f0
100
AcDbEntity
  8
0
 62
7
100
AcDbSpline
 70
8
 71
3
 72
8
 73
4
 74
0
 40
0
 40
0
 40
0
 40
0
 40
1
 40
1
 40
1
 40
1
 10
1651.450050
 20
3115.091025
 30
0.0
 10
1637.146500
 20
3110.784465
 30
0.0
 10
1640.084700
 20
3110.640615
 30
0.0
 10
1639.346100
 20
3113.295082
 30
0.0
  0
SPLINE
  5
2f1
100
AcDbEntity
  8
0
 62
7
100
AcDbSpline
 70
8
 71
3
 72
8
 73
4
 74
0
 40
0
 40
0
 40
0
 40
0
 40
1
 40
1
 40
1
 40
1
 10
1639.346100
 20
3113.295082
 30
0.0
 10
1639.346100
 20
3113.295082
 30
0.0
 10
1637.688225
 20
3118.887645
 30
0.0
 10
1636.324575
 20
3123.341070
 30
0.0
  0
SPLINE
  5
2f2
100
AcDbEntity
  8
0
 62
7
100
AcDbSpline
 70
8
 71
3
 72
8
 73
4
 74
0
 40
0
 40
0
 40
0
 40
0
 40
1
 40
1
 40
1
 40
1
 10
1636.324575
 20
3123.341070
 30
0.0
 10
1634.961000
 20
3127.794472
 30
0.0
 10
1634.043750
 20
3131.614050
 30
0.0
 10
1634.286150
 20
3131.829015
 30
0.0
  0
SPLINE
  5
2f3
100
AcDbEntity
  8
0
 62
7
100
AcDbSpline
 70
8
 71
3
 72
8
 73
4
 74
0
 40
0
 40
0
 40
0
 40
0
 40
1
 40
1
 40
1
 40
1
 10
1634.286150
 20
3131.829015
 30
0.0
 10
1635.257175
 20
3132.689962
 30
0.0
 10
1666.922250
 20
3142.635525
 30
0.0
 10
1678.922325
 20
3145.366672
 30
0.0
  0
SPLINE
  5
2f4
100
AcDbEntity
  8
0
 62
7
100
AcDbSpline
 70
8
 71
3
 72
8
 73
4
 74
0
 40
0
 40
0
 40
0
 40
0
 40
1
 40
1
 40
1
 40
1
 10
1678.922325
 20
3145.366672
 30
0.0
 10
1710.092025
 20
3152.460802
 30
0.0
 10
1740.069675
 20
3156.899355
 30
0.0
 10
1773.240525
 20
3159.331620
 30
0.0
  0
SPLINE
  5
2f5
100
AcDbEntity
  8
0
 62
7
100
AcDbSpline
 70
8
 71
3
 72
8
 73
4
 74
0
 40
0
 40
0
 40
0
 40
0
 40
1
 40
1
 40
1
 40
1
 10
1773.240525
 20
3159.331620
 30
0.0
 10
1801.153200
 20
3161.378310
 30
0.0
 10
1858.299825
 20
3157.468852
 30
0.0
 10
1874.653650
 20
3157.981620
 30
0.0
  0
SPLINE
  5
2f6
100
AcDbEntity
  8
0
 62
7
100
AcDbSpline
 70
8
 71
3
 72
8
 73
4
 74
0
 40
0
 40
0
 40
0
 40
0
 40
1
 40
1
 40
1
 40
1
 10
1874.653650
 20
3157.981620
 30
0.0
 10
1874.134650
 20
3151.333260
 30
0.0
 10
1874.332575
 20
3155.653905
 30
0.0
 10
1874.343225
 20
3146.728080
 30
0.0
  0
LWPOLYLINE
  5
2f7
100
AcDbEntity
  8
0
 62
7
100
AcDbPolyline
 90
3
 70
0
 10
1694.045850
 20
3078.232927
 30
0.0
 10
1699.703475
 20
3079.607445
 30
0.0
 10
1695.300675
 20
3101.880262
 30
0.0
  0
SPLINE
  5
2f8
100
AcDbEntity
  8
0
 62
7
100
AcDbSpline
 70
8
 71
3
 72
8
 73
4
 74
0
 40
0
 40
0
 40
0
 40
0
 40
1
 40
1
 40
1
 40
1
 10
1873.271700
 20
3135.122070
 30
0.0
 10
1845.177825
 20
3138.629422
 30
0.0
 10
1784.713200
 20
3138.765847
 30
0.0
 10
1754.093025
 20
3135.384825
 30
0.0
  0
SPLINE
  5
2f9
100
AcDbEntity
  8
0
 62
7
100
AcDbSpline
 70
8
 71
3
 72
8
 73
4
 74
0
 40
0
 40
0
 40
0
 40
0
 40
1
 40
1
 40
1
 40
1
 10
1754.093025
 20
3135.384825
 30
0.0
 10
1734.275925
 20
3133.196662
 30
0.0
 10
1714.232325
 20
3130.215232
 30
0.0
 10
1713.219450
 20
3129.304935
 30
0.0
  0
SPLINE
  5
2fa
100
AcDbEntity
  8
0
 62
7
100
AcDbSpline
 70
8
 71
3
 72
8
 73
4
 74
0
 40
0
 40
0
 40
0
 40
0
 40
1
 40
1
 40
1
 40
1
 10
1713.219450
 20
3129.304935
 30
0.0
 10
1712.569500
 20
3128.720962
 30
0.0
 10
1720.351800
 20
3087.802537
 30
0.0
 10
1724.471700
 20
3070.141492
 30
0.0
  0
SPLINE
  5
2fb
100
AcDbEntity
  8
0
 62
7
100
AcDbSpline
 70
8
 71
3
 72
8
 73
4
 74
0
 40
0
 40
0
 40
0
 40
0
 40
1
 40
1
 40
1
 40
1
 10
1724.471700
 20
3070.141492
 30
0.0
 10
1726.197525
 20
3062.743110
 30
0.0
 10
1726.019625
 20
3061.232370
 30
0.0
 10
1723.422525
 20
3061.232370
 30
0.0
  0
SPLINE
  5
2fc
100
AcDbEntity
  8
0
 62
7
100
AcDbSpline
 70
8
 71
3
 72
8
 73
4
 74
0
 40
0
 40
0
 40
0
 40
0
 40
1
 40
1
 40
1
 40
1
 10
1723.422525
 20
3061.232370
 30
0.0
 10
1718.905950
 20
3061.232370
 30
0.0
 10
1684.674900
 20
3053.172510
 30
0.0
 10
1668.357975
 20
3048.267202
 30
0.0
  0
SPLINE
  5
2fd
100
AcDbEntity
  8
0
 62
7
100
AcDbSpline
 70
8
 71
3
 72
8
 73
4
 74
0
 40
0
 40
0
 40
0
 40
0
 40
1
 40
1
 40
1
 40
1
 10
1668.357975
 20
3048.267202
 30
0.0
 10
1637.384100
 20
3038.955577
 30
0.0
 10
1611.811200
 20
3028.571985
 30
0.0
 10
1582.592250
 20
3013.443045
 30
0.0
  0
SPLINE
  5
2fe
100
AcDbEntity
  8
0
 62
7
100
AcDbSpline
 70
8
 71
3
 72
8
 73
4
 74
0
 40
0
 40
0
 40
0
 40
0
 40
1
 40
1
 40
1
 40
1
 10
1582.592250
 20
3013.443045
 30
0.0
 10
1567.154325
 20
3005.449560
 30
0.0
 10
1543.891125
 20
2992.277280
 30
0.0
 10
1542.166875
 20
2990.553060
 30
0.0
  0
SPLINE
  5
2ff
100
AcDbEntity
  8
0
 62
7
100
AcDbSpline
 70
8
 71
3
 72
8
 73
4
 74
0
 40
0
 40
0
 40
0
 40
0
 40
1
 40
1
 40
1
 40
1
 10
1542.166875
 20
2990.553060
 30
0.0
 10
1541.952375
 20
2990.338560
 30
0.0
 10
1549.499850
 20
2978.716327
 30
0.0
 10
1558.938825
 20
2964.725887
 30
0.0
  0
SPLINE
  5
300
100
AcDbEntity
  8
0
 62
7
100
AcDbSpline
 70
8
 71
3
 72
8
 73
4
 74
0
 40
0
 40
0
 40
0
 40
0
 40
1
 40
1
 40
1
 40
1
 10
1558.938825
 20
2964.725887
 30
0.0
 10
1568.377875
 20
2950.735432
 30
0.0
 10
1576.450875
 20
2938.682467
 30
0.0
 10
1576.878825
 20
2937.941527
 30
0.0
  0
SPLINE
  5
301
100
AcDbEntity
  8
0
 62
7
100
AcDbSpline
 70
8
 71
3
 72
8
 73
4
 74
0
 40
0
 40
0
 40
0
 40
0
 40
1
 40
1
 40
1
 40
1
 10
1576.878825
 20
2937.941527
 30
0.0
 10
1577.380725
 20
2937.072555
 30
0.0
 10
1574.420625
 20
2934.427627
 30
0.0
 10
1568.539875
 20
2930.490390
 30
0.0
  0
LWPOLYLINE
  5
302
100
AcDbEntity
  8
0
 62
7
100
AcDbPolyline
 90
3
 70
0
 10
1874.343225
 20
3146.728080
 30
0.0
 10
1873.536675
 20
3135.970627
 30
0.0
 10
1873.271700
 20
3135.122070
 30
0.0
  0
SPLINE
  5
303
100
AcDbEntity
  8
0
 62
7
100
AcDbSpline
 70
8
 71
3
 72
8
 73
4
 74
0
 40
0
 40
0
 40
0
 40
0
 40
1
 40
1
 40
1
 40
1
 10
1557.577050
 20
2926.826182
 30
0.0
 10
1556.562000
 20
2928.168052
 30
0.0
 10
1548.544050
 20
2940.040402
 30
0.0
 10
1539.759375
 20
2953.209210
 30
0.0
  0
SPLINE
  5
304
100
AcDbEntity
  8
0
 62
7
100
AcDbSpline
 70
8
 71
3
 72
8
 73
4
 74
0
 40
0
 40
0
 40
0
 40
0
 40
1
 40
1
 40
1
 40
1
 10
1539.759375
 20
2953.209210
 30
0.0
 10
1530.974700
 20
2966.378010
 30
0.0
 10
1523.635200
 20
2977.338967
 30
0.0
 10
1523.449500
 20
2977.566885
 30
0.0
  0
SPLINE
  5
305
100
AcDbEntity
  8
0
 62
7
100
AcDbSpline
 70
8
 71
3
 72
8
 73
4
 74
0
 40
0
 40
0
 40
0
 40
0
 40
1
 40
1
 40
1
 40
1
 10
1523.449500
 20
2977.566885
 30
0.0
 10
1523.075250
 20
2978.026057
 30
0.0
 10
1510.002825
 20
2968.452787
 30
0.0
 10
1497.955650
 20
2958.897135
 30
0.0
  0
SPLINE
  5
306
100
AcDbEntity
  8
0
 62
7
100
AcDbSpline
 70
8
 71
3
 72
8
 73
4
 74
0
 40
0
 40
0
 40
0
 40
0
 40
1
 40
1
 40
1
 40
1
 10
1497.955650
 20
2958.897135
 30
0.0
 10
1486.180575
 20
2949.557355
 30
0.0
 10
1466.742675
 20
2932.218015
 30
0.0
 10
1456.755525
 20
2922.145260
 30
0.0
  0
LWPOLYLINE
  5
307
100
AcDbEntity
  8
0
 62
7
100
AcDbPolyline
 90
3
 70
0
 10
1568.539875
 20
2930.490390
 30
0.0
 10
1559.422650
 20
2924.386432
 30
0.0
 10
1557.577050
 20
2926.826182
 30
0.0
  0
SPLINE
  5
308
100
AcDbEntity
  8
0
 62
7
100
AcDbSpline
 70
8
 71
3
 72
8
 73
4
 74
0
 40
0
 40
0
 40
0
 40
0
 40
1
 40
1
 40
1
 40
1
 10
1440.329325
 20
2920.628467
 30
0.0
 10
1436.192400
 20
2924.733720
 30
0.0
 10
1432.807650
 20
2928.636367
 30
0.0
 10
1432.807650
 20
2929.301070
 30
0.0
  0
SPLINE
  5
309
100
AcDbEntity
  8
0
 62
7
100
AcDbSpline
 70
8
 71
3
 72
8
 73
4
 74
0
 40
0
 40
0
 40
0
 40
0
 40
1
 40
1
 40
1
 40
1
 10
1432.807650
 20
2929.301070
 30
0.0
 10
1432.807650
 20
2931.051375
 30
0.0
 10
1461.211650
 20
2957.652112
 30
0.0
 10
1478.037375
 20
2971.659157
 30
0.0
  0
SPLINE
  5
30a
100
AcDbEntity
  8
0
 62
7
100
AcDbSpline
 70
8
 71
3
 72
8
 73
4
 74
0
 40
0
 40
0
 40
0
 40
0
 40
1
 40
1
 40
1
 40
1
 10
1478.037375
 20
2971.659157
 30
0.0
 10
1482.103950
 20
2975.044507
 30
0.0
 10
1507.707525
 20
2994.380752
 30
0.0
 10
1510.606950
 20
2996.256150
 30
0.0
  0
SPLINE
  5
30b
100
AcDbEntity
  8
0
 62
7
100
AcDbSpline
 70
8
 71
3
 72
8
 73
4
 74
0
 40
0
 40
0
 40
0
 40
0
 40
1
 40
1
 40
1
 40
1
 10
1510.606950
 20
2996.256150
 30
0.0
 10
1510.827675
 20
2996.398912
 30
0.0
 10
1506.834450
 20
3002.682892
 30
0.0
 10
1501.733100
 20
3010.220557
 30
0.0
  0
SPLINE
  5
30c
100
AcDbEntity
  8
0
 62
7
100
AcDbSpline
 70
8
 71
3
 72
8
 73
4
 74
0
 40
0
 40
0
 40
0
 40
0
 40
1
 40
1
 40
1
 40
1
 10
1501.733100
 20
3010.220557
 30
0.0
 10
1496.631900
 20
3017.758222
 30
0.0
 10
1490.760000
 20
3026.528002
 30
0.0
 10
1488.684600
 20
3029.708962
 30
0.0
  0
LWPOLYLINE
  5
30d
100
AcDbEntity
  8
0
 62
7
100
AcDbPolyline
 90
3
 70
0
 10
1456.755525
 20
2922.145260
 30
0.0
 10
1447.851075
 20
2913.164377
 30
0.0
 10
1440.329325
 20
2920.628467
 30
0.0
  0
SPLINE
  5
30e
100
AcDbEntity
  8
0
 62
7
100
AcDbSpline
 70
8
 71
3
 72
8
 73
4
 74
0
 40
0
 40
0
 40
0
 40
0
 40
1
 40
1
 40
1
 40
1
 10
1477.736325
 20
3030.265770
 30
0.0
 10
1473.790050
 20
3027.391072
 30
0.0
 10
1463.700000
 20
3019.620907
 30
0.0
 10
1455.314025
 20
3012.998737
 30
0.0
  0
LWPOLYLINE
  5
30f
100
AcDbEntity
  8
0
 62
7
100
AcDbPolyline
 90
3
 70
0
 10
1488.684600
 20
3029.708962
 30
0.0
 10
1484.911275
 20
3035.492505
 30
0.0
 10
1477.736325
 20
3030.265770
 30
0.0
  0
SPLINE
  5
310
100
AcDbEntity
  8
0
 62
7
100
AcDbSpline
 70
8
 71
3
 72
8
 73
4
 74
0
 40
0
 40
0
 40
0
 40
0
 40
1
 40
1
 40
1
 40
1
 10
1438.003725
 20
3003.532792
 30
0.0
 10
1436.869200
 20
3004.948680
 30
0.0
 10
1434.372375
 20
3008.043622
 30
0.0
 10
1432.455300
 20
3010.410427
 30
0.0
  0
SPLINE
  5
311
100
AcDbEntity
  8
0
 62
7
100
AcDbSpline
 70
8
 71
3
 72
8
 73
4
 74
0
 40
0
 40
0
 40
0
 40
0
 40
1
 40
1
 40
1
 40
1
 10
1432.455300
 20
3010.410427
 30
0.0
 10
1430.538000
 20
3012.777240
 30
0.0
 10
1428.387150
 20
3015.510240
 30
0.0
 10
1427.675175
 20
3016.483777
 30
0.0
  0
SPLINE
  5
312
100
AcDbEntity
  8
0
 62
7
100
AcDbSpline
 70
8
 71
3
 72
8
 73
4
 74
0
 40
0
 40
0
 40
0
 40
0
 40
1
 40
1
 40
1
 40
1
 10
1427.675175
 20
3016.483777
 30
0.0
 10
1426.581750
 20
3017.979157
 30
0.0
 10
1428.132525
 20
3019.701472
 30
0.0
 10
1437.668175
 20
3027.581723
 30
0.0
  0
SPLINE
  5
313
100
AcDbEntity
  8
0
 62
7
100
AcDbSpline
 70
8
 71
3
 72
8
 73
4
 74
0
 40
0
 40
0
 40
0
 40
0
 40
1
 40
1
 40
1
 40
1
 10
1437.668175
 20
3027.581723
 30
0.0
 10
1443.876075
 20
3032.712045
 30
0.0
 10
1452.713925
 20
3039.601005
 30
0.0
 10
1457.307750
 20
3042.890520
 30
0.0
  0
SPLINE
  5
314
100
AcDbEntity
  8
0
 62
7
100
AcDbSpline
 70
8
 71
3
 72
8
 73
4
 74
0
 40
0
 40
0
 40
0
 40
0
 40
1
 40
1
 40
1
 40
1
 10
1457.307750
 20
3042.890520
 30
0.0
 10
1461.901425
 20
3046.180012
 30
0.0
 10
1467.147525
 20
3050.089042
 30
0.0
 10
1468.965600
 20
3051.577230
 30
0.0
  0
LWPOLYLINE
  5
315
100
AcDbEntity
  8
0
 62
7
100
AcDbPolyline
 90
3
 70
0
 10
1455.314025
 20
3012.998737
 30
0.0
 10
1440.066600
 20
3000.958432
 30
0.0
 10
1438.003725
 20
3003.532792
 30
0.0
  0
SPLINE
  5
316
100
AcDbEntity
  8
0
 62
7
100
AcDbSpline
 70
8
 71
3
 72
8
 73
4
 74
0
 40
0
 40
0
 40
0
 40
0
 40
1
 40
1
 40
1
 40
1
 10
1459.526625
 20
3073.348665
 30
0.0
 10
1452.517125
 20
3083.834767
 30
0.0
 10
1446.519375
 20
3092.403562
 30
0.0
 10
1446.198225
 20
3092.390430
 30
0.0
  0
SPLINE
  5
317
100
AcDbEntity
  8
0
 62
7
100
AcDbSpline
 70
8
 71
3
 72
8
 73
4
 74
0
 40
0
 40
0
 40
0
 40
0
 40
1
 40
1
 40
1
 40
1
 10
1446.198225
 20
3092.390430
 30
0.0
 10
1444.774725
 20
3092.332230
 30
0.0
 10
1409.086800
 20
3064.794877
 30
0.0
 10
1396.277475
 20
3053.870805
 30
0.0
  0
SPLINE
  5
318
100
AcDbEntity
  8
0
 62
7
100
AcDbSpline
 70
8
 71
3
 72
8
 73
4
 74
0
 40
0
 40
0
 40
0
 40
0
 40
1
 40
1
 40
1
 40
1
 10
1396.277475
 20
3053.870805
 30
0.0
 10
1372.335300
 20
3033.452302
 30
0.0
 10
1323.544050
 20
2983.997932
 30
0.0
 10
1323.714525
 20
2980.321665
 30
0.0
  0
SPLINE
  5
319
100
AcDbEntity
  8
0
 62
7
100
AcDbSpline
 70
8
 71
3
 72
8
 73
4
 74
0
 40
0
 40
0
 40
0
 40
0
 40
1
 40
1
 40
1
 40
1
 10
1323.714525
 20
2980.321665
 30
0.0
 10
1323.738525
 20
2979.803625
 30
0.0
 10
1327.325625
 20
2976.623497
 30
0.0
 10
1331.685750
 20
2973.254745
 30
0.0
  0
SPLINE
  5
31a
100
AcDbEntity
  8
0
 62
7
100
AcDbSpline
 70
8
 71
3
 72
8
 73
4
 74
0
 40
0
 40
0
 40
0
 40
0
 40
1
 40
1
 40
1
 40
1
 10
1331.685750
 20
2973.254745
 30
0.0
 10
1336.045875
 20
2969.885978
 30
0.0
 10
1340.160600
 20
2966.617372
 30
0.0
 10
1340.829525
 20
2965.991152
 30
0.0
  0
SPLINE
  5
31b
100
AcDbEntity
  8
0
 62
7
100
AcDbSpline
 70
8
 71
3
 72
8
 73
4
 74
0
 40
0
 40
0
 40
0
 40
0
 40
1
 40
1
 40
1
 40
1
 10
1340.829525
 20
2965.991152
 30
0.0
 10
1341.498600
 20
2965.364940
 30
0.0
 10
1345.897275
 20
2961.725962
 30
0.0
 10
1350.604725
 20
2957.904540
 30
0.0
  0
LWPOLYLINE
  5
31c
100
AcDbEntity
  8
0
 62
7
100
AcDbPolyline
 90
3
 70
0
 10
1468.965600
 20
3051.577230
 30
0.0
 10
1472.271225
 20
3054.283013
 30
0.0
 10
1459.526625
 20
3073.348665
 30
0.0
  0
SPLINE
  5
31d
100
AcDbEntity
  8
0
 62
7
100
AcDbSpline
 70
8
 71
3
 72
8
 73
4
 74
0
 40
0
 40
0
 40
0
 40
0
 40
1
 40
1
 40
1
 40
1
 10
1368.595425
 20
2961.827205
 30
0.0
 10
1373.782875
 20
2967.806100
 30
0.0
 10
1382.834025
 20
2977.447080
 30
0.0
 10
1388.708925
 20
2983.251570
 30
0.0
  0
LWPOLYLINE
  5
31e
100
AcDbEntity
  8
0
 62
7
100
AcDbPolyline
 90
3
 70
0
 10
1350.604725
 20
2957.904540
 30
0.0
 10
1359.163425
 20
2950.956502
 30
0.0
 10
1368.595425
 20
2961.827205
 30
0.0
  0
SPLINE
  5
31f
100
AcDbEntity
  8
0
 62
7
100
AcDbSpline
 70
8
 71
3
 72
8
 73
4
 74
0
 40
0
 40
0
 40
0
 40
0
 40
1
 40
1
 40
1
 40
1
 10
1404.670200
 20
2967.727800
 30
0.0
 10
1391.492250
 20
2954.100270
 30
0.0
 10
1382.314200
 20
2944.111283
 30
0.0
 10
1376.011950
 20
2936.537250
 30
0.0
  0
SPLINE
  5
320
100
AcDbEntity
  8
0
 62
7
100
AcDbSpline
 70
8
 71
3
 72
8
 73
4
 74
0
 40
0
 40
0
 40
0
 40
0
 40
1
 40
1
 40
1
 40
1
 10
1376.011950
 20
2936.537250
 30
0.0
 10
1373.255625
 20
2933.224822
 30
0.0
 10
1369.058100
 20
2928.229147
 30
0.0
 10
1366.683750
 20
2925.435727
 30
0.0
  0
SPLINE
  5
321
100
AcDbEntity
  8
0
 62
7
100
AcDbSpline
 70
8
 71
3
 72
8
 73
4
 74
0
 40
0
 40
0
 40
0
 40
0
 40
1
 40
1
 40
1
 40
1
 10
1366.683750
 20
2925.435727
 30
0.0
 10
1364.309625
 20
2922.642322
 30
0.0
 10
1362.268800
 20
2920.237035
 30
0.0
 10
1362.148725
 20
2920.090642
 30
0.0
  0
SPLINE
  5
322
100
AcDbEntity
  8
0
 62
7
100
AcDbSpline
 70
8
 71
3
 72
8
 73
4
 74
0
 40
0
 40
0
 40
0
 40
0
 40
1
 40
1
 40
1
 40
1
 10
1362.148725
 20
2920.090642
 30
0.0
 10
1361.939400
 20
2919.835522
 30
0.0
 10
1356.918300
 20
2923.892670
 30
0.0
 10
1325.295825
 20
2949.868290
 30
0.0
  0
SPLINE
  5
323
100
AcDbEntity
  8
0
 62
7
100
AcDbSpline
 70
8
 71
3
 72
8
 73
4
 74
0
 40
0
 40
0
 40
0
 40
0
 40
1
 40
1
 40
1
 40
1
 10
1325.295825
 20
2949.868290
 30
0.0
 10
1317.466500
 20
2956.299562
 30
0.0
 10
1310.487525
 20
2961.907710
 30
0.0
 10
1309.786875
 20
2962.330822
 30
0.0
  0
SPLINE
  5
324
100
AcDbEntity
  8
0
 62
7
100
AcDbSpline
 70
8
 71
3
 72
8
 73
4
 74
0
 40
0
 40
0
 40
0
 40
0
 40
1
 40
1
 40
1
 40
1
 10
1309.786875
 20
2962.330822
 30
0.0
 10
1309.015575
 20
2962.796707
 30
0.0
 10
1306.130475
 20
2959.941780
 30
0.0
 10
1302.471675
 20
2955.092152
 30
0.0
  0
SPLINE
  5
325
100
AcDbEntity
  8
0
 62
7
100
AcDbSpline
 70
8
 71
3
 72
8
 73
4
 74
0
 40
0
 40
0
 40
0
 40
0
 40
1
 40
1
 40
1
 40
1
 10
1302.471675
 20
2955.092152
 30
0.0
 10
1299.148950
 20
2950.687762
 30
0.0
 10
1296.147150
 20
2946.833617
 30
0.0
 10
1295.800950
 20
2946.527370
 30
0.0
  0
SPLINE
  5
326
100
AcDbEntity
  8
0
 62
7
100
AcDbSpline
 70
8
 71
3
 72
8
 73
4
 74
0
 40
0
 40
0
 40
0
 40
0
 40
1
 40
1
 40
1
 40
1
 10
1295.800950
 20
2946.527370
 30
0.0
 10
1294.599825
 20
2945.464762
 30
0.0
 10
1279.640175
 20
2923.631085
 30
0.0
 10
1271.764950
 20
2911.446780
 30
0.0
  0
SPLINE
  5
327
100
AcDbEntity
  8
0
 62
7
100
AcDbSpline
 70
8
 71
3
 72
8
 73
4
 74
0
 40
0
 40
0
 40
0
 40
0
 40
1
 40
1
 40
1
 40
1
 10
1271.764950
 20
2911.446780
 30
0.0
 10
1262.348400
 20
2896.878023
 30
0.0
 10
1253.460525
 20
2881.756710
 30
0.0
 10
1246.237425
 20
2868.015690
 30
0.0
  0
SPLINE
  5
328
100
AcDbEntity
  8
0
 62
7
100
AcDbSpline
 70
8
 71
3
 72
8
 73
4
 74
0
 40
0
 40
0
 40
0
 40
0
 40
1
 40
1
 40
1
 40
1
 10
1246.237425
 20
2868.015690
 30
0.0
 10
1243.339650
 20
2862.503168
 30
0.0
 10
1240.357800
 20
2856.990645
 30
0.0
 10
1239.611250
 20
2855.765640
 30
0.0
  0
SPLINE
  5
329
100
AcDbEntity
  8
0
 62
7
100
AcDbSpline
 70
8
 71
3
 72
8
 73
4
 74
0
 40
0
 40
0
 40
0
 40
0
 40
1
 40
1
 40
1
 40
1
 10
1239.611250
 20
2855.765640
 30
0.0
 10
1236.280050
 20
2850.299535
 30
0.0
 10
1221.550050
 20
2817.591180
 30
0.0
 10
1216.040025
 20
2803.424520
 30
0.0
  0
SPLINE
  5
32a
100
AcDbEntity
  8
0
 62
7
100
AcDbSpline
 70
8
 71
3
 72
8
 73
4
 74
0
 40
0
 40
0
 40
0
 40
0
 40
1
 40
1
 40
1
 40
1
 10
1216.040025
 20
2803.424520
 30
0.0
 10
1212.704850
 20
2794.849492
 30
0.0
 10
1209.308325
 20
2786.330137
 30
0.0
 10
1208.492325
 20
2784.492622
 30
0.0
  0
SPLINE
  5
32b
100
AcDbEntity
  8
0
 62
7
100
AcDbSpline
 70
8
 71
3
 72
8
 73
4
 74
0
 40
0
 40
0
 40
0
 40
0
 40
1
 40
1
 40
1
 40
1
 10
1208.492325
 20
2784.492622
 30
0.0
 10
1207.157025
 20
2781.485805
 30
0.0
 10
1200.927825
 20
2762.651257
 30
0.0
 10
1196.272950
 20
2747.545177
 30
0.0
  0
SPLINE
  5
32c
100
AcDbEntity
  8
0
 62
7
100
AcDbSpline
 70
8
 71
3
 72
8
 73
4
 74
0
 40
0
 40
0
 40
0
 40
0
 40
1
 40
1
 40
1
 40
1
 10
1196.272950
 20
2747.545177
 30
0.0
 10
1187.195850
 20
2718.088965
 30
0.0
 10
1174.443000
 20
2655.100005
 30
0.0
 10
1174.443000
 20
2639.723700
 30
0.0
  0
SPLINE
  5
32d
100
AcDbEntity
  8
0
 62
7
100
AcDbSpline
 70
8
 71
3
 72
8
 73
4
 74
0
 40
0
 40
0
 40
0
 40
0
 40
1
 40
1
 40
1
 40
1
 10
1174.443000
 20
2639.723700
 30
0.0
 10
1174.443000
 20
2637.522660
 30
0.0
 10
1175.547225
 20
2637.308857
 30
0.0
 10
1196.795550
 20
2635.395510
 30
0.0
  0
SPLINE
  5
32e
100
AcDbEntity
  8
0
 62
7
100
AcDbSpline
 70
8
 71
3
 72
8
 73
4
 74
0
 40
0
 40
0
 40
0
 40
0
 40
1
 40
1
 40
1
 40
1
 10
1196.795550
 20
2635.395510
 30
0.0
 10
1209.089475
 20
2634.288502
 30
0.0
 10
1219.391325
 20
2633.625772
 30
0.0
 10
1219.688325
 20
2633.922817
 30
0.0
  0
SPLINE
  5
32f
100
AcDbEntity
  8
0
 62
7
100
AcDbSpline
 70
8
 71
3
 72
8
 73
4
 74
0
 40
0
 40
0
 40
0
 40
0
 40
1
 40
1
 40
1
 40
1
 10
1219.688325
 20
2633.922817
 30
0.0
 10
1219.985400
 20
2634.219848
 30
0.0
 10
1220.928300
 20
2639.404117
 30
0.0
 10
1221.783525
 20
2645.443417
 30
0.0
  0
SPLINE
  5
330
100
AcDbEntity
  8
0
 62
7
100
AcDbSpline
 70
8
 71
3
 72
8
 73
4
 74
0
 40
0
 40
0
 40
0
 40
0
 40
1
 40
1
 40
1
 40
1
 10
1221.783525
 20
2645.443417
 30
0.0
 10
1232.681775
 20
2722.390642
 30
0.0
 10
1259.442900
 20
2799.544740
 30
0.0
 10
1297.819575
 20
2864.659942
 30
0.0
  0
SPLINE
  5
331
100
AcDbEntity
  8
0
 62
7
100
AcDbSpline
 70
8
 71
3
 72
8
 73
4
 74
0
 40
0
 40
0
 40
0
 40
0
 40
1
 40
1
 40
1
 40
1
 10
1297.819575
 20
2864.659942
 30
0.0
 10
1310.517000
 20
2886.204435
 30
0.0
 10
1322.798475
 20
2904.354727
 30
0.0
 10
1324.291500
 20
2903.781810
 30
0.0
  0
SPLINE
  5
332
100
AcDbEntity
  8
0
 62
7
100
AcDbSpline
 70
8
 71
3
 72
8
 73
4
 74
0
 40
0
 40
0
 40
0
 40
0
 40
1
 40
1
 40
1
 40
1
 10
1324.291500
 20
2903.781810
 30
0.0
 10
1325.333775
 20
2903.381805
 30
0.0
 10
1338.163425
 20
2894.827125
 30
0.0
 10
1341.284025
 20
2892.451230
 30
0.0
  0
SPLINE
  5
333
100
AcDbEntity
  8
0
 62
7
100
AcDbSpline
 70
8
 71
3
 72
8
 73
4
 74
0
 40
0
 40
0
 40
0
 40
0
 40
1
 40
1
 40
1
 40
1
 10
1341.284025
 20
2892.451230
 30
0.0
 10
1341.477525
 20
2892.303892
 30
0.0
 10
1337.705550
 20
2886.244507
 30
0.0
 10
1332.901950
 20
2878.985872
 30
0.0
  0
SPLINE
  5
334
100
AcDbEntity
  8
0
 62
7
100
AcDbSpline
 70
8
 71
3
 72
8
 73
4
 74
0
 40
0
 40
0
 40
0
 40
0
 40
1
 40
1
 40
1
 40
1
 10
1332.901950
 20
2878.985872
 30
0.0
 10
1328.098275
 20
2871.727275
 30
0.0
 10
1320.950025
 20
2860.275885
 30
0.0
 10
1317.017025
 20
2853.538350
 30
0.0
  0
SPLINE
  5
335
100
AcDbEntity
  8
0
 62
7
100
AcDbSpline
 70
8
 71
3
 72
8
 73
4
 74
0
 40
0
 40
0
 40
0
 40
0
 40
1
 40
1
 40
1
 40
1
 10
1317.017025
 20
2853.538350
 30
0.0
 10
1309.382700
 20
2840.459857
 30
0.0
 10
1290.190275
 20
2803.005187
 30
0.0
 10
1288.205250
 20
2797.311067
 30
0.0
  0
SPLINE
  5
336
100
AcDbEntity
  8
0
 62
7
100
AcDbSpline
 70
8
 71
3
 72
8
 73
4
 74
0
 40
0
 40
0
 40
0
 40
0
 40
1
 40
1
 40
1
 40
1
 10
1288.205250
 20
2797.311067
 30
0.0
 10
1286.747475
 20
2793.129465
 30
0.0
 10
1282.348950
 20
2795.328082
 30
0.0
 10
1337.591400
 20
2772.625170
 30
0.0
  0
SPLINE
  5
337
100
AcDbEntity
  8
0
 62
7
100
AcDbSpline
 70
8
 71
3
 72
8
 73
4
 74
0
 40
0
 40
0
 40
0
 40
0
 40
1
 40
1
 40
1
 40
1
 10
1337.591400
 20
2772.625170
 30
0.0
 10
1360.253925
 20
2763.311528
 30
0.0
 10
1381.552350
 20
2754.541125
 30
0.0
 10
1384.921125
 20
2753.135362
 30
0.0
  0
SPLINE
  5
338
100
AcDbEntity
  8
0
 62
7
100
AcDbSpline
 70
8
 71
3
 72
8
 73
4
 74
0
 40
0
 40
0
 40
0
 40
0
 40
1
 40
1
 40
1
 40
1
 10
1384.921125
 20
2753.135362
 30
0.0
 10
1388.289825
 20
2751.729623
 30
0.0
 10
1391.643075
 20
2750.567550
 30
0.0
 10
1392.372825
 20
2750.553022
 30
0.0
  0
SPLINE
  5
339
100
AcDbEntity
  8
0
 62
7
100
AcDbSpline
 70
8
 71
3
 72
8
 73
4
 74
0
 40
0
 40
0
 40
0
 40
0
 40
1
 40
1
 40
1
 40
1
 10
1392.372825
 20
2750.553022
 30
0.0
 10
1393.102575
 20
2750.538397
 30
0.0
 10
1397.379000
 20
2757.918375
 30
0.0
 10
1401.875925
 20
2766.952777
 30
0.0
  0
SPLINE
  5
33a
100
AcDbEntity
  8
0
 62
7
100
AcDbSpline
 70
8
 71
3
 72
8
 73
4
 74
0
 40
0
 40
0
 40
0
 40
0
 40
1
 40
1
 40
1
 40
1
 10
1401.875925
 20
2766.952777
 30
0.0
 10
1406.372925
 20
2775.987187
 30
0.0
 10
1413.490725
 20
2789.278357
 30
0.0
 10
1417.693350
 20
2796.488692
 30
0.0
  0
SPLINE
  5
33b
100
AcDbEntity
  8
0
 62
7
100
AcDbSpline
 70
8
 71
3
 72
8
 73
4
 74
0
 40
0
 40
0
 40
0
 40
0
 40
1
 40
1
 40
1
 40
1
 10
1417.693350
 20
2796.488692
 30
0.0
 10
1421.896050
 20
2803.699050
 30
0.0
 10
1425.136650
 20
2809.735237
 30
0.0
 10
1424.894925
 20
2809.902480
 30
0.0
  0
SPLINE
  5
33c
100
AcDbEntity
  8
0
 62
7
100
AcDbSpline
 70
8
 71
3
 72
8
 73
4
 74
0
 40
0
 40
0
 40
0
 40
0
 40
1
 40
1
 40
1
 40
1
 10
1424.894925
 20
2809.902480
 30
0.0
 10
1424.653050
 20
2810.069730
 30
0.0
 10
1412.549100
 20
2818.105920
 30
0.0
 10
1397.997150
 20
2827.760677
 30
0.0
  0
LWPOLYLINE
  5
33d
100
AcDbEntity
  8
0
 62
7
100
AcDbPolyline
 90
5
 70
0
 10
1388.708925
 20
2983.251570
 30
0.0
 10
1399.390500
 20
2993.805232
 30
0.0
 10
1407.171825
 20
2986.083502
 30
0.0
 10
1414.953150
 20
2978.361765
 30
0.0
 10
1404.670200
 20
2967.727800
 30
0.0
  0
SPLINE
  5
33e
100
AcDbEntity
  8
0
 62
7
100
AcDbSpline
 70
8
 71
3
 72
8
 73
4
 74
0
 40
0
 40
0
 40
0
 40
0
 40
1
 40
1
 40
1
 40
1
 10
1374.724500
 20
2849.983387
 30
0.0
 10
1376.476575
 20
2852.551125
 30
0.0
 10
1379.243400
 20
2856.781935
 30
0.0
 10
1380.872925
 20
2859.385185
 30
0.0
  0
LWPOLYLINE
  5
33f
100
AcDbEntity
  8
0
 62
7
100
AcDbPolyline
 90
3
 70
0
 10
1397.997150
 20
2827.760677
 30
0.0
 10
1371.538950
 20
2845.314787
 30
0.0
 10
1374.724500
 20
2849.983387
 30
0.0
  0
SPLINE
  5
340
100
AcDbEntity
  8
0
 62
7
100
AcDbSpline
 70
8
 71
3
 72
8
 73
4
 74
0
 40
0
 40
0
 40
0
 40
0
 40
1
 40
1
 40
1
 40
1
 10
1415.838675
 20
2842.763925
 30
0.0
 10
1433.440425
 20
2831.018977
 30
0.0
 10
1449.681975
 20
2820.076650
 30
0.0
 10
1451.930925
 20
2818.447635
 30
0.0
  0
LWPOLYLINE
  5
341
100
AcDbEntity
  8
0
 62
7
100
AcDbPolyline
 90
3
 70
0
 10
1380.872925
 20
2859.385185
 30
0.0
 10
1383.835650
 20
2864.118375
 30
0.0
 10
1415.838675
 20
2842.763925
 30
0.0
  0
SPLINE
  5
342
100
AcDbEntity
  8
0
 62
7
100
AcDbSpline
 70
8
 71
3
 72
8
 73
4
 74
0
 40
0
 40
0
 40
0
 40
0
 40
1
 40
1
 40
1
 40
1
 10
1448.132775
 20
2803.330125
 30
0.0
 10
1416.747300
 20
2754.960195
 30
0.0
 10
1396.119150
 20
2704.304542
 30
0.0
 10
1384.951500
 20
2648.177917
 30
0.0
  0
SPLINE
  5
343
100
AcDbEntity
  8
0
 62
7
100
AcDbSpline
 70
8
 71
3
 72
8
 73
4
 74
0
 40
0
 40
0
 40
0
 40
0
 40
1
 40
1
 40
1
 40
1
 10
1384.951500
 20
2648.177917
 30
0.0
 10
1379.884950
 20
2622.714376
 30
0.0
 10
1378.102725
 20
2606.126836
 30
0.0
 10
1377.431850
 20
2578.190663
 30
0.0
  0
LWPOLYLINE
  5
344
100
AcDbEntity
  8
0
 62
7
100
AcDbPolyline
 90
3
 70
0
 10
1451.930925
 20
2818.447635
 30
0.0
 10
1456.020150
 20
2815.485787
 30
0.0
 10
1448.132775
 20
2803.330125
 30
0.0
  0
SPLINE
  5
345
100
AcDbEntity
  8
0
 62
7
100
AcDbSpline
 70
8
 71
3
 72
8
 73
4
 74
0
 40
0
 40
0
 40
0
 40
0
 40
1
 40
1
 40
1
 40
1
 10
1353.760125
 20
2558.701946
 30
0.0
 10
1353.801375
 20
2571.331327
 30
0.0
 10
1356.023025
 20
2605.467412
 30
0.0
 10
1357.726875
 20
2619.673789
 30
0.0
  0
SPLINE
  5
346
100
AcDbEntity
  8
0
 62
7
100
AcDbSpline
 70
8
 71
3
 72
8
 73
4
 74
0
 40
0
 40
0
 40
0
 40
0
 40
1
 40
1
 40
1
 40
1
 10
1357.726875
 20
2619.673789
 30
0.0
 10
1361.257200
 20
2649.111540
 30
0.0
 10
1370.835225
 20
2689.597590
 30
0.0
 10
1380.895200
 20
2717.606325
 30
0.0
  0
SPLINE
  5
347
100
AcDbEntity
  8
0
 62
7
100
AcDbSpline
 70
8
 71
3
 72
8
 73
4
 74
0
 40
0
 40
0
 40
0
 40
0
 40
1
 40
1
 40
1
 40
1
 10
1380.895200
 20
2717.606325
 30
0.0
 10
1383.081750
 20
2723.694045
 30
0.0
 10
1384.731975
 20
2728.813695
 30
0.0
 10
1384.562250
 20
2728.983330
 30
0.0
  0
SPLINE
  5
348
100
AcDbEntity
  8
0
 62
7
100
AcDbSpline
 70
8
 71
3
 72
8
 73
4
 74
0
 40
0
 40
0
 40
0
 40
0
 40
1
 40
1
 40
1
 40
1
 10
1384.562250
 20
2728.983330
 30
0.0
 10
1384.230000
 20
2729.315662
 30
0.0
 10
1357.715400
 20
2740.353907
 30
0.0
 10
1334.250075
 20
2749.928797
 30
0.0
  0
SPLINE
  5
349
100
AcDbEntity
  8
0
 62
7
100
AcDbSpline
 70
8
 71
3
 72
8
 73
4
 74
0
 40
0
 40
0
 40
0
 40
0
 40
1
 40
1
 40
1
 40
1
 10
1334.250075
 20
2749.928797
 30
0.0
 10
1326.287550
 20
2753.177835
 30
0.0
 10
1310.551275
 20
2759.677477
 30
0.0
 10
1299.280725
 20
2764.372417
 30
0.0
  0
SPLINE
  5
34a
100
AcDbEntity
  8
0
 62
7
100
AcDbSpline
 70
8
 71
3
 72
8
 73
4
 74
0
 40
0
 40
0
 40
0
 40
0
 40
1
 40
1
 40
1
 40
1
 10
1299.280725
 20
2764.372417
 30
0.0
 10
1288.010100
 20
2769.067365
 30
0.0
 10
1278.437025
 20
2772.508260
 30
0.0
 10
1278.007425
 20
2772.018817
 30
0.0
  0
SPLINE
  5
34b
100
AcDbEntity
  8
0
 62
7
100
AcDbSpline
 70
8
 71
3
 72
8
 73
4
 74
0
 40
0
 40
0
 40
0
 40
0
 40
1
 40
1
 40
1
 40
1
 10
1278.007425
 20
2772.018817
 30
0.0
 10
1277.333475
 20
2771.251267
 30
0.0
 10
1272.522975
 20
2758.240290
 30
0.0
 10
1267.384725
 20
2743.287922
 30
0.0
  0
SPLINE
  5
34c
100
AcDbEntity
  8
0
 62
7
100
AcDbSpline
 70
8
 71
3
 72
8
 73
4
 74
0
 40
0
 40
0
 40
0
 40
0
 40
1
 40
1
 40
1
 40
1
 10
1267.384725
 20
2743.287922
 30
0.0
 10
1256.671800
 20
2712.113505
 30
0.0
 10
1246.599675
 20
2666.102475
 30
0.0
 10
1242.350550
 20
2628.928624
 30
0.0
  0
SPLINE
  5
34d
100
AcDbEntity
  8
0
 62
7
100
AcDbSpline
 70
8
 71
3
 72
8
 73
4
 74
0
 40
0
 40
0
 40
0
 40
0
 40
1
 40
1
 40
1
 40
1
 10
1242.350550
 20
2628.928624
 30
0.0
 10
1241.151825
 20
2618.440988
 30
0.0
 10
1239.909300
 20
2609.598553
 30
0.0
 10
1239.589500
 20
2609.278771
 30
0.0
  0
SPLINE
  5
34e
100
AcDbEntity
  8
0
 62
7
100
AcDbSpline
 70
8
 71
3
 72
8
 73
4
 74
0
 40
0
 40
0
 40
0
 40
0
 40
1
 40
1
 40
1
 40
1
 10
1239.589500
 20
2609.278771
 30
0.0
 10
1239.269775
 20
2608.958989
 30
0.0
 10
1230.619725
 20
2609.561878
 30
0.0
 10
1220.367450
 20
2610.618523
 30
0.0
  0
SPLINE
  5
34f
100
AcDbEntity
  8
0
 62
7
100
AcDbSpline
 70
8
 71
3
 72
8
 73
4
 74
0
 40
0
 40
0
 40
0
 40
0
 40
1
 40
1
 40
1
 40
1
 10
1220.367450
 20
2610.618523
 30
0.0
 10
1210.115025
 20
2611.675168
 30
0.0
 10
1195.211925
 20
2613.202776
 30
0.0
 10
1187.249400
 20
2614.013199
 30
0.0
  0
SPLINE
  5
350
100
AcDbEntity
  8
0
 62
7
100
AcDbSpline
 70
8
 71
3
 72
8
 73
4
 74
0
 40
0
 40
0
 40
0
 40
0
 40
1
 40
1
 40
1
 40
1
 10
1187.249400
 20
2614.013199
 30
0.0
 10
1178.412900
 20
2614.912566
 30
0.0
 10
1172.338200
 20
2615.087539
 30
0.0
 10
1171.658475
 20
2614.462272
 30
0.0
  0
SPLINE
  5
351
100
AcDbEntity
  8
0
 62
7
100
AcDbSpline
 70
8
 71
3
 72
8
 73
4
 74
0
 40
0
 40
0
 40
0
 40
0
 40
1
 40
1
 40
1
 40
1
 10
1171.658475
 20
2614.462272
 30
0.0
 10
1170.948525
 20
2613.809220
 30
0.0
 10
1170.546225
 20
2595.795359
 30
0.0
 10
1170.548625
 20
2564.771518
 30
0.0
  0
SPLINE
  5
352
100
AcDbEntity
  8
0
 62
7
100
AcDbSpline
 70
8
 71
3
 72
8
 73
4
 74
0
 40
0
 40
0
 40
0
 40
0
 40
1
 40
1
 40
1
 40
1
 10
1170.548625
 20
2564.771518
 30
0.0
 10
1170.548625
 20
2520.857212
 30
0.0
 10
1170.802725
 20
2514.039108
 30
0.0
 10
1173.116625
 20
2494.946011
 30
0.0
  0
SPLINE
  5
353
100
AcDbEntity
  8
0
 62
7
100
AcDbSpline
 70
8
 71
3
 72
8
 73
4
 74
0
 40
0
 40
0
 40
0
 40
0
 40
1
 40
1
 40
1
 40
1
 10
1173.116625
 20
2494.946011
 30
0.0
 10
1179.648675
 20
2441.044620
 30
0.0
 10
1187.150250
 20
2406.771967
 30
0.0
 10
1202.854350
 20
2359.081830
 30
0.0
  0
SPLINE
  5
354
100
AcDbEntity
  8
0
 62
7
100
AcDbSpline
 70
8
 71
3
 72
8
 73
4
 74
0
 40
0
 40
0
 40
0
 40
0
 40
1
 40
1
 40
1
 40
1
 10
1202.854350
 20
2359.081830
 30
0.0
 10
1223.083425
 20
2297.649712
 30
0.0
 10
1256.299875
 20
2233.825290
 30
0.0
 10
1295.296650
 20
2181.456120
 30
0.0
  0
SPLINE
  5
355
100
AcDbEntity
  8
0
 62
7
100
AcDbSpline
 70
8
 71
3
 72
8
 73
4
 74
0
 40
0
 40
0
 40
0
 40
0
 40
1
 40
1
 40
1
 40
1
 10
1295.296650
 20
2181.456120
 30
0.0
 10
1298.717475
 20
2176.862347
 30
0.0
 10
1303.081125
 20
2170.985775
 30
0.0
 10
1304.993775
 20
2168.397007
 30
0.0
  0
SPLINE
  5
356
100
AcDbEntity
  8
0
 62
7
100
AcDbSpline
 70
8
 71
3
 72
8
 73
4
 74
0
 40
0
 40
0
 40
0
 40
0
 40
1
 40
1
 40
1
 40
1
 10
1304.993775
 20
2168.397007
 30
0.0
 10
1307.118225
 20
2165.521590
 30
0.0
 10
1308.936675
 20
2164.036665
 30
0.0
 10
1309.667400
 20
2164.580445
 30
0.0
  0
SPLINE
  5
357
100
AcDbEntity
  8
0
 62
7
100
AcDbSpline
 70
8
 71
3
 72
8
 73
4
 74
0
 40
0
 40
0
 40
0
 40
0
 40
1
 40
1
 40
1
 40
1
 10
1309.667400
 20
2164.580445
 30
0.0
 10
1311.648825
 20
2166.054915
 30
0.0
 10
1341.937050
 20
2190.629377
 30
0.0
 10
1343.448525
 20
2191.988992
 30
0.0
  0
SPLINE
  5
358
100
AcDbEntity
  8
0
 62
7
100
AcDbSpline
 70
8
 71
3
 72
8
 73
4
 74
0
 40
0
 40
0
 40
0
 40
0
 40
1
 40
1
 40
1
 40
1
 10
1343.448525
 20
2191.988992
 30
0.0
 10
1344.548325
 20
2192.978130
 30
0.0
 10
1342.769025
 20
2196.009307
 30
0.0
 10
1335.219825
 20
2206.007047
 30
0.0
  0
SPLINE
  5
359
100
AcDbEntity
  8
0
 62
7
100
AcDbSpline
 70
8
 71
3
 72
8
 73
4
 74
0
 40
0
 40
0
 40
0
 40
0
 40
1
 40
1
 40
1
 40
1
 10
1335.219825
 20
2206.007047
 30
0.0
 10
1314.020250
 20
2234.083072
 30
0.0
 10
1296.708000
 20
2262.248400
 30
0.0
 10
1279.805250
 20
2296.161127
 30
0.0
  0
SPLINE
  5
35a
100
AcDbEntity
  8
0
 62
7
100
AcDbSpline
 70
8
 71
3
 72
8
 73
4
 74
0
 40
0
 40
0
 40
0
 40
0
 40
1
 40
1
 40
1
 40
1
 10
1279.805250
 20
2296.161127
 30
0.0
 10
1269.406725
 20
2317.024065
 30
0.0
 10
1257.965550
 20
2342.577870
 30
0.0
 10
1257.965550
 20
2344.940115
 30
0.0
  0
SPLINE
  5
35b
100
AcDbEntity
  8
0
 62
7
100
AcDbSpline
 70
8
 71
3
 72
8
 73
4
 74
0
 40
0
 40
0
 40
0
 40
0
 40
1
 40
1
 40
1
 40
1
 10
1257.965550
 20
2344.940115
 30
0.0
 10
1257.965550
 20
2345.468745
 30
0.0
 10
1259.594400
 20
2346.428625
 30
0.0
 10
1261.584900
 20
2347.073160
 30
0.0
  0
SPLINE
  5
35c
100
AcDbEntity
  8
0
 62
7
100
AcDbSpline
 70
8
 71
3
 72
8
 73
4
 74
0
 40
0
 40
0
 40
0
 40
0
 40
1
 40
1
 40
1
 40
1
 10
1261.584900
 20
2347.073160
 30
0.0
 10
1263.575550
 20
2347.717695
 30
0.0
 10
1268.082375
 20
2349.547912
 30
0.0
 10
1271.599950
 20
2351.140320
 30
0.0
  0
LWPOLYLINE
  5
35d
100
AcDbEntity
  8
0
 62
7
100
AcDbPolyline
 90
5
 70
0
 10
1377.431850
 20
2578.190663
 30
0.0
 10
1376.810100
 20
2552.298517
 30
0.0
 10
1365.274575
 20
2552.298517
 30
0.0
 10
1353.739125
 20
2552.298517
 30
0.0
 10
1353.760125
 20
2558.701946
 30
0.0
  0
SPLINE
  5
35e
100
AcDbEntity
  8
0
 62
7
100
AcDbSpline
 70
8
 71
3
 72
8
 73
4
 74
0
 40
0
 40
0
 40
0
 40
0
 40
1
 40
1
 40
1
 40
1
 10
1279.733325
 20
2349.876862
 30
0.0
 10
1304.183700
 20
2291.354662
 30
0.0
 10
1327.935975
 20
2250.653062
 30
0.0
 10
1364.510025
 20
2204.604817
 30
0.0
  0
SPLINE
  5
35f
100
AcDbEntity
  8
0
 62
7
100
AcDbSpline
 70
8
 71
3
 72
8
 73
4
 74
0
 40
0
 40
0
 40
0
 40
0
 40
1
 40
1
 40
1
 40
1
 10
1364.510025
 20
2204.604817
 30
0.0
 10
1370.208375
 20
2197.430287
 30
0.0
 10
1375.002150
 20
2191.116915
 30
0.0
 10
1375.162800
 20
2190.575137
 30
0.0
  0
SPLINE
  5
360
100
AcDbEntity
  8
0
 62
7
100
AcDbSpline
 70
8
 71
3
 72
8
 73
4
 74
0
 40
0
 40
0
 40
0
 40
0
 40
1
 40
1
 40
1
 40
1
 10
1375.162800
 20
2190.575137
 30
0.0
 10
1375.443375
 20
2189.628600
 30
0.0
 10
1360.713825
 20
2177.035650
 30
0.0
 10
1335.862725
 20
2156.975610
 30
0.0
  0
SPLINE
  5
361
100
AcDbEntity
  8
0
 62
7
100
AcDbSpline
 70
8
 71
3
 72
8
 73
4
 74
0
 40
0
 40
0
 40
0
 40
0
 40
1
 40
1
 40
1
 40
1
 10
1335.862725
 20
2156.975610
 30
0.0
 10
1329.399525
 20
2151.758542
 30
0.0
 10
1323.956175
 20
2147.062875
 30
0.0
 10
1323.766050
 20
2146.540695
 30
0.0
  0
SPLINE
  5
362
100
AcDbEntity
  8
0
 62
7
100
AcDbSpline
 70
8
 71
3
 72
8
 73
4
 74
0
 40
0
 40
0
 40
0
 40
0
 40
1
 40
1
 40
1
 40
1
 10
1323.766050
 20
2146.540695
 30
0.0
 10
1323.372975
 20
2145.460357
 30
0.0
 10
1337.731875
 20
2129.372580
 30
0.0
 10
1353.596475
 20
2113.118880
 30
0.0
  0
SPLINE
  5
363
100
AcDbEntity
  8
0
 62
7
100
AcDbSpline
 70
8
 71
3
 72
8
 73
4
 74
0
 40
0
 40
0
 40
0
 40
0
 40
1
 40
1
 40
1
 40
1
 10
1353.596475
 20
2113.118880
 30
0.0
 10
1403.278500
 20
2062.218142
 30
0.0
 10
1461.914775
 20
2019.432840
 30
0.0
 10
1525.239450
 20
1987.876050
 30
0.0
  0
SPLINE
  5
364
100
AcDbEntity
  8
0
 62
7
100
AcDbSpline
 70
8
 71
3
 72
8
 73
4
 74
0
 40
0
 40
0
 40
0
 40
0
 40
1
 40
1
 40
1
 40
1
 10
1525.239450
 20
1987.876050
 30
0.0
 10
1561.853025
 20
1969.630162
 30
0.0
 10
1584.533775
 20
1960.487947
 30
0.0
 10
1626.023850
 20
1947.251437
 30
0.0
  0
SPLINE
  5
365
100
AcDbEntity
  8
0
 62
7
100
AcDbSpline
 70
8
 71
3
 72
8
 73
4
 74
0
 40
0
 40
0
 40
0
 40
0
 40
1
 40
1
 40
1
 40
1
 10
1626.023850
 20
1947.251437
 30
0.0
 10
1639.420050
 20
1942.977720
 30
0.0
 10
1675.492350
 20
1934.041762
 30
0.0
 10
1676.595750
 20
1934.723640
 30
0.0
  0
SPLINE
  5
366
100
AcDbEntity
  8
0
 62
7
100
AcDbSpline
 70
8
 71
3
 72
8
 73
4
 74
0
 40
0
 40
0
 40
0
 40
0
 40
1
 40
1
 40
1
 40
1
 10
1676.595750
 20
1934.723640
 30
0.0
 10
1677.127200
 20
1935.052057
 30
0.0
 10
1677.795525
 20
1936.954155
 30
0.0
 10
1678.080975
 20
1938.950467
 30
0.0
  0
SPLINE
  5
367
100
AcDbEntity
  8
0
 62
7
100
AcDbSpline
 70
8
 71
3
 72
8
 73
4
 74
0
 40
0
 40
0
 40
0
 40
0
 40
1
 40
1
 40
1
 40
1
 10
1678.080975
 20
1938.950467
 30
0.0
 10
1678.366350
 20
1940.946787
 30
0.0
 10
1683.182550
 20
1965.406567
 30
0.0
 10
1688.783625
 20
1993.305615
 30
0.0
  0
SPLINE
  5
368
100
AcDbEntity
  8
0
 62
7
100
AcDbSpline
 70
8
 71
3
 72
8
 73
4
 74
0
 40
0
 40
0
 40
0
 40
0
 40
1
 40
1
 40
1
 40
1
 10
1688.783625
 20
1993.305615
 30
0.0
 10
1694.384625
 20
2021.204535
 30
0.0
 10
1698.967425
 20
2044.873755
 30
0.0
 10
1698.967425
 20
2045.903865
 30
0.0
  0
SPLINE
  5
369
100
AcDbEntity
  8
0
 62
7
100
AcDbSpline
 70
8
 71
3
 72
8
 73
4
 74
0
 40
0
 40
0
 40
0
 40
0
 40
1
 40
1
 40
1
 40
1
 10
1698.967425
 20
2045.903865
 30
0.0
 10
1698.967425
 20
2047.043115
 30
0.0
 10
1697.767650
 20
2048.037720
 30
0.0
 10
1695.904875
 20
2048.442855
 30
0.0
  0
SPLINE
  5
36a
100
AcDbEntity
  8
0
 62
7
100
AcDbSpline
 70
8
 71
3
 72
8
 73
4
 74
0
 40
0
 40
0
 40
0
 40
0
 40
1
 40
1
 40
1
 40
1
 10
1695.904875
 20
2048.442855
 30
0.0
 10
1687.474350
 20
2050.276567
 30
0.0
 10
1659.116700
 20
2058.213495
 30
0.0
 10
1648.296675
 20
2061.767782
 30
0.0
  0
SPLINE
  5
36b
100
AcDbEntity
  8
0
 62
7
100
AcDbSpline
 70
8
 71
3
 72
8
 73
4
 74
0
 40
0
 40
0
 40
0
 40
0
 40
1
 40
1
 40
1
 40
1
 10
1648.296675
 20
2061.767782
 30
0.0
 10
1624.517325
 20
2069.578980
 30
0.0
 10
1602.080625
 20
2078.791680
 30
0.0
 10
1602.080625
 20
2080.744342
 30
0.0
  0
SPLINE
  5
36c
100
AcDbEntity
  8
0
 62
7
100
AcDbSpline
 70
8
 71
3
 72
8
 73
4
 74
0
 40
0
 40
0
 40
0
 40
0
 40
1
 40
1
 40
1
 40
1
 10
1602.080625
 20
2080.744342
 30
0.0
 10
1602.080625
 20
2081.535142
 30
0.0
 10
1604.059500
 20
2086.853760
 30
0.0
 10
1606.478175
 20
2092.563292
 30
0.0
  0
SPLINE
  5
36d
100
AcDbEntity
  8
0
 62
7
100
AcDbSpline
 70
8
 71
3
 72
8
 73
4
 74
0
 40
0
 40
0
 40
0
 40
0
 40
1
 40
1
 40
1
 40
1
 10
1606.478175
 20
2092.563292
 30
0.0
 10
1608.896850
 20
2098.272937
 30
0.0
 10
1614.604125
 20
2111.964930
 30
0.0
 10
1619.161050
 20
2122.989982
 30
0.0
  0
LWPOLYLINE
  5
36e
100
AcDbEntity
  8
0
 62
7
100
AcDbPolyline
 90
3
 70
0
 10
1271.599950
 20
2351.140320
 30
0.0
 10
1277.995800
 20
2354.035567
 30
0.0
 10
1279.733325
 20
2349.876862
 30
0.0
  0
SPLINE
  5
36f
100
AcDbEntity
  8
0
 62
7
100
AcDbSpline
 70
8
 71
3
 72
8
 73
4
 74
0
 40
0
 40
0
 40
0
 40
0
 40
1
 40
1
 40
1
 40
1
 10
1610.279925
 20
2151.618338
 30
0.0
 10
1582.754850
 20
2165.380267
 30
0.0
 10
1549.110975
 20
2186.011230
 30
0.0
 10
1550.081625
 20
2188.532932
 30
0.0
  0
SPLINE
  5
370
100
AcDbEntity
  8
0
 62
7
100
AcDbSpline
 70
8
 71
3
 72
8
 73
4
 74
0
 40
0
 40
0
 40
0
 40
0
 40
1
 40
1
 40
1
 40
1
 10
1550.081625
 20
2188.532932
 30
0.0
 10
1550.351625
 20
2189.234460
 30
0.0
 10
1558.867575
 20
2202.271072
 30
0.0
 10
1569.006150
 20
2217.503197
 30
0.0
  0
LWPOLYLINE
  5
371
100
AcDbEntity
  8
0
 62
7
100
AcDbPolyline
 90
3
 70
0
 10
1619.161050
 20
2122.989982
 30
0.0
 10
1627.446300
 20
2143.035510
 30
0.0
 10
1610.279925
 20
2151.618338
 30
0.0
  0
SPLINE
  5
372
100
AcDbEntity
  8
0
 62
7
100
AcDbSpline
 70
8
 71
3
 72
8
 73
4
 74
0
 40
0
 40
0
 40
0
 40
0
 40
1
 40
1
 40
1
 40
1
 10
1578.333975
 20
2251.905877
 30
0.0
 10
1566.252900
 20
2260.805640
 30
0.0
 10
1557.256200
 20
2268.579727
 30
0.0
 10
1542.639825
 20
2282.749612
 30
0.0
  0
SPLINE
  5
373
100
AcDbEntity
  8
0
 62
7
100
AcDbSpline
 70
8
 71
3
 72
8
 73
4
 74
0
 40
0
 40
0
 40
0
 40
0
 40
1
 40
1
 40
1
 40
1
 10
1542.639825
 20
2282.749612
 30
0.0
 10
1532.544225
 20
2292.536805
 30
0.0
 10
1512.792900
 20
2314.122765
 30
0.0
 10
1506.307500
 20
2322.456622
 30
0.0
  0
SPLINE
  5
374
100
AcDbEntity
  8
0
 62
7
100
AcDbSpline
 70
8
 71
3
 72
8
 73
4
 74
0
 40
0
 40
0
 40
0
 40
0
 40
1
 40
1
 40
1
 40
1
 10
1506.307500
 20
2322.456622
 30
0.0
 10
1502.709375
 20
2327.080380
 30
0.0
 10
1497.845700
 20
2333.617110
 30
0.0
 10
1495.632075
 20
2336.804767
 30
0.0
  0
SPLINE
  5
375
100
AcDbEntity
  8
0
 62
7
100
AcDbSpline
 70
8
 71
3
 72
8
 73
4
 74
0
 40
0
 40
0
 40
0
 40
0
 40
1
 40
1
 40
1
 40
1
 10
1495.632075
 20
2336.804767
 30
0.0
 10
1486.754175
 20
2349.588592
 30
0.0
 10
1482.921000
 20
2355.259740
 30
0.0
 10
1482.921000
 20
2355.611325
 30
0.0
  0
SPLINE
  5
376
100
AcDbEntity
  8
0
 62
7
100
AcDbSpline
 70
8
 71
3
 72
8
 73
4
 74
0
 40
0
 40
0
 40
0
 40
0
 40
1
 40
1
 40
1
 40
1
 10
1482.921000
 20
2355.611325
 30
0.0
 10
1482.921000
 20
2356.186867
 30
0.0
 10
1500.158625
 20
2367.434137
 30
0.0
 10
1501.040850
 20
2367.434137
 30
0.0
  0
SPLINE
  5
377
100
AcDbEntity
  8
0
 62
7
100
AcDbSpline
 70
8
 71
3
 72
8
 73
4
 74
0
 40
0
 40
0
 40
0
 40
0
 40
1
 40
1
 40
1
 40
1
 10
1501.040850
 20
2367.434137
 30
0.0
 10
1501.441725
 20
2367.434137
 30
0.0
 10
1503.868200
 20
2364.302017
 30
0.0
 10
1506.432750
 20
2360.473875
 30
0.0
  0
SPLINE
  5
378
100
AcDbEntity
  8
0
 62
7
100
AcDbSpline
 70
8
 71
3
 72
8
 73
4
 74
0
 40
0
 40
0
 40
0
 40
0
 40
1
 40
1
 40
1
 40
1
 10
1506.432750
 20
2360.473875
 30
0.0
 10
1521.430800
 20
2338.086037
 30
0.0
 10
1544.221050
 20
2311.367752
 30
0.0
 10
1563.322725
 20
2293.778985
 30
0.0
  0
SPLINE
  5
379
100
AcDbEntity
  8
0
 62
7
100
AcDbSpline
 70
8
 71
3
 72
8
 73
4
 74
0
 40
0
 40
0
 40
0
 40
0
 40
1
 40
1
 40
1
 40
1
 10
1563.322725
 20
2293.778985
 30
0.0
 10
1580.391225
 20
2278.062127
 30
0.0
 10
1588.262100
 20
2271.827873
 30
0.0
 10
1609.682100
 20
2257.058910
 30
0.0
  0
SPLINE
  5
37a
100
AcDbEntity
  8
0
 62
7
100
AcDbSpline
 70
8
 71
3
 72
8
 73
4
 74
0
 40
0
 40
0
 40
0
 40
0
 40
1
 40
1
 40
1
 40
1
 10
1609.682100
 20
2257.058910
 30
0.0
 10
1614.970275
 20
2253.412665
 30
0.0
 10
1617.631200
 20
2250.889290
 30
0.0
 10
1617.246225
 20
2249.885895
 30
0.0
  0
SPLINE
  5
37b
100
AcDbEntity
  8
0
 62
7
100
AcDbSpline
 70
8
 71
3
 72
8
 73
4
 74
0
 40
0
 40
0
 40
0
 40
0
 40
1
 40
1
 40
1
 40
1
 10
1617.246225
 20
2249.885895
 30
0.0
 10
1616.919450
 20
2249.034510
 30
0.0
 10
1608.586875
 20
2236.290465
 30
0.0
 10
1598.729250
 20
2221.565760
 30
0.0
  0
SPLINE
  5
37c
100
AcDbEntity
  8
0
 62
7
100
AcDbSpline
 70
8
 71
3
 72
8
 73
4
 74
0
 40
0
 40
0
 40
0
 40
0
 40
1
 40
1
 40
1
 40
1
 10
1598.729250
 20
2221.565760
 30
0.0
 10
1588.871550
 20
2206.841070
 30
0.0
 10
1581.096750
 20
2194.323517
 30
0.0
 10
1581.451725
 20
2193.748980
 30
0.0
  0
SPLINE
  5
37d
100
AcDbEntity
  8
0
 62
7
100
AcDbSpline
 70
8
 71
3
 72
8
 73
4
 74
0
 40
0
 40
0
 40
0
 40
0
 40
1
 40
1
 40
1
 40
1
 10
1581.451725
 20
2193.748980
 30
0.0
 10
1584.408750
 20
2188.964670
 30
0.0
 10
1634.109900
 20
2163.907260
 30
0.0
 10
1658.980125
 20
2154.662257
 30
0.0
  0
SPLINE
  5
37e
100
AcDbEntity
  8
0
 62
7
100
AcDbSpline
 70
8
 71
3
 72
8
 73
4
 74
0
 40
0
 40
0
 40
0
 40
0
 40
1
 40
1
 40
1
 40
1
 10
1658.980125
 20
2154.662257
 30
0.0
 10
1677.963150
 20
2147.605552
 30
0.0
 10
1716.360600
 20
2136.060000
 30
0.0
 10
1717.334925
 20
2137.115737
 30
0.0
  0
SPLINE
  5
37f
100
AcDbEntity
  8
0
 62
7
100
AcDbSpline
 70
8
 71
3
 72
8
 73
4
 74
0
 40
0
 40
0
 40
0
 40
0
 40
1
 40
1
 40
1
 40
1
 10
1717.334925
 20
2137.115737
 30
0.0
 10
1717.513425
 20
2137.309050
 30
0.0
 10
1720.606200
 20
2152.250887
 30
0.0
 10
1724.207700
 20
2170.319700
 30
0.0
  0
LWPOLYLINE
  5
380
100
AcDbEntity
  8
0
 62
7
100
AcDbPolyline
 90
3
 70
0
 10
1569.006150
 20
2217.503197
 30
0.0
 10
1587.439650
 20
2245.197982
 30
0.0
 10
1578.333975
 20
2251.905877
 30
0.0
  0
SPLINE
  5
381
100
AcDbEntity
  8
0
 62
7
100
AcDbSpline
 70
8
 71
3
 72
8
 73
4
 74
0
 40
0
 40
0
 40
0
 40
0
 40
1
 40
1
 40
1
 40
1
 10
1735.185525
 20
2202.947392
 30
0.0
 10
1737.621825
 20
2202.823800
 30
0.0
 10
1747.633500
 20
2201.434740
 30
0.0
 10
1757.433525
 20
2199.860610
 30
0.0
  0
SPLINE
  5
382
100
AcDbEntity
  8
0
 62
7
100
AcDbSpline
 70
8
 71
3
 72
8
 73
4
 74
0
 40
0
 40
0
 40
0
 40
0
 40
1
 40
1
 40
1
 40
1
 10
1757.433525
 20
2199.860610
 30
0.0
 10
1768.270425
 20
2198.119905
 30
0.0
 10
1784.960250
 20
2196.491662
 30
0.0
 10
1800.030300
 20
2195.704867
 30
0.0
  0
LWPOLYLINE
  5
383
100
AcDbEntity
  8
0
 62
7
100
AcDbPolyline
 90
3
 70
0
 10
1724.207700
 20
2170.319700
 30
0.0
 10
1730.755800
 20
2203.172100
 30
0.0
 10
1735.185525
 20
2202.947392
 30
0.0
  0
SPLINE
  5
384
100
AcDbEntity
  8
0
 62
7
100
AcDbSpline
 70
8
 71
3
 72
8
 73
4
 74
0
 40
0
 40
0
 40
0
 40
0
 40
1
 40
1
 40
1
 40
1
 10
1817.291700
 20
2172.546983
 30
0.0
 10
1804.720350
 20
2172.558082
 30
0.0
 10
1773.939975
 20
2174.769352
 30
0.0
 10
1762.579950
 20
2176.481805
 30
0.0
  0
SPLINE
  5
385
100
AcDbEntity
  8
0
 62
7
100
AcDbSpline
 70
8
 71
3
 72
8
 73
4
 74
0
 40
0
 40
0
 40
0
 40
0
 40
1
 40
1
 40
1
 40
1
 10
1762.579950
 20
2176.481805
 30
0.0
 10
1756.686900
 20
2177.370135
 30
0.0
 10
1751.060100
 20
2178.099900
 30
0.0
 10
1750.075875
 20
2178.103500
 30
0.0
  0
SPLINE
  5
386
100
AcDbEntity
  8
0
 62
7
100
AcDbSpline
 70
8
 71
3
 72
8
 73
4
 74
0
 40
0
 40
0
 40
0
 40
0
 40
1
 40
1
 40
1
 40
1
 10
1750.075875
 20
2178.103500
 30
0.0
 10
1748.629950
 20
2178.108750
 30
0.0
 10
1747.387125
 20
2173.460288
 30
0.0
 10
1743.601575
 20
2153.888370
 30
0.0
  0
SPLINE
  5
387
100
AcDbEntity
  8
0
 62
7
100
AcDbSpline
 70
8
 71
3
 72
8
 73
4
 74
0
 40
0
 40
0
 40
0
 40
0
 40
1
 40
1
 40
1
 40
1
 10
1743.601575
 20
2153.888370
 30
0.0
 10
1735.556550
 20
2112.293895
 30
0.0
 10
1735.323450
 20
2111.291618
 30
0.0
 10
1733.692725
 20
2111.291618
 30
0.0
  0
SPLINE
  5
388
100
AcDbEntity
  8
0
 62
7
100
AcDbSpline
 70
8
 71
3
 72
8
 73
4
 74
0
 40
0
 40
0
 40
0
 40
0
 40
1
 40
1
 40
1
 40
1
 10
1733.692725
 20
2111.291618
 30
0.0
 10
1724.165775
 20
2111.291618
 30
0.0
 10
1671.440550
 20
2125.630417
 30
0.0
 10
1649.842275
 20
2134.094977
 30
0.0
  0
SPLINE
  5
389
100
AcDbEntity
  8
0
 62
7
100
AcDbSpline
 70
8
 71
3
 72
8
 73
4
 74
0
 40
0
 40
0
 40
0
 40
0
 40
1
 40
1
 40
1
 40
1
 10
1649.842275
 20
2134.094977
 30
0.0
 10
1648.385025
 20
2134.666050
 30
0.0
 10
1646.444400
 20
2130.917197
 30
0.0
 10
1639.541025
 20
2114.195767
 30
0.0
  0
SPLINE
  5
38a
100
AcDbEntity
  8
0
 62
7
100
AcDbSpline
 70
8
 71
3
 72
8
 73
4
 74
0
 40
0
 40
0
 40
0
 40
0
 40
1
 40
1
 40
1
 40
1
 10
1639.541025
 20
2114.195767
 30
0.0
 10
1634.862900
 20
2102.864145
 30
0.0
 10
1631.035350
 20
2093.118442
 30
0.0
 10
1631.035350
 20
2092.538572
 30
0.0
  0
SPLINE
  5
38b
100
AcDbEntity
  8
0
 62
7
100
AcDbSpline
 70
8
 71
3
 72
8
 73
4
 74
0
 40
0
 40
0
 40
0
 40
0
 40
1
 40
1
 40
1
 40
1
 10
1631.035350
 20
2092.538572
 30
0.0
 10
1631.035350
 20
2091.313357
 30
0.0
 10
1630.970100
 20
2091.340177
 30
0.0
 10
1647.739875
 20
2085.533887
 30
0.0
  0
SPLINE
  5
38c
100
AcDbEntity
  8
0
 62
7
100
AcDbSpline
 70
8
 71
3
 72
8
 73
4
 74
0
 40
0
 40
0
 40
0
 40
0
 40
1
 40
1
 40
1
 40
1
 10
1647.739875
 20
2085.533887
 30
0.0
 10
1694.173125
 20
2069.456040
 30
0.0
 10
1755.236175
 20
2057.889090
 30
0.0
 10
1793.905200
 20
2057.846430
 30
0.0
  0
LWPOLYLINE
  5
38d
100
AcDbEntity
  8
0
 62
7
100
AcDbPolyline
 90
5
 70
0
 10
1800.030300
 20
2195.704867
 30
0.0
 10
1824.808725
 20
2194.411192
 30
0.0
 10
1824.808725
 20
2183.479095
 30
0.0
 10
1824.808725
 20
2172.546983
 30
0.0
 10
1817.291700
 20
2172.546983
 30
0.0
  0
SPLINE
  5
38e
100
AcDbEntity
  8
0
 62
7
100
AcDbSpline
 70
8
 71
3
 72
8
 73
4
 74
0
 40
0
 40
0
 40
0
 40
0
 40
1
 40
1
 40
1
 40
1
 10
1797.246225
 20
2035.887000
 30
0.0
 10
1772.144550
 20
2036.461507
 30
0.0
 10
1750.887900
 20
2038.376317
 30
0.0
 10
1727.922000
 20
2042.131725
 30
0.0
  0
SPLINE
  5
38f
100
AcDbEntity
  8
0
 62
7
100
AcDbSpline
 70
8
 71
3
 72
8
 73
4
 74
0
 40
0
 40
0
 40
0
 40
0
 40
1
 40
1
 40
1
 40
1
 10
1727.922000
 20
2042.131725
 30
0.0
 10
1724.553225
 20
2042.682660
 30
0.0
 10
1721.726925
 20
2043.058627
 30
0.0
 10
1721.641350
 20
2042.967285
 30
0.0
  0
SPLINE
  5
390
100
AcDbEntity
  8
0
 62
7
100
AcDbSpline
 70
8
 71
3
 72
8
 73
4
 74
0
 40
0
 40
0
 40
0
 40
0
 40
1
 40
1
 40
1
 40
1
 10
1721.641350
 20
2042.967285
 30
0.0
 10
1721.039250
 20
2042.324842
 30
0.0
 10
1699.188150
 20
1930.288222
 30
0.0
 10
1699.587150
 20
1929.889207
 30
0.0
  0
SPLINE
  5
391
100
AcDbEntity
  8
0
 62
7
100
AcDbSpline
 70
8
 71
3
 72
8
 73
4
 74
0
 40
0
 40
0
 40
0
 40
0
 40
1
 40
1
 40
1
 40
1
 10
1699.587150
 20
1929.889207
 30
0.0
 10
1701.107100
 20
1928.369317
 30
0.0
 10
1746.713550
 20
1922.571922
 30
0.0
 10
1770.240450
 20
1920.907920
 30
0.0
  0
SPLINE
  5
392
100
AcDbEntity
  8
0
 62
7
100
AcDbSpline
 70
8
 71
3
 72
8
 73
4
 74
0
 40
0
 40
0
 40
0
 40
0
 40
1
 40
1
 40
1
 40
1
 10
1770.240450
 20
1920.907920
 30
0.0
 10
1779.121725
 20
1920.279825
 30
0.0
 10
1798.666050
 20
1919.765880
 30
0.0
 10
1813.672425
 20
1919.765880
 30
0.0
  0
SPLINE
  5
393
100
AcDbEntity
  8
0
 62
7
100
AcDbSpline
 70
8
 71
3
 72
8
 73
4
 74
0
 40
0
 40
0
 40
0
 40
0
 40
1
 40
1
 40
1
 40
1
 10
1813.672425
 20
1919.765880
 30
0.0
 10
1902.322500
 20
1919.765880
 30
0.0
 10
1982.316075
 20
1935.905760
 30
0.0
 10
2065.692450
 20
1970.614612
 30
0.0
  0
SPLINE
  5
394
100
AcDbEntity
  8
0
 62
7
100
AcDbSpline
 70
8
 71
3
 72
8
 73
4
 74
0
 40
0
 40
0
 40
0
 40
0
 40
1
 40
1
 40
1
 40
1
 10
2065.692450
 20
1970.614612
 30
0.0
 10
2095.403700
 20
1982.983260
 30
0.0
 10
2163.107925
 20
2019.764482
 30
0.0
 10
2161.468650
 20
2022.646365
 30
0.0
  0
SPLINE
  5
395
100
AcDbEntity
  8
0
 62
7
100
AcDbSpline
 70
8
 71
3
 72
8
 73
4
 74
0
 40
0
 40
0
 40
0
 40
0
 40
1
 40
1
 40
1
 40
1
 10
2161.468650
 20
2022.646365
 30
0.0
 10
2161.086075
 20
2023.318995
 30
0.0
 10
2152.465275
 20
2036.358075
 30
0.0
 10
2142.311175
 20
2051.622075
 30
0.0
  0
SPLINE
  5
396
100
AcDbEntity
  8
0
 62
7
100
AcDbSpline
 70
8
 71
3
 72
8
 73
4
 74
0
 40
0
 40
0
 40
0
 40
0
 40
1
 40
1
 40
1
 40
1
 10
2142.311175
 20
2051.622075
 30
0.0
 10
2132.157075
 20
2066.886187
 30
0.0
 10
2124.344100
 20
2079.541935
 30
0.0
 10
2124.948900
 20
2079.745950
 30
0.0
  0
SPLINE
  5
397
100
AcDbEntity
  8
0
 62
7
100
AcDbSpline
 70
8
 71
3
 72
8
 73
4
 74
0
 40
0
 40
0
 40
0
 40
0
 40
1
 40
1
 40
1
 40
1
 10
2124.948900
 20
2079.745950
 30
0.0
 10
2126.201850
 20
2080.168575
 30
0.0
 10
2156.140800
 20
2101.212832
 30
0.0
 10
2162.696025
 20
2106.278662
 30
0.0
  0
SPLINE
  5
398
100
AcDbEntity
  8
0
 62
7
100
AcDbSpline
 70
8
 71
3
 72
8
 73
4
 74
0
 40
0
 40
0
 40
0
 40
0
 40
1
 40
1
 40
1
 40
1
 10
2162.696025
 20
2106.278662
 30
0.0
 10
2196.235350
 20
2132.197762
 30
0.0
 10
2230.445250
 20
2164.975005
 30
0.0
 10
2254.726650
 20
2194.455465
 30
0.0
  0
SPLINE
  5
399
100
AcDbEntity
  8
0
 62
7
100
AcDbSpline
 70
8
 71
3
 72
8
 73
4
 74
0
 40
0
 40
0
 40
0
 40
0
 40
1
 40
1
 40
1
 40
1
 10
2254.726650
 20
2194.455465
 30
0.0
 10
2259.176700
 20
2199.858450
 30
0.0
 10
2263.441125
 20
2204.962860
 30
0.0
 10
2264.202900
 20
2205.798585
 30
0.0
  0
SPLINE
  5
39a
100
AcDbEntity
  8
0
 62
7
100
AcDbSpline
 70
8
 71
3
 72
8
 73
4
 74
0
 40
0
 40
0
 40
0
 40
0
 40
1
 40
1
 40
1
 40
1
 10
2264.202900
 20
2205.798585
 30
0.0
 10
2265.350925
 20
2207.057850
 30
0.0
 10
2267.026650
 20
2206.117755
 30
0.0
 10
2273.986050
 20
2200.310025
 30
0.0
  0
LWPOLYLINE
  5
39b
100
AcDbEntity
  8
0
 62
7
100
AcDbPolyline
 90
9
 70
0
 10
1793.905200
 20
2057.846430
 30
0.0
 10
1802.535975
 20
2057.835330
 30
0.0
 10
1802.535975
 20
2090.130877
 30
0.0
 10
1802.535975
 20
2122.426470
 30
0.0
 10
1813.672425
 20
2122.426470
 30
0.0
 10
1824.808725
 20
2122.426470
 30
0.0
 10
1824.808725
 20
2078.841232
 30
0.0
 10
1824.808725
 20
2035.256002
 30
0.0
 10
1797.246225
 20
2035.887000
 30
0.0
  0
SPLINE
  5
39c
100
AcDbEntity
  8
0
 62
7
100
AcDbSpline
 70
8
 71
3
 72
8
 73
4
 74
0
 40
0
 40
0
 40
0
 40
0
 40
1
 40
1
 40
1
 40
1
 10
2280.333750
 20
2190.438202
 30
0.0
 10
2276.877675
 20
2185.609732
 30
0.0
 10
2253.759750
 20
2159.049885
 30
0.0
 10
2246.338275
 20
2151.381135
 30
0.0
  0
SPLINE
  5
39d
100
AcDbEntity
  8
0
 62
7
100
AcDbSpline
 70
8
 71
3
 72
8
 73
4
 74
0
 40
0
 40
0
 40
0
 40
0
 40
1
 40
1
 40
1
 40
1
 10
2246.338275
 20
2151.381135
 30
0.0
 10
2221.614150
 20
2125.832985
 30
0.0
 10
2191.013025
 20
2099.058277
 30
0.0
 10
2165.107425
 20
2080.307677
 30
0.0
  0
SPLINE
  5
39e
100
AcDbEntity
  8
0
 62
7
100
AcDbSpline
 70
8
 71
3
 72
8
 73
4
 74
0
 40
0
 40
0
 40
0
 40
0
 40
1
 40
1
 40
1
 40
1
 10
2165.107425
 20
2080.307677
 30
0.0
 10
2159.106600
 20
2075.964150
 30
0.0
 10
2155.599000
 20
2072.704072
 30
0.0
 10
2155.948050
 20
2071.794450
 30
0.0
  0
SPLINE
  5
39f
100
AcDbEntity
  8
0
 62
7
100
AcDbSpline
 70
8
 71
3
 72
8
 73
4
 74
0
 40
0
 40
0
 40
0
 40
0
 40
1
 40
1
 40
1
 40
1
 10
2155.948050
 20
2071.794450
 30
0.0
 10
2156.379375
 20
2070.670335
 30
0.0
 10
2179.236225
 20
2036.283007
 30
0.0
 10
2180.618850
 20
2034.678030
 30
0.0
  0
SPLINE
  5
3a0
100
AcDbEntity
  8
0
 62
7
100
AcDbSpline
 70
8
 71
3
 72
8
 73
4
 74
0
 40
0
 40
0
 40
0
 40
0
 40
1
 40
1
 40
1
 40
1
 10
2180.618850
 20
2034.678030
 30
0.0
 10
2181.418725
 20
2033.749470
 30
0.0
 10
2211.393600
 20
2056.529550
 30
0.0
 10
2230.567125
 20
2072.637255
 30
0.0
  0
SPLINE
  5
3a1
100
AcDbEntity
  8
0
 62
7
100
AcDbSpline
 70
8
 71
3
 72
8
 73
4
 74
0
 40
0
 40
0
 40
0
 40
0
 40
1
 40
1
 40
1
 40
1
 10
2230.567125
 20
2072.637255
 30
0.0
 10
2248.753125
 20
2087.915287
 30
0.0
 10
2288.094900
 20
2127.144075
 30
0.0
 10
2304.311625
 20
2146.170067
 30
0.0
  0
SPLINE
  5
3a2
100
AcDbEntity
  8
0
 62
7
100
AcDbSpline
 70
8
 71
3
 72
8
 73
4
 74
0
 40
0
 40
0
 40
0
 40
0
 40
1
 40
1
 40
1
 40
1
 10
2304.311625
 20
2146.170067
 30
0.0
 10
2315.838900
 20
2159.694120
 30
0.0
 10
2342.629950
 20
2194.568647
 30
0.0
 10
2342.644875
 20
2196.069240
 30
0.0
  0
SPLINE
  5
3a3
100
AcDbEntity
  8
0
 62
7
100
AcDbSpline
 70
8
 71
3
 72
8
 73
4
 74
0
 40
0
 40
0
 40
0
 40
0
 40
1
 40
1
 40
1
 40
1
 10
2342.644875
 20
2196.069240
 30
0.0
 10
2342.644875
 20
2196.453840
 30
0.0
 10
2330.875125
 20
2204.589900
 30
0.0
 10
2316.481200
 20
2214.149355
 30
0.0
  0
SPLINE
  5
3a4
100
AcDbEntity
  8
0
 62
7
100
AcDbSpline
 70
8
 71
3
 72
8
 73
4
 74
0
 40
0
 40
0
 40
0
 40
0
 40
1
 40
1
 40
1
 40
1
 10
2316.481200
 20
2214.149355
 30
0.0
 10
2302.087425
 20
2223.708802
 30
0.0
 10
2290.310625
 20
2232.061380
 30
0.0
 10
2290.310625
 20
2232.710655
 30
0.0
  0
SPLINE
  5
3a5
100
AcDbEntity
  8
0
 62
7
100
AcDbSpline
 70
8
 71
3
 72
8
 73
4
 74
0
 40
0
 40
0
 40
0
 40
0
 40
1
 40
1
 40
1
 40
1
 10
2290.310625
 20
2232.710655
 30
0.0
 10
2290.310625
 20
2233.816912
 30
0.0
 10
2301.128100
 20
2250.495157
 30
0.0
 10
2301.845400
 20
2250.495157
 30
0.0
  0
SPLINE
  5
3a6
100
AcDbEntity
  8
0
 62
7
100
AcDbSpline
 70
8
 71
3
 72
8
 73
4
 74
0
 40
0
 40
0
 40
0
 40
0
 40
1
 40
1
 40
1
 40
1
 10
2301.845400
 20
2250.495157
 30
0.0
 10
2302.027275
 20
2250.495157
 30
0.0
 10
2314.130100
 20
2242.495020
 30
0.0
 10
2328.740550
 20
2232.717105
 30
0.0
  0
SPLINE
  5
3a7
100
AcDbEntity
  8
0
 62
7
100
AcDbSpline
 70
8
 71
3
 72
8
 73
4
 74
0
 40
0
 40
0
 40
0
 40
0
 40
1
 40
1
 40
1
 40
1
 10
2328.740550
 20
2232.717105
 30
0.0
 10
2352.511200
 20
2216.808975
 30
0.0
 10
2355.443475
 20
2215.139790
 30
0.0
 10
2356.619475
 20
2216.847720
 30
0.0
  0
SPLINE
  5
3a8
100
AcDbEntity
  8
0
 62
7
100
AcDbSpline
 70
8
 71
3
 72
8
 73
4
 74
0
 40
0
 40
0
 40
0
 40
0
 40
1
 40
1
 40
1
 40
1
 10
2356.619475
 20
2216.847720
 30
0.0
 10
2366.994450
 20
2231.915370
 30
0.0
 10
2388.735750
 20
2272.029345
 30
0.0
 10
2401.051125
 20
2298.826485
 30
0.0
  0
SPLINE
  5
3a9
100
AcDbEntity
  8
0
 62
7
100
AcDbSpline
 70
8
 71
3
 72
8
 73
4
 74
0
 40
0
 40
0
 40
0
 40
0
 40
1
 40
1
 40
1
 40
1
 10
2401.051125
 20
2298.826485
 30
0.0
 10
2433.385650
 20
2369.182838
 30
0.0
 10
2454.080400
 20
2455.679092
 30
0.0
 10
2456.965050
 20
2532.524703
 30
0.0
  0
LWPOLYLINE
  5
3aa
100
AcDbEntity
  8
0
 62
7
100
AcDbPolyline
 90
3
 70
0
 10
2273.986050
 20
2200.310025
 30
0.0
 10
2282.383875
 20
2193.301927
 30
0.0
 10
2280.333750
 20
2190.438202
 30
0.0
  0
SPLINE
  5
3ab
100
AcDbEntity
  8
0
 62
7
100
AcDbSpline
 70
8
 71
3
 72
8
 73
4
 74
0
 40
0
 40
0
 40
0
 40
0
 40
1
 40
1
 40
1
 40
1
 10
2456.992500
 20
2593.774946
 30
0.0
 10
2456.078100
 20
2618.337618
 30
0.0
 10
2449.609800
 20
2674.812045
 30
0.0
 10
2447.428425
 20
2677.276875
 30
0.0
  0
SPLINE
  5
3ac
100
AcDbEntity
  8
0
 62
7
100
AcDbSpline
 70
8
 71
3
 72
8
 73
4
 74
0
 40
0
 40
0
 40
0
 40
0
 40
1
 40
1
 40
1
 40
1
 10
2447.428425
 20
2677.276875
 30
0.0
 10
2446.852125
 20
2677.928227
 30
0.0
 10
2402.944575
 20
2669.823735
 30
0.0
 10
2402.137575
 20
2668.917037
 30
0.0
  0
SPLINE
  5
3ad
100
AcDbEntity
  8
0
 62
7
100
AcDbSpline
 70
8
 71
3
 72
8
 73
4
 74
0
 40
0
 40
0
 40
0
 40
0
 40
1
 40
1
 40
1
 40
1
 10
2402.137575
 20
2668.917037
 30
0.0
 10
2402.015250
 20
2668.779690
 30
0.0
 10
2402.353725
 20
2666.161590
 30
0.0
 10
2402.889525
 20
2663.099078
 30
0.0
  0
SPLINE
  5
3ae
100
AcDbEntity
  8
0
 62
7
100
AcDbSpline
 70
8
 71
3
 72
8
 73
4
 74
0
 40
0
 40
0
 40
0
 40
0
 40
1
 40
1
 40
1
 40
1
 10
2402.889525
 20
2663.099078
 30
0.0
 10
2403.889500
 20
2657.385495
 30
0.0
 10
2407.574325
 20
2629.095255
 30
0.0
 10
2408.790900
 20
2617.793556
 30
0.0
  0
SPLINE
  5
3af
100
AcDbEntity
  8
0
 62
7
100
AcDbSpline
 70
8
 71
3
 72
8
 73
4
 74
0
 40
0
 40
0
 40
0
 40
0
 40
1
 40
1
 40
1
 40
1
 10
2408.790900
 20
2617.793556
 30
0.0
 10
2409.588750
 20
2610.380465
 30
0.0
 10
2410.050825
 20
2610.689189
 30
0.0
 10
2396.481900
 20
2609.567997
 30
0.0
  0
LWPOLYLINE
  5
3b0
100
AcDbEntity
  8
0
 62
7
100
AcDbPolyline
 90
9
 70
0
 10
2456.965050
 20
2532.524703
 30
0.0
 10
2457.707025
 20
2552.291830
 30
0.0
 10
2425.236300
 20
2552.291830
 30
0.0
 10
2392.765650
 20
2552.291830
 30
0.0
 10
2392.765650
 20
2563.428233
 30
0.0
 10
2392.765650
 20
2574.564639
 30
0.0
 10
2425.236600
 20
2574.564639
 30
0.0
 10
2457.707625
 20
2574.564639
 30
0.0
 10
2456.992500
 20
2593.774946
 30
0.0
  0
SPLINE
  5
3b1
100
AcDbEntity
  8
0
 62
7
100
AcDbSpline
 70
8
 71
3
 72
8
 73
4
 74
0
 40
0
 40
0
 40
0
 40
0
 40
1
 40
1
 40
1
 40
1
 10
2386.666125
 20
2615.355608
 30
0.0
 10
2384.323725
 20
2636.472892
 30
0.0
 10
2382.309825
 20
2650.645687
 30
0.0
 10
2379.370800
 20
2666.697180
 30
0.0
  0
SPLINE
  5
3b2
100
AcDbEntity
  8
0
 62
7
100
AcDbSpline
 70
8
 71
3
 72
8
 73
4
 74
0
 40
0
 40
0
 40
0
 40
0
 40
1
 40
1
 40
1
 40
1
 10
2379.370800
 20
2666.697180
 30
0.0
 10
2377.550325
 20
2676.638663
 30
0.0
 10
2376.061050
 20
2685.204240
 30
0.0
 10
2376.061050
 20
2685.731805
 30
0.0
  0
SPLINE
  5
3b3
100
AcDbEntity
  8
0
 62
7
100
AcDbSpline
 70
8
 71
3
 72
8
 73
4
 74
0
 40
0
 40
0
 40
0
 40
0
 40
1
 40
1
 40
1
 40
1
 10
2376.061050
 20
2685.731805
 30
0.0
 10
2376.061050
 20
2686.259370
 30
0.0
 10
2380.195275
 20
2687.530350
 30
0.0
 10
2385.248475
 20
2688.556185
 30
0.0
  0
SPLINE
  5
3b4
100
AcDbEntity
  8
0
 62
7
100
AcDbSpline
 70
8
 71
3
 72
8
 73
4
 74
0
 40
0
 40
0
 40
0
 40
0
 40
1
 40
1
 40
1
 40
1
 10
2385.248475
 20
2688.556185
 30
0.0
 10
2405.545800
 20
2692.676700
 30
0.0
 10
2434.768725
 20
2698.361940
 30
0.0
 10
2438.703300
 20
2698.955565
 30
0.0
  0
SPLINE
  5
3b5
100
AcDbEntity
  8
0
 62
7
100
AcDbSpline
 70
8
 71
3
 72
8
 73
4
 74
0
 40
0
 40
0
 40
0
 40
0
 40
1
 40
1
 40
1
 40
1
 10
2438.703300
 20
2698.955565
 30
0.0
 10
2441.374950
 20
2699.358667
 30
0.0
 10
2442.879375
 20
2700.182445
 30
0.0
 10
2442.879375
 20
2701.242165
 30
0.0
  0
SPLINE
  5
3b6
100
AcDbEntity
  8
0
 62
7
100
AcDbSpline
 70
8
 71
3
 72
8
 73
4
 74
0
 40
0
 40
0
 40
0
 40
0
 40
1
 40
1
 40
1
 40
1
 10
2442.879375
 20
2701.242165
 30
0.0
 10
2442.879375
 20
2705.088045
 30
0.0
 10
2432.097525
 20
2744.776432
 30
0.0
 10
2426.164575
 20
2762.769937
 30
0.0
  0
SPLINE
  5
3b7
100
AcDbEntity
  8
0
 62
7
100
AcDbSpline
 70
8
 71
3
 72
8
 73
4
 74
0
 40
0
 40
0
 40
0
 40
0
 40
1
 40
1
 40
1
 40
1
 10
2426.164575
 20
2762.769937
 30
0.0
 10
2415.943050
 20
2793.770017
 30
0.0
 10
2396.752575
 20
2840.131125
 30
0.0
 10
2388.343275
 20
2854.140885
 30
0.0
  0
LWPOLYLINE
  5
3b8
100
AcDbEntity
  8
0
 62
7
100
AcDbPolyline
 90
3
 70
0
 10
2396.481900
 20
2609.567997
 30
0.0
 10
2387.391525
 20
2608.816834
 30
0.0
 10
2386.666125
 20
2615.355608
 30
0.0
  0
SPLINE
  5
3b9
100
AcDbEntity
  8
0
 62
7
100
AcDbSpline
 70
8
 71
3
 72
8
 73
4
 74
0
 40
0
 40
0
 40
0
 40
0
 40
1
 40
1
 40
1
 40
1
 10
2368.265550
 20
2847.268845
 30
0.0
 10
2358.159150
 20
2841.929152
 30
0.0
 10
2349.042975
 20
2836.894185
 30
0.0
 10
2348.007375
 20
2836.080045
 30
0.0
  0
SPLINE
  5
3ba
100
AcDbEntity
  8
0
 62
7
100
AcDbSpline
 70
8
 71
3
 72
8
 73
4
 74
0
 40
0
 40
0
 40
0
 40
0
 40
1
 40
1
 40
1
 40
1
 10
2348.007375
 20
2836.080045
 30
0.0
 10
2346.271350
 20
2834.715375
 30
0.0
 10
2346.467700
 20
2833.904062
 30
0.0
 10
2350.523700
 20
2825.690640
 30
0.0
  0
SPLINE
  5
3bb
100
AcDbEntity
  8
0
 62
7
100
AcDbSpline
 70
8
 71
3
 72
8
 73
4
 74
0
 40
0
 40
0
 40
0
 40
0
 40
1
 40
1
 40
1
 40
1
 10
2350.523700
 20
2825.690640
 30
0.0
 10
2361.724200
 20
2803.008638
 30
0.0
 10
2374.878900
 20
2770.116412
 30
0.0
 10
2383.036500
 20
2744.394862
 30
0.0
  0
SPLINE
  5
3bc
100
AcDbEntity
  8
0
 62
7
100
AcDbSpline
 70
8
 71
3
 72
8
 73
4
 74
0
 40
0
 40
0
 40
0
 40
0
 40
1
 40
1
 40
1
 40
1
 10
2383.036500
 20
2744.394862
 30
0.0
 10
2389.385850
 20
2724.373987
 30
0.0
 10
2389.818225
 20
2726.614282
 30
0.0
 10
2378.966475
 20
2723.304307
 30
0.0
  0
SPLINE
  5
3bd
100
AcDbEntity
  8
0
 62
7
100
AcDbSpline
 70
8
 71
3
 72
8
 73
4
 74
0
 40
0
 40
0
 40
0
 40
0
 40
1
 40
1
 40
1
 40
1
 10
2378.966475
 20
2723.304307
 30
0.0
 10
2368.019625
 20
2719.965315
 30
0.0
 10
2366.038200
 20
2719.807867
 30
0.0
 10
2366.038200
 20
2722.277025
 30
0.0
  0
SPLINE
  5
3be
100
AcDbEntity
  8
0
 62
7
100
AcDbSpline
 70
8
 71
3
 72
8
 73
4
 74
0
 40
0
 40
0
 40
0
 40
0
 40
1
 40
1
 40
1
 40
1
 10
2366.038200
 20
2722.277025
 30
0.0
 10
2366.038200
 20
2726.353410
 30
0.0
 10
2351.521125
 20
2769.542812
 30
0.0
 10
2349.311250
 20
2772.040927
 30
0.0
  0
SPLINE
  5
3bf
100
AcDbEntity
  8
0
 62
7
100
AcDbSpline
 70
8
 71
3
 72
8
 73
4
 74
0
 40
0
 40
0
 40
0
 40
0
 40
1
 40
1
 40
1
 40
1
 10
2349.311250
 20
2772.040927
 30
0.0
 10
2348.864100
 20
2772.546202
 30
0.0
 10
2343.800400
 20
2770.982715
 30
0.0
 10
2338.058100
 20
2768.566515
 30
0.0
  0
SPLINE
  5
3c0
100
AcDbEntity
  8
0
 62
7
100
AcDbSpline
 70
8
 71
3
 72
8
 73
4
 74
0
 40
0
 40
0
 40
0
 40
0
 40
1
 40
1
 40
1
 40
1
 10
2338.058100
 20
2768.566515
 30
0.0
 10
2332.315875
 20
2766.150337
 30
0.0
 10
2322.982125
 20
2762.236980
 30
0.0
 10
2317.316475
 20
2759.870212
 30
0.0
  0
SPLINE
  5
3c1
100
AcDbEntity
  8
0
 62
7
100
AcDbSpline
 70
8
 71
3
 72
8
 73
4
 74
0
 40
0
 40
0
 40
0
 40
0
 40
1
 40
1
 40
1
 40
1
 10
2317.316475
 20
2759.870212
 30
0.0
 10
2311.650825
 20
2757.503430
 30
0.0
 10
2307.015375
 20
2755.057807
 30
0.0
 10
2307.015450
 20
2754.435480
 30
0.0
  0
SPLINE
  5
3c2
100
AcDbEntity
  8
0
 62
7
100
AcDbSpline
 70
8
 71
3
 72
8
 73
4
 74
0
 40
0
 40
0
 40
0
 40
0
 40
1
 40
1
 40
1
 40
1
 10
2307.015450
 20
2754.435480
 30
0.0
 10
2307.015525
 20
2753.813152
 30
0.0
 10
2309.523600
 20
2746.129530
 30
0.0
 10
2312.588775
 20
2737.360732
 30
0.0
  0
SPLINE
  5
3c3
100
AcDbEntity
  8
0
 62
7
100
AcDbSpline
 70
8
 71
3
 72
8
 73
4
 74
0
 40
0
 40
0
 40
0
 40
0
 40
1
 40
1
 40
1
 40
1
 10
2312.588775
 20
2737.360732
 30
0.0
 10
2340.585075
 20
2657.269545
 30
0.0
 10
2348.570550
 20
2575.920565
 30
0.0
 10
2336.907075
 20
2489.625499
 30
0.0
  0
SPLINE
  5
3c4
100
AcDbEntity
  8
0
 62
7
100
AcDbSpline
 70
8
 71
3
 72
8
 73
4
 74
0
 40
0
 40
0
 40
0
 40
0
 40
1
 40
1
 40
1
 40
1
 10
2336.907075
 20
2489.625499
 30
0.0
 10
2335.601400
 20
2479.965361
 30
0.0
 10
2334.765450
 20
2471.829210
 30
0.0
 10
2335.049625
 20
2471.545155
 30
0.0
  0
SPLINE
  5
3c5
100
AcDbEntity
  8
0
 62
7
100
AcDbSpline
 70
8
 71
3
 72
8
 73
4
 74
0
 40
0
 40
0
 40
0
 40
0
 40
1
 40
1
 40
1
 40
1
 10
2335.049625
 20
2471.545155
 30
0.0
 10
2336.095950
 20
2470.498845
 30
0.0
 10
2378.868600
 20
2462.295907
 30
0.0
 10
2379.534000
 20
2463.013950
 30
0.0
  0
SPLINE
  5
3c6
100
AcDbEntity
  8
0
 62
7
100
AcDbSpline
 70
8
 71
3
 72
8
 73
4
 74
0
 40
0
 40
0
 40
0
 40
0
 40
1
 40
1
 40
1
 40
1
 10
2379.534000
 20
2463.013950
 30
0.0
 10
2380.501125
 20
2464.057552
 30
0.0
 10
2383.535325
 20
2483.696303
 30
0.0
 10
2384.982900
 20
2498.280243
 30
0.0
  0
SPLINE
  5
3c7
100
AcDbEntity
  8
0
 62
7
100
AcDbSpline
 70
8
 71
3
 72
8
 73
4
 74
0
 40
0
 40
0
 40
0
 40
0
 40
1
 40
1
 40
1
 40
1
 10
2384.982900
 20
2498.280243
 30
0.0
 10
2385.651750
 20
2505.017772
 30
0.0
 10
2386.457850
 20
2512.220944
 30
0.0
 10
2386.774425
 20
2514.287305
 30
0.0
  0
LWPOLYLINE
  5
3c8
100
AcDbEntity
  8
0
 62
7
100
AcDbPolyline
 90
3
 70
0
 10
2388.343275
 20
2854.140885
 30
0.0
 10
2386.640625
 20
2856.977362
 30
0.0
 10
2368.265550
 20
2847.268845
 30
0.0
  0
SPLINE
  5
3c9
100
AcDbEntity
  8
0
 62
7
100
AcDbSpline
 70
8
 71
3
 72
8
 73
4
 74
0
 40
0
 40
0
 40
0
 40
0
 40
1
 40
1
 40
1
 40
1
 10
2397.574875
 20
2517.261061
 30
0.0
 10
2403.198600
 20
2516.830281
 30
0.0
 10
2408.139525
 20
2516.141909
 30
0.0
 10
2408.554950
 20
2515.731343
 30
0.0
  0
SPLINE
  5
3ca
100
AcDbEntity
  8
0
 62
7
100
AcDbSpline
 70
8
 71
3
 72
8
 73
4
 74
0
 40
0
 40
0
 40
0
 40
0
 40
1
 40
1
 40
1
 40
1
 10
2408.554950
 20
2515.731343
 30
0.0
 10
2409.295425
 20
2514.999179
 30
0.0
 10
2408.544450
 20
2505.983175
 30
0.0
 10
2406.090525
 20
2486.030199
 30
0.0
  0
SPLINE
  5
3cb
100
AcDbEntity
  8
0
 62
7
100
AcDbSpline
 70
8
 71
3
 72
8
 73
4
 74
0
 40
0
 40
0
 40
0
 40
0
 40
1
 40
1
 40
1
 40
1
 10
2406.090525
 20
2486.030199
 30
0.0
 10
2404.277775
 20
2471.308470
 30
0.0
 10
2398.713900
 20
2441.495670
 30
0.0
 10
2394.451650
 20
2423.666310
 30
0.0
  0
SPLINE
  5
3cc
100
AcDbEntity
  8
0
 62
7
100
AcDbSpline
 70
8
 71
3
 72
8
 73
4
 74
0
 40
0
 40
0
 40
0
 40
0
 40
1
 40
1
 40
1
 40
1
 10
2394.451650
 20
2423.666310
 30
0.0
 10
2391.029625
 20
2409.351682
 30
0.0
 10
2383.020150
 20
2380.697835
 30
0.0
 10
2382.216075
 20
2379.893317
 30
0.0
  0
SPLINE
  5
3cd
100
AcDbEntity
  8
0
 62
7
100
AcDbSpline
 70
8
 71
3
 72
8
 73
4
 74
0
 40
0
 40
0
 40
0
 40
0
 40
1
 40
1
 40
1
 40
1
 10
2382.216075
 20
2379.893317
 30
0.0
 10
2381.794425
 20
2379.471480
 30
0.0
 10
2362.573350
 20
2384.998425
 30
0.0
 10
2361.811050
 20
2385.760672
 30
0.0
  0
SPLINE
  5
3ce
100
AcDbEntity
  8
0
 62
7
100
AcDbSpline
 70
8
 71
3
 72
8
 73
4
 74
0
 40
0
 40
0
 40
0
 40
0
 40
1
 40
1
 40
1
 40
1
 10
2361.811050
 20
2385.760672
 30
0.0
 10
2361.507825
 20
2386.063980
 30
0.0
 10
2363.332125
 20
2393.714542
 30
0.0
 10
2365.865250
 20
2402.761942
 30
0.0
  0
SPLINE
  5
3cf
100
AcDbEntity
  8
0
 62
7
100
AcDbSpline
 70
8
 71
3
 72
8
 73
4
 74
0
 40
0
 40
0
 40
0
 40
0
 40
1
 40
1
 40
1
 40
1
 10
2365.865250
 20
2402.761942
 30
0.0
 10
2371.867050
 20
2424.197985
 30
0.0
 10
2374.947300
 20
2436.382095
 30
0.0
 10
2374.947300
 20
2438.685720
 30
0.0
  0
SPLINE
  5
3d0
100
AcDbEntity
  8
0
 62
7
100
AcDbSpline
 70
8
 71
3
 72
8
 73
4
 74
0
 40
0
 40
0
 40
0
 40
0
 40
1
 40
1
 40
1
 40
1
 10
2374.947300
 20
2438.685720
 30
0.0
 10
2374.947300
 20
2440.231200
 30
0.0
 10
2369.400300
 20
2441.629320
 30
0.0
 10
2341.816500
 20
2447.036167
 30
0.0
  0
SPLINE
  5
3d1
100
AcDbEntity
  8
0
 62
7
100
AcDbSpline
 70
8
 71
3
 72
8
 73
4
 74
0
 40
0
 40
0
 40
0
 40
0
 40
1
 40
1
 40
1
 40
1
 10
2341.816500
 20
2447.036167
 30
0.0
 10
2323.594575
 20
2450.607960
 30
0.0
 10
2308.521150
 20
2453.657407
 30
0.0
 10
2308.319775
 20
2453.812710
 30
0.0
  0
SPLINE
  5
3d2
100
AcDbEntity
  8
0
 62
7
100
AcDbSpline
 70
8
 71
3
 72
8
 73
4
 74
0
 40
0
 40
0
 40
0
 40
0
 40
1
 40
1
 40
1
 40
1
 10
2308.319775
 20
2453.812710
 30
0.0
 10
2308.118625
 20
2453.968012
 30
0.0
 10
2308.962825
 20
2459.025367
 30
0.0
 10
2310.195600
 20
2465.051265
 30
0.0
  0
SPLINE
  5
3d3
100
AcDbEntity
  8
0
 62
7
100
AcDbSpline
 70
8
 71
3
 72
8
 73
4
 74
0
 40
0
 40
0
 40
0
 40
0
 40
1
 40
1
 40
1
 40
1
 10
2310.195600
 20
2465.051265
 30
0.0
 10
2316.612900
 20
2496.415081
 30
0.0
 10
2319.547200
 20
2527.292914
 30
0.0
 10
2319.543975
 20
2563.428233
 30
0.0
  0
SPLINE
  5
3d4
100
AcDbEntity
  8
0
 62
7
100
AcDbSpline
 70
8
 71
3
 72
8
 73
4
 74
0
 40
0
 40
0
 40
0
 40
0
 40
1
 40
1
 40
1
 40
1
 10
2319.543975
 20
2563.428233
 30
0.0
 10
2319.533475
 20
2634.837915
 30
0.0
 10
2307.071025
 20
2696.068095
 30
0.0
 10
2278.956825
 20
2762.769937
 30
0.0
  0
SPLINE
  5
3d5
100
AcDbEntity
  8
0
 62
7
100
AcDbSpline
 70
8
 71
3
 72
8
 73
4
 74
0
 40
0
 40
0
 40
0
 40
0
 40
1
 40
1
 40
1
 40
1
 10
2278.956825
 20
2762.769937
 30
0.0
 10
2270.506725
 20
2782.817940
 30
0.0
 10
2251.133550
 20
2819.595562
 30
0.0
 10
2241.521925
 20
2833.835347
 30
0.0
  0
SPLINE
  5
3d6
100
AcDbEntity
  8
0
 62
7
100
AcDbSpline
 70
8
 71
3
 72
8
 73
4
 74
0
 40
0
 40
0
 40
0
 40
0
 40
1
 40
1
 40
1
 40
1
 10
2241.521925
 20
2833.835347
 30
0.0
 10
2240.778375
 20
2834.937240
 30
0.0
 10
2228.745375
 20
2827.407907
 30
0.0
 10
2192.757525
 20
2803.321920
 30
0.0
  0
SPLINE
  5
3d7
100
AcDbEntity
  8
0
 62
7
100
AcDbSpline
 70
8
 71
3
 72
8
 73
4
 74
0
 40
0
 40
0
 40
0
 40
0
 40
1
 40
1
 40
1
 40
1
 10
2192.757525
 20
2803.321920
 30
0.0
 10
2166.480300
 20
2785.734975
 30
0.0
 10
2145.127275
 20
2770.855297
 30
0.0
 10
2145.306450
 20
2770.255965
 30
0.0
  0
SPLINE
  5
3d8
100
AcDbEntity
  8
0
 62
7
100
AcDbSpline
 70
8
 71
3
 72
8
 73
4
 74
0
 40
0
 40
0
 40
0
 40
0
 40
1
 40
1
 40
1
 40
1
 10
2145.306450
 20
2770.255965
 30
0.0
 10
2145.485775
 20
2769.656647
 30
0.0
 10
2148.315075
 20
2764.594987
 30
0.0
 10
2151.594000
 20
2759.007840
 30
0.0
  0
SPLINE
  5
3d9
100
AcDbEntity
  8
0
 62
7
100
AcDbSpline
 70
8
 71
3
 72
8
 73
4
 74
0
 40
0
 40
0
 40
0
 40
0
 40
1
 40
1
 40
1
 40
1
 10
2151.594000
 20
2759.007840
 30
0.0
 10
2154.872775
 20
2753.420715
 30
0.0
 10
2160.238125
 20
2743.336912
 30
0.0
 10
2163.516975
 20
2736.599385
 30
0.0
  0
SPLINE
  5
3da
100
AcDbEntity
  8
0
 62
7
100
AcDbSpline
 70
8
 71
3
 72
8
 73
4
 74
0
 40
0
 40
0
 40
0
 40
0
 40
1
 40
1
 40
1
 40
1
 10
2163.516975
 20
2736.599385
 30
0.0
 10
2166.795600
 20
2729.861842
 30
0.0
 10
2169.594000
 20
2724.150637
 30
0.0
 10
2169.735450
 20
2723.907780
 30
0.0
  0
SPLINE
  5
3db
100
AcDbEntity
  8
0
 62
7
100
AcDbSpline
 70
8
 71
3
 72
8
 73
4
 74
0
 40
0
 40
0
 40
0
 40
0
 40
1
 40
1
 40
1
 40
1
 10
2169.735450
 20
2723.907780
 30
0.0
 10
2170.043250
 20
2723.379210
 30
0.0
 10
2174.545875
 20
2725.127182
 30
0.0
 10
2205.107925
 20
2737.639732
 30
0.0
  0
SPLINE
  5
3dc
100
AcDbEntity
  8
0
 62
7
100
AcDbSpline
 70
8
 71
3
 72
8
 73
4
 74
0
 40
0
 40
0
 40
0
 40
0
 40
1
 40
1
 40
1
 40
1
 10
2205.107925
 20
2737.639732
 30
0.0
 10
2217.965175
 20
2742.903772
 30
0.0
 10
2229.016050
 20
2747.006910
 30
0.0
 10
2229.665250
 20
2746.757827
 30
0.0
  0
SPLINE
  5
3dd
100
AcDbEntity
  8
0
 62
7
100
AcDbSpline
 70
8
 71
3
 72
8
 73
4
 74
0
 40
0
 40
0
 40
0
 40
0
 40
1
 40
1
 40
1
 40
1
 10
2229.665250
 20
2746.757827
 30
0.0
 10
2231.345850
 20
2746.112917
 30
0.0
 10
2238.233850
 20
2728.054635
 30
0.0
 10
2237.176950
 20
2727.064530
 30
0.0
  0
SPLINE
  5
3de
100
AcDbEntity
  8
0
 62
7
100
AcDbSpline
 70
8
 71
3
 72
8
 73
4
 74
0
 40
0
 40
0
 40
0
 40
0
 40
1
 40
1
 40
1
 40
1
 10
2237.176950
 20
2727.064530
 30
0.0
 10
2236.694100
 20
2726.612257
 30
0.0
 10
2224.271775
 20
2721.294630
 30
0.0
 10
2209.571700
 20
2715.247597
 30
0.0
  0
SPLINE
  5
3df
100
AcDbEntity
  8
0
 62
7
100
AcDbSpline
 70
8
 71
3
 72
8
 73
4
 74
0
 40
0
 40
0
 40
0
 40
0
 40
1
 40
1
 40
1
 40
1
 10
2209.571700
 20
2715.247597
 30
0.0
 10
2194.871625
 20
2709.200565
 30
0.0
 10
2181.960075
 20
2703.739290
 30
0.0
 10
2180.879325
 20
2703.111442
 30
0.0
  0
SPLINE
  5
3e0
100
AcDbEntity
  8
0
 62
7
100
AcDbSpline
 70
8
 71
3
 72
8
 73
4
 74
0
 40
0
 40
0
 40
0
 40
0
 40
1
 40
1
 40
1
 40
1
 10
2180.879325
 20
2703.111442
 30
0.0
 10
2179.055475
 20
2702.051970
 30
0.0
 10
2179.275150
 20
2700.910875
 30
0.0
 10
2183.932875
 20
2687.237760
 30
0.0
  0
SPLINE
  5
3e1
100
AcDbEntity
  8
0
 62
7
100
AcDbSpline
 70
8
 71
3
 72
8
 73
4
 74
0
 40
0
 40
0
 40
0
 40
0
 40
1
 40
1
 40
1
 40
1
 10
2183.932875
 20
2687.237760
 30
0.0
 10
2196.144900
 20
2651.388952
 30
0.0
 10
2202.516000
 20
2615.204515
 30
0.0
 10
2204.114625
 20
2572.615770
 30
0.0
  0
LWPOLYLINE
  5
3e2
100
AcDbEntity
  8
0
 62
7
100
AcDbPolyline
 90
3
 70
0
 10
2386.774425
 20
2514.287305
 30
0.0
 10
2387.349975
 20
2518.044306
 30
0.0
 10
2397.574875
 20
2517.261061
 30
0.0
  0
SPLINE
  5
3e3
100
AcDbEntity
  8
0
 62
7
100
AcDbSpline
 70
8
 71
3
 72
8
 73
4
 74
0
 40
0
 40
0
 40
0
 40
0
 40
1
 40
1
 40
1
 40
1
 10
2181.850125
 20
2571.502132
 30
0.0
 10
2181.422400
 20
2582.067796
 30
0.0
 10
2180.806275
 20
2593.468694
 30
0.0
 10
2180.481150
 20
2596.837462
 30
0.0
  0
SPLINE
  5
3e4
100
AcDbEntity
  8
0
 62
7
100
AcDbSpline
 70
8
 71
3
 72
8
 73
4
 74
0
 40
0
 40
0
 40
0
 40
0
 40
1
 40
1
 40
1
 40
1
 10
2180.481150
 20
2596.837462
 30
0.0
 10
2179.140600
 20
2610.725669
 30
0.0
 10
2174.299425
 20
2639.179942
 30
0.0
 10
2171.126775
 20
2651.817727
 30
0.0
  0
SPLINE
  5
3e5
100
AcDbEntity
  8
0
 62
7
100
AcDbSpline
 70
8
 71
3
 72
8
 73
4
 74
0
 40
0
 40
0
 40
0
 40
0
 40
1
 40
1
 40
1
 40
1
 10
2171.126775
 20
2651.817727
 30
0.0
 10
2168.163750
 20
2663.621100
 30
0.0
 10
2159.278800
 20
2692.379370
 30
0.0
 10
2158.215750
 20
2693.607802
 30
0.0
  0
SPLINE
  5
3e6
100
AcDbEntity
  8
0
 62
7
100
AcDbSpline
 70
8
 71
3
 72
8
 73
4
 74
0
 40
0
 40
0
 40
0
 40
0
 40
1
 40
1
 40
1
 40
1
 10
2158.215750
 20
2693.607802
 30
0.0
 10
2158.006050
 20
2693.850037
 30
0.0
 10
2150.682750
 20
2691.037350
 30
0.0
 10
2141.941650
 20
2687.357377
 30
0.0
  0
SPLINE
  5
3e7
100
AcDbEntity
  8
0
 62
7
100
AcDbSpline
 70
8
 71
3
 72
8
 73
4
 74
0
 40
0
 40
0
 40
0
 40
0
 40
1
 40
1
 40
1
 40
1
 10
2141.941650
 20
2687.357377
 30
0.0
 10
2133.200400
 20
2683.677397
 30
0.0
 10
2123.670075
 20
2679.720675
 30
0.0
 10
2120.762925
 20
2678.564647
 30
0.0
  0
SPLINE
  5
3e8
100
AcDbEntity
  8
0
 62
7
100
AcDbSpline
 70
8
 71
3
 72
8
 73
4
 74
0
 40
0
 40
0
 40
0
 40
0
 40
1
 40
1
 40
1
 40
1
 10
2120.762925
 20
2678.564647
 30
0.0
 10
2117.856075
 20
2677.408620
 30
0.0
 10
2115.475650
 20
2676.080250
 30
0.0
 10
2115.473175
 20
2675.612715
 30
0.0
  0
SPLINE
  5
3e9
100
AcDbEntity
  8
0
 62
7
100
AcDbSpline
 70
8
 71
3
 72
8
 73
4
 74
0
 40
0
 40
0
 40
0
 40
0
 40
1
 40
1
 40
1
 40
1
 10
2115.473175
 20
2675.612715
 30
0.0
 10
2115.473175
 20
2675.145172
 30
0.0
 10
2117.234925
 20
2669.382082
 30
0.0
 10
2119.393425
 20
2662.805858
 30
0.0
  0
SPLINE
  5
3ea
100
AcDbEntity
  8
0
 62
7
100
AcDbSpline
 70
8
 71
3
 72
8
 73
4
 74
0
 40
0
 40
0
 40
0
 40
0
 40
1
 40
1
 40
1
 40
1
 10
2119.393425
 20
2662.805858
 30
0.0
 10
2133.890925
 20
2618.634585
 30
0.0
 10
2138.372850
 20
2572.605146
 30
0.0
 10
2132.811300
 20
2525.007623
 30
0.0
  0
SPLINE
  5
3eb
100
AcDbEntity
  8
0
 62
7
100
AcDbSpline
 70
8
 71
3
 72
8
 73
4
 74
0
 40
0
 40
0
 40
0
 40
0
 40
1
 40
1
 40
1
 40
1
 10
2132.811300
 20
2525.007623
 30
0.0
 10
2132.024025
 20
2518.270093
 30
0.0
 10
2131.683825
 20
2512.431163
 30
0.0
 10
2132.055150
 20
2512.032223
 30
0.0
  0
SPLINE
  5
3ec
100
AcDbEntity
  8
0
 62
7
100
AcDbSpline
 70
8
 71
3
 72
8
 73
4
 74
0
 40
0
 40
0
 40
0
 40
0
 40
1
 40
1
 40
1
 40
1
 10
2132.055150
 20
2512.032223
 30
0.0
 10
2132.783625
 20
2511.249763
 30
0.0
 10
2239.498350
 20
2489.927937
 30
0.0
 10
2242.686075
 20
2489.927937
 30
0.0
  0
SPLINE
  5
3ed
100
AcDbEntity
  8
0
 62
7
100
AcDbSpline
 70
8
 71
3
 72
8
 73
4
 74
0
 40
0
 40
0
 40
0
 40
0
 40
1
 40
1
 40
1
 40
1
 10
2242.686075
 20
2489.927937
 30
0.0
 10
2245.091775
 20
2489.927937
 30
0.0
 10
2245.321200
 20
2490.926739
 30
0.0
 10
2247.929700
 20
2512.757570
 30
0.0
  0
SPLINE
  5
3ee
100
AcDbEntity
  8
0
 62
7
100
AcDbSpline
 70
8
 71
3
 72
8
 73
4
 74
0
 40
0
 40
0
 40
0
 40
0
 40
1
 40
1
 40
1
 40
1
 10
2247.929700
 20
2512.757570
 30
0.0
 10
2249.707200
 20
2527.634065
 30
0.0
 10
2250.008625
 20
2536.735139
 30
0.0
 10
2249.755350
 20
2567.882794
 30
0.0
  0
SPLINE
  5
3ef
100
AcDbEntity
  8
0
 62
7
100
AcDbSpline
 70
8
 71
3
 72
8
 73
4
 74
0
 40
0
 40
0
 40
0
 40
0
 40
1
 40
1
 40
1
 40
1
 10
2249.755350
 20
2567.882794
 30
0.0
 10
2249.435475
 20
2607.252497
 30
0.0
 10
2248.440825
 20
2618.874157
 30
0.0
 10
2243.119875
 20
2645.415847
 30
0.0
  0
SPLINE
  5
3f0
100
AcDbEntity
  8
0
 62
7
100
AcDbSpline
 70
8
 71
3
 72
8
 73
4
 74
0
 40
0
 40
0
 40
0
 40
0
 40
1
 40
1
 40
1
 40
1
 10
2243.119875
 20
2645.415847
 30
0.0
 10
2241.661125
 20
2652.691627
 30
0.0
 10
2240.782575
 20
2658.970665
 30
0.0
 10
2241.167400
 20
2659.369275
 30
0.0
  0
SPLINE
  5
3f1
100
AcDbEntity
  8
0
 62
7
100
AcDbSpline
 70
8
 71
3
 72
8
 73
4
 74
0
 40
0
 40
0
 40
0
 40
0
 40
1
 40
1
 40
1
 40
1
 10
2241.167400
 20
2659.369275
 30
0.0
 10
2241.873825
 20
2660.100735
 30
0.0
 10
2258.150100
 20
2663.655908
 30
0.0
 10
2260.792575
 20
2663.655908
 30
0.0
  0
SPLINE
  5
3f2
100
AcDbEntity
  8
0
 62
7
100
AcDbSpline
 70
8
 71
3
 72
8
 73
4
 74
0
 40
0
 40
0
 40
0
 40
0
 40
1
 40
1
 40
1
 40
1
 10
2260.792575
 20
2663.655908
 30
0.0
 10
2264.062575
 20
2663.655908
 30
0.0
 10
2270.606325
 20
2619.909743
 30
0.0
 10
2272.469475
 20
2585.595209
 30
0.0
  0
SPLINE
  5
3f3
100
AcDbEntity
  8
0
 62
7
100
AcDbSpline
 70
8
 71
3
 72
8
 73
4
 74
0
 40
0
 40
0
 40
0
 40
0
 40
1
 40
1
 40
1
 40
1
 10
2272.469475
 20
2585.595209
 30
0.0
 10
2273.486925
 20
2566.858517
 30
0.0
 10
2272.396725
 20
2520.359464
 30
0.0
 10
2270.881875
 20
2517.851610
 30
0.0
  0
SPLINE
  5
3f4
100
AcDbEntity
  8
0
 62
7
100
AcDbSpline
 70
8
 71
3
 72
8
 73
4
 74
0
 40
0
 40
0
 40
0
 40
0
 40
1
 40
1
 40
1
 40
1
 10
2270.881875
 20
2517.851610
 30
0.0
 10
2270.669400
 20
2517.499903
 30
0.0
 10
2270.158575
 20
2513.203033
 30
0.0
 10
2269.746750
 20
2508.303010
 30
0.0
  0
SPLINE
  5
3f5
100
AcDbEntity
  8
0
 62
7
100
AcDbSpline
 70
8
 71
3
 72
8
 73
4
 74
0
 40
0
 40
0
 40
0
 40
0
 40
1
 40
1
 40
1
 40
1
 10
2269.746750
 20
2508.303010
 30
0.0
 10
2267.831175
 20
2485.509325
 30
0.0
 10
2257.056450
 20
2439.363195
 30
0.0
 10
2247.007350
 20
2410.913040
 30
0.0
  0
SPLINE
  5
3f6
100
AcDbEntity
  8
0
 62
7
100
AcDbSpline
 70
8
 71
3
 72
8
 73
4
 74
0
 40
0
 40
0
 40
0
 40
0
 40
1
 40
1
 40
1
 40
1
 10
2247.007350
 20
2410.913040
 30
0.0
 10
2244.529650
 20
2403.898762
 30
0.0
 10
2242.610100
 20
2398.054162
 30
0.0
 10
2242.741650
 20
2397.925065
 30
0.0
  0
SPLINE
  5
3f7
100
AcDbEntity
  8
0
 62
7
100
AcDbSpline
 70
8
 71
3
 72
8
 73
4
 74
0
 40
0
 40
0
 40
0
 40
0
 40
1
 40
1
 40
1
 40
1
 10
2242.741650
 20
2397.925065
 30
0.0
 10
2242.873200
 20
2397.795975
 30
0.0
 10
2252.252025
 20
2393.871382
 30
0.0
 10
2263.583175
 20
2389.203765
 30
0.0
  0
SPLINE
  5
3f8
100
AcDbEntity
  8
0
 62
7
100
AcDbSpline
 70
8
 71
3
 72
8
 73
4
 74
0
 40
0
 40
0
 40
0
 40
0
 40
1
 40
1
 40
1
 40
1
 10
2263.583175
 20
2389.203765
 30
0.0
 10
2274.914550
 20
2384.536140
 30
0.0
 10
2286.440700
 20
2379.751140
 30
0.0
 10
2289.196950
 20
2378.570445
 30
0.0
  0
SPLINE
  5
3f9
100
AcDbEntity
  8
0
 62
7
100
AcDbSpline
 70
8
 71
3
 72
8
 73
4
 74
0
 40
0
 40
0
 40
0
 40
0
 40
1
 40
1
 40
1
 40
1
 10
2289.196950
 20
2378.570445
 30
0.0
 10
2291.953200
 20
2377.389750
 30
0.0
 10
2310.741525
 20
2369.618123
 30
0.0
 10
2330.948700
 20
2361.300172
 30
0.0
  0
SPLINE
  5
3fa
100
AcDbEntity
  8
0
 62
7
100
AcDbSpline
 70
8
 71
3
 72
8
 73
4
 74
0
 40
0
 40
0
 40
0
 40
0
 40
1
 40
1
 40
1
 40
1
 10
2330.948700
 20
2361.300172
 30
0.0
 10
2351.155875
 20
2352.982200
 30
0.0
 10
2368.106925
 20
2345.758672
 30
0.0
 10
2368.617825
 20
2345.247855
 30
0.0
  0
SPLINE
  5
3fb
100
AcDbEntity
  8
0
 62
7
100
AcDbSpline
 70
8
 71
3
 72
8
 73
4
 74
0
 40
0
 40
0
 40
0
 40
0
 40
1
 40
1
 40
1
 40
1
 10
2368.617825
 20
2345.247855
 30
0.0
 10
2369.484000
 20
2344.381657
 30
0.0
 10
2365.457550
 20
2333.525332
 30
0.0
 10
2358.463950
 20
2317.870425
 30
0.0
  0
SPLINE
  5
3fc
100
AcDbEntity
  8
0
 62
7
100
AcDbSpline
 70
8
 71
3
 72
8
 73
4
 74
0
 40
0
 40
0
 40
0
 40
0
 40
1
 40
1
 40
1
 40
1
 10
2358.463950
 20
2317.870425
 30
0.0
 10
2354.371875
 20
2308.710727
 30
0.0
 10
2337.111150
 20
2274.670095
 30
0.0
 10
2335.937700
 20
2273.445360
 30
0.0
  0
SPLINE
  5
3fd
100
AcDbEntity
  8
0
 62
7
100
AcDbSpline
 70
8
 71
3
 72
8
 73
4
 74
0
 40
0
 40
0
 40
0
 40
0
 40
1
 40
1
 40
1
 40
1
 10
2335.937700
 20
2273.445360
 30
0.0
 10
2335.239675
 20
2272.716967
 30
0.0
 10
2319.441375
 20
2279.732565
 30
0.0
 10
2316.199650
 20
2282.210392
 30
0.0
  0
SPLINE
  5
3fe
100
AcDbEntity
  8
0
 62
7
100
AcDbSpline
 70
8
 71
3
 72
8
 73
4
 74
0
 40
0
 40
0
 40
0
 40
0
 40
1
 40
1
 40
1
 40
1
 10
2316.199650
 20
2282.210392
 30
0.0
 10
2316.045075
 20
2282.328675
 30
0.0
 10
2321.432325
 20
2293.384350
 30
0.0
 10
2328.171450
 20
2306.778517
 30
0.0
  0
SPLINE
  5
3ff
100
AcDbEntity
  8
0
 62
7
100
AcDbSpline
 70
8
 71
3
 72
8
 73
4
 74
0
 40
0
 40
0
 40
0
 40
0
 40
1
 40
1
 40
1
 40
1
 10
2328.171450
 20
2306.778517
 30
0.0
 10
2334.910575
 20
2320.172692
 30
0.0
 10
2340.424425
 20
2331.664447
 30
0.0
 10
2340.424425
 20
2332.315762
 30
0.0
  0
SPLINE
  5
400
100
AcDbEntity
  8
0
 62
7
100
AcDbSpline
 70
8
 71
3
 72
8
 73
4
 74
0
 40
0
 40
0
 40
0
 40
0
 40
1
 40
1
 40
1
 40
1
 10
2340.424425
 20
2332.315762
 30
0.0
 10
2340.424425
 20
2332.967062
 30
0.0
 10
2337.292275
 20
2334.714135
 30
0.0
 10
2333.464200
 20
2336.198152
 30
0.0
  0
SPLINE
  5
401
100
AcDbEntity
  8
0
 62
7
100
AcDbSpline
 70
8
 71
3
 72
8
 73
4
 74
0
 40
0
 40
0
 40
0
 40
0
 40
1
 40
1
 40
1
 40
1
 10
2333.464200
 20
2336.198152
 30
0.0
 10
2329.636200
 20
2337.682177
 30
0.0
 10
2323.998375
 20
2339.998905
 30
0.0
 10
2320.935750
 20
2341.346430
 30
0.0
  0
SPLINE
  5
402
100
AcDbEntity
  8
0
 62
7
100
AcDbSpline
 70
8
 71
3
 72
8
 73
4
 74
0
 40
0
 40
0
 40
0
 40
0
 40
1
 40
1
 40
1
 40
1
 10
2320.935750
 20
2341.346430
 30
0.0
 10
2307.347175
 20
2347.325475
 30
0.0
 10
2297.569350
 20
2350.782915
 30
0.0
 10
2297.219175
 20
2349.732480
 30
0.0
  0
SPLINE
  5
403
100
AcDbEntity
  8
0
 62
7
100
AcDbSpline
 70
8
 71
3
 72
8
 73
4
 74
0
 40
0
 40
0
 40
0
 40
0
 40
1
 40
1
 40
1
 40
1
 10
2297.219175
 20
2349.732480
 30
0.0
 10
2297.012400
 20
2349.112290
 30
0.0
 10
2292.144975
 20
2339.183932
 30
0.0
 10
2286.402450
 20
2327.669460
 30
0.0
  0
SPLINE
  5
404
100
AcDbEntity
  8
0
 62
7
100
AcDbSpline
 70
8
 71
3
 72
8
 73
4
 74
0
 40
0
 40
0
 40
0
 40
0
 40
1
 40
1
 40
1
 40
1
 10
2286.402450
 20
2327.669460
 30
0.0
 10
2260.595025
 20
2275.921815
 30
0.0
 10
2228.434950
 20
2231.222700
 30
0.0
 10
2187.484725
 20
2190.184410
 30
0.0
  0
SPLINE
  5
405
100
AcDbEntity
  8
0
 62
7
100
AcDbSpline
 70
8
 71
3
 72
8
 73
4
 74
0
 40
0
 40
0
 40
0
 40
0
 40
1
 40
1
 40
1
 40
1
 10
2187.484725
 20
2190.184410
 30
0.0
 10
2168.698275
 20
2171.357385
 30
0.0
 10
2139.048150
 20
2145.996007
 30
0.0
 10
2122.553475
 20
2134.644885
 30
0.0
  0
SPLINE
  5
406
100
AcDbEntity
  8
0
 62
7
100
AcDbSpline
 70
8
 71
3
 72
8
 73
4
 74
0
 40
0
 40
0
 40
0
 40
0
 40
1
 40
1
 40
1
 40
1
 10
2122.553475
 20
2134.644885
 30
0.0
 10
2091.329250
 20
2113.157520
 30
0.0
 10
2069.293275
 20
2100.081930
 30
0.0
 10
2043.639225
 20
2087.819287
 30
0.0
  0
SPLINE
  5
407
100
AcDbEntity
  8
0
 62
7
100
AcDbSpline
 70
8
 71
3
 72
8
 73
4
 74
0
 40
0
 40
0
 40
0
 40
0
 40
1
 40
1
 40
1
 40
1
 10
2043.639225
 20
2087.819287
 30
0.0
 10
2026.125675
 20
2079.447833
 30
0.0
 10
2006.187750
 20
2070.972240
 30
0.0
 10
2005.537650
 20
2071.622280
 30
0.0
  0
SPLINE
  5
408
100
AcDbEntity
  8
0
 62
7
100
AcDbSpline
 70
8
 71
3
 72
8
 73
4
 74
0
 40
0
 40
0
 40
0
 40
0
 40
1
 40
1
 40
1
 40
1
 10
2005.537650
 20
2071.622280
 30
0.0
 10
2004.867150
 20
2072.292803
 30
0.0
 10
1997.392650
 20
2091.590970
 30
0.0
 10
1997.703225
 20
2091.849667
 30
0.0
  0
SPLINE
  5
409
100
AcDbEntity
  8
0
 62
7
100
AcDbSpline
 70
8
 71
3
 72
8
 73
4
 74
0
 40
0
 40
0
 40
0
 40
0
 40
1
 40
1
 40
1
 40
1
 10
1997.703225
 20
2091.849667
 30
0.0
 10
1997.855400
 20
2091.976515
 30
0.0
 10
2004.192000
 20
2094.680873
 30
0.0
 10
2011.784475
 20
2097.859553
 30
0.0
  0
SPLINE
  5
40a
100
AcDbEntity
  8
0
 62
7
100
AcDbSpline
 70
8
 71
3
 72
8
 73
4
 74
0
 40
0
 40
0
 40
0
 40
0
 40
1
 40
1
 40
1
 40
1
 10
2011.784475
 20
2097.859553
 30
0.0
 10
2019.377025
 20
2101.038202
 30
0.0
 10
2031.153750
 20
2106.409972
 30
0.0
 10
2037.955050
 20
2109.796770
 30
0.0
  0
SPLINE
  5
40b
100
AcDbEntity
  8
0
 62
7
100
AcDbSpline
 70
8
 71
3
 72
8
 73
4
 74
0
 40
0
 40
0
 40
0
 40
0
 40
1
 40
1
 40
1
 40
1
 10
2037.955050
 20
2109.796770
 30
0.0
 10
2050.124700
 20
2115.856875
 30
0.0
 10
2079.564150
 20
2132.270490
 30
0.0
 10
2083.532025
 20
2135.207715
 30
0.0
  0
SPLINE
  5
40c
100
AcDbEntity
  8
0
 62
7
100
AcDbSpline
 70
8
 71
3
 72
8
 73
4
 74
0
 40
0
 40
0
 40
0
 40
0
 40
1
 40
1
 40
1
 40
1
 10
2083.532025
 20
2135.207715
 30
0.0
 10
2085.417750
 20
2136.603667
 30
0.0
 10
2084.208225
 20
2138.726587
 30
0.0
 10
2066.413650
 20
2165.254867
 30
0.0
  0
SPLINE
  5
40d
100
AcDbEntity
  8
0
 62
7
100
AcDbSpline
 70
8
 71
3
 72
8
 73
4
 74
0
 40
0
 40
0
 40
0
 40
0
 40
1
 40
1
 40
1
 40
1
 10
2066.413650
 20
2165.254867
 30
0.0
 10
2055.882600
 20
2180.954692
 30
0.0
 10
2047.452450
 20
2193.924405
 30
0.0
 10
2047.680075
 20
2194.076460
 30
0.0
  0
SPLINE
  5
40e
100
AcDbEntity
  8
0
 62
7
100
AcDbSpline
 70
8
 71
3
 72
8
 73
4
 74
0
 40
0
 40
0
 40
0
 40
0
 40
1
 40
1
 40
1
 40
1
 10
2047.680075
 20
2194.076460
 30
0.0
 10
2059.034250
 20
2201.663047
 30
0.0
 10
2067.617325
 20
2207.615310
 30
0.0
 10
2074.264275
 20
2212.512510
 30
0.0
  0
SPLINE
  5
40f
100
AcDbEntity
  8
0
 62
7
100
AcDbSpline
 70
8
 71
3
 72
8
 73
4
 74
0
 40
0
 40
0
 40
0
 40
0
 40
1
 40
1
 40
1
 40
1
 10
2074.264275
 20
2212.512510
 30
0.0
 10
2083.536600
 20
2219.343795
 30
0.0
 10
2107.965525
 20
2239.821757
 30
0.0
 10
2111.810625
 20
2243.986260
 30
0.0
  0
LWPOLYLINE
  5
410
100
AcDbEntity
  8
0
 62
7
100
AcDbPolyline
 90
5
 70
0
 10
2204.114625
 20
2572.615770
 30
0.0
 10
2204.877525
 20
2552.291826
 30
0.0
 10
2193.752700
 20
2552.291826
 30
0.0
 10
2182.627950
 20
2552.291826
 30
0.0
 10
2181.850125
 20
2571.502132
 30
0.0
  0
SPLINE
  5
411
100
AcDbEntity
  8
0
 62
7
100
AcDbSpline
 70
8
 71
3
 72
8
 73
4
 74
0
 40
0
 40
0
 40
0
 40
0
 40
1
 40
1
 40
1
 40
1
 10
2076.701925
 20
2305.998697
 30
0.0
 10
2091.050925
 20
2320.632285
 30
0.0
 10
2114.470500
 20
2348.933715
 30
0.0
 10
2113.122750
 20
2350.011832
 30
0.0
  0
SPLINE
  5
412
100
AcDbEntity
  8
0
 62
7
100
AcDbSpline
 70
8
 71
3
 72
8
 73
4
 74
0
 40
0
 40
0
 40
0
 40
0
 40
1
 40
1
 40
1
 40
1
 10
2113.122750
 20
2350.011832
 30
0.0
 10
2112.881925
 20
2350.211153
 30
0.0
 10
2101.158825
 20
2358.042637
 30
0.0
 10
2087.071200
 20
2367.421838
 30
0.0
  0
SPLINE
  5
413
100
AcDbEntity
  8
0
 62
7
100
AcDbSpline
 70
8
 71
3
 72
8
 73
4
 74
0
 40
0
 40
0
 40
0
 40
0
 40
1
 40
1
 40
1
 40
1
 10
2087.071200
 20
2367.421838
 30
0.0
 10
2072.983500
 20
2376.801022
 30
0.0
 10
2060.340450
 20
2385.340140
 30
0.0
 10
2058.974925
 20
2386.397647
 30
0.0
  0
LWPOLYLINE
  5
414
100
AcDbEntity
  8
0
 62
7
100
AcDbPolyline
 90
5
 70
0
 10
2111.810625
 20
2243.986260
 30
0.0
 10
2114.277300
 20
2246.657745
 30
0.0
 10
2090.215050
 20
2270.949180
 30
0.0
 10
2066.152875
 20
2295.240622
 30
0.0
 10
2076.701925
 20
2305.998697
 30
0.0
  0
SPLINE
  5
415
100
AcDbEntity
  8
0
 62
7
100
AcDbSpline
 70
8
 71
3
 72
8
 73
4
 74
0
 40
0
 40
0
 40
0
 40
0
 40
1
 40
1
 40
1
 40
1
 10
2064.230775
 20
2400.036975
 30
0.0
 10
2073.209100
 20
2413.631212
 30
0.0
 10
2086.037700
 20
2437.929570
 30
0.0
 10
2090.375925
 20
2449.557855
 30
0.0
  0
SPLINE
  5
416
100
AcDbEntity
  8
0
 62
7
100
AcDbSpline
 70
8
 71
3
 72
8
 73
4
 74
0
 40
0
 40
0
 40
0
 40
0
 40
1
 40
1
 40
1
 40
1
 10
2090.375925
 20
2449.557855
 30
0.0
 10
2092.031025
 20
2453.994510
 30
0.0
 10
2093.809800
 20
2457.886747
 30
0.0
 10
2094.328275
 20
2458.207297
 30
0.0
  0
SPLINE
  5
417
100
AcDbEntity
  8
0
 62
7
100
AcDbSpline
 70
8
 71
3
 72
8
 73
4
 74
0
 40
0
 40
0
 40
0
 40
0
 40
1
 40
1
 40
1
 40
1
 10
2094.328275
 20
2458.207297
 30
0.0
 10
2095.294500
 20
2458.804357
 30
0.0
 10
2111.971125
 20
2452.596225
 30
0.0
 10
2113.574175
 20
2451.042795
 30
0.0
  0
SPLINE
  5
418
100
AcDbEntity
  8
0
 62
7
100
AcDbSpline
 70
8
 71
3
 72
8
 73
4
 74
0
 40
0
 40
0
 40
0
 40
0
 40
1
 40
1
 40
1
 40
1
 10
2113.574175
 20
2451.042795
 30
0.0
 10
2115.337575
 20
2449.333875
 30
0.0
 10
2104.644750
 20
2424.852292
 30
0.0
 10
2093.896650
 20
2405.990377
 30
0.0
  0
SPLINE
  5
419
100
AcDbEntity
  8
0
 62
7
100
AcDbSpline
 70
8
 71
3
 72
8
 73
4
 74
0
 40
0
 40
0
 40
0
 40
0
 40
1
 40
1
 40
1
 40
1
 10
2093.896650
 20
2405.990377
 30
0.0
 10
2090.448825
 20
2399.939955
 30
0.0
 10
2087.654625
 20
2394.678000
 30
0.0
 10
2087.687325
 20
2394.297150
 30
0.0
  0
SPLINE
  5
41a
100
AcDbEntity
  8
0
 62
7
100
AcDbSpline
 70
8
 71
3
 72
8
 73
4
 74
0
 40
0
 40
0
 40
0
 40
0
 40
1
 40
1
 40
1
 40
1
 10
2087.687325
 20
2394.297150
 30
0.0
 10
2087.740575
 20
2393.667300
 30
0.0
 10
2123.476875
 20
2369.555010
 30
0.0
 10
2125.522875
 20
2368.767952
 30
0.0
  0
SPLINE
  5
41b
100
AcDbEntity
  8
0
 62
7
100
AcDbSpline
 70
8
 71
3
 72
8
 73
4
 74
0
 40
0
 40
0
 40
0
 40
0
 40
1
 40
1
 40
1
 40
1
 10
2125.522875
 20
2368.767952
 30
0.0
 10
2127.249225
 20
2368.103850
 30
0.0
 10
2145.599850
 20
2402.718787
 30
0.0
 10
2153.434575
 20
2421.418230
 30
0.0
  0
SPLINE
  5
41c
100
AcDbEntity
  8
0
 62
7
100
AcDbSpline
 70
8
 71
3
 72
8
 73
4
 74
0
 40
0
 40
0
 40
0
 40
0
 40
1
 40
1
 40
1
 40
1
 10
2153.434575
 20
2421.418230
 30
0.0
 10
2155.737900
 20
2426.915617
 30
0.0
 10
2158.186800
 20
2431.601617
 30
0.0
 10
2158.876650
 20
2431.831552
 30
0.0
  0
SPLINE
  5
41d
100
AcDbEntity
  8
0
 62
7
100
AcDbSpline
 70
8
 71
3
 72
8
 73
4
 74
0
 40
0
 40
0
 40
0
 40
0
 40
1
 40
1
 40
1
 40
1
 10
2158.876650
 20
2431.831552
 30
0.0
 10
2159.566425
 20
2432.061487
 30
0.0
 10
2162.735700
 20
2431.123972
 30
0.0
 10
2165.919375
 20
2429.748180
 30
0.0
  0
SPLINE
  5
41e
100
AcDbEntity
  8
0
 62
7
100
AcDbSpline
 70
8
 71
3
 72
8
 73
4
 74
0
 40
0
 40
0
 40
0
 40
0
 40
1
 40
1
 40
1
 40
1
 10
2165.919375
 20
2429.748180
 30
0.0
 10
2169.102975
 20
2428.372395
 30
0.0
 10
2173.304175
 20
2426.574742
 30
0.0
 10
2175.255300
 20
2425.753365
 30
0.0
  0
LWPOLYLINE
  5
41f
100
AcDbEntity
  8
0
 62
7
100
AcDbPolyline
 90
3
 70
0
 10
2058.974925
 20
2386.397647
 30
0.0
 10
2056.492650
 20
2388.320385
 30
0.0
 10
2064.230775
 20
2400.036975
 30
0.0
  0
SPLINE
  5
420
100
AcDbEntity
  8
0
 62
7
100
AcDbSpline
 70
8
 71
3
 72
8
 73
4
 74
0
 40
0
 40
0
 40
0
 40
0
 40
1
 40
1
 40
1
 40
1
 10
2175.972825
 20
2417.284642
 30
0.0
 10
2159.771625
 20
2377.351320
 30
0.0
 10
2130.290025
 20
2330.371372
 30
0.0
 10
2103.399525
 20
2301.636225
 30
0.0
  0
LWPOLYLINE
  5
421
100
AcDbEntity
  8
0
 62
7
100
AcDbPolyline
 90
3
 70
0
 10
2175.255300
 20
2425.753365
 30
0.0
 10
2178.802800
 20
2424.259995
 30
0.0
 10
2175.972825
 20
2417.284642
 30
0.0
  0
SPLINE
  5
422
100
AcDbEntity
  8
0
 62
7
100
AcDbSpline
 70
8
 71
3
 72
8
 73
4
 74
0
 40
0
 40
0
 40
0
 40
0
 40
1
 40
1
 40
1
 40
1
 10
2134.707000
 20
2234.792145
 30
0.0
 10
2121.632775
 20
2222.002297
 30
0.0
 10
2103.571425
 20
2206.371142
 30
0.0
 10
2091.737100
 20
2197.603897
 30
0.0
  0
SPLINE
  5
423
100
AcDbEntity
  8
0
 62
7
100
AcDbSpline
 70
8
 71
3
 72
8
 73
4
 74
0
 40
0
 40
0
 40
0
 40
0
 40
1
 40
1
 40
1
 40
1
 10
2091.737100
 20
2197.603897
 30
0.0
 10
2087.603325
 20
2194.541392
 30
0.0
 10
2082.925275
 20
2190.967792
 30
0.0
 10
2081.341500
 20
2189.662560
 30
0.0
  0
LWPOLYLINE
  5
424
100
AcDbEntity
  8
0
 62
7
100
AcDbPolyline
 90
5
 70
0
 10
2103.399525
 20
2301.636225
 30
0.0
 10
2097.754650
 20
2295.604290
 30
0.0
 10
2122.230600
 20
2271.067357
 30
0.0
 10
2146.706400
 20
2246.530417
 30
0.0
 10
2134.707000
 20
2234.792145
 30
0.0
  0
SPLINE
  5
425
100
AcDbEntity
  8
0
 62
7
100
AcDbSpline
 70
8
 71
3
 72
8
 73
4
 74
0
 40
0
 40
0
 40
0
 40
0
 40
1
 40
1
 40
1
 40
1
 10
2091.049350
 20
2168.503350
 30
0.0
 10
2097.972525
 20
2158.171095
 30
0.0
 10
2103.774600
 20
2149.527247
 30
0.0
 10
2103.943275
 20
2149.294935
 30
0.0
  0
SPLINE
  5
426
100
AcDbEntity
  8
0
 62
7
100
AcDbSpline
 70
8
 71
3
 72
8
 73
4
 74
0
 40
0
 40
0
 40
0
 40
0
 40
1
 40
1
 40
1
 40
1
 10
2103.943275
 20
2149.294935
 30
0.0
 10
2104.647825
 20
2148.323062
 30
0.0
 10
2133.558300
 20
2170.794330
 30
0.0
 10
2148.843450
 20
2184.194542
 30
0.0
  0
SPLINE
  5
427
100
AcDbEntity
  8
0
 62
7
100
AcDbSpline
 70
8
 71
3
 72
8
 73
4
 74
0
 40
0
 40
0
 40
0
 40
0
 40
1
 40
1
 40
1
 40
1
 10
2148.843450
 20
2184.194542
 30
0.0
 10
2156.098800
 20
2190.555135
 30
0.0
 10
2186.288250
 20
2220.972690
 30
0.0
 10
2194.205850
 20
2229.899475
 30
0.0
  0
SPLINE
  5
428
100
AcDbEntity
  8
0
 62
7
100
AcDbSpline
 70
8
 71
3
 72
8
 73
4
 74
0
 40
0
 40
0
 40
0
 40
0
 40
1
 40
1
 40
1
 40
1
 10
2194.205850
 20
2229.899475
 30
0.0
 10
2209.722450
 20
2247.394005
 30
0.0
 10
2228.750025
 20
2272.693515
 30
0.0
 10
2227.157775
 20
2273.713440
 30
0.0
  0
SPLINE
  5
429
100
AcDbEntity
  8
0
 62
7
100
AcDbSpline
 70
8
 71
3
 72
8
 73
4
 74
0
 40
0
 40
0
 40
0
 40
0
 40
1
 40
1
 40
1
 40
1
 10
2227.157775
 20
2273.713440
 30
0.0
 10
2213.864325
 20
2282.229142
 30
0.0
 10
2176.320450
 20
2308.192177
 30
0.0
 10
2175.958425
 20
2309.119830
 30
0.0
  0
SPLINE
  5
42a
100
AcDbEntity
  8
0
 62
7
100
AcDbSpline
 70
8
 71
3
 72
8
 73
4
 74
0
 40
0
 40
0
 40
0
 40
0
 40
1
 40
1
 40
1
 40
1
 10
2175.958425
 20
2309.119830
 30
0.0
 10
2175.560925
 20
2310.138067
 30
0.0
 10
2186.119575
 20
2327.343052
 30
0.0
 10
2187.141825
 20
2327.343052
 30
0.0
  0
SPLINE
  5
42b
100
AcDbEntity
  8
0
 62
7
100
AcDbSpline
 70
8
 71
3
 72
8
 73
4
 74
0
 40
0
 40
0
 40
0
 40
0
 40
1
 40
1
 40
1
 40
1
 10
2187.141825
 20
2327.343052
 30
0.0
 10
2187.298950
 20
2327.343052
 30
0.0
 10
2199.389850
 20
2319.339997
 30
0.0
 10
2214.010500
 20
2309.558482
 30
0.0
  0
LWPOLYLINE
  5
42c
100
AcDbEntity
  8
0
 62
7
100
AcDbPolyline
 90
3
 70
0
 10
2081.341500
 20
2189.662560
 30
0.0
 10
2078.461950
 20
2187.289447
 30
0.0
 10
2091.049350
 20
2168.503350
 30
0.0
  0
SPLINE
  5
42d
100
AcDbEntity
  8
0
 62
7
100
AcDbSpline
 70
8
 71
3
 72
8
 73
4
 74
0
 40
0
 40
0
 40
0
 40
0
 40
1
 40
1
 40
1
 40
1
 10
2243.006775
 20
2295.359565
 30
0.0
 10
2252.578575
 20
2309.585107
 30
0.0
 10
2277.689100
 20
2358.309652
 30
0.0
 10
2276.146950
 20
2359.665060
 30
0.0
  0
SPLINE
  5
42e
100
AcDbEntity
  8
0
 62
7
100
AcDbSpline
 70
8
 71
3
 72
8
 73
4
 74
0
 40
0
 40
0
 40
0
 40
0
 40
1
 40
1
 40
1
 40
1
 10
2276.146950
 20
2359.665060
 30
0.0
 10
2275.668150
 20
2360.085780
 30
0.0
 10
2261.363700
 20
2366.138775
 30
0.0
 10
2244.359400
 20
2373.116167
 30
0.0
  0
SPLINE
  5
42f
100
AcDbEntity
  8
0
 62
7
100
AcDbSpline
 70
8
 71
3
 72
8
 73
4
 74
0
 40
0
 40
0
 40
0
 40
0
 40
1
 40
1
 40
1
 40
1
 10
2244.359400
 20
2373.116167
 30
0.0
 10
2219.886525
 20
2383.157977
 30
0.0
 10
2213.594850
 20
2386.151250
 30
0.0
 10
2214.174525
 20
2387.476230
 30
0.0
  0
SPLINE
  5
430
100
AcDbEntity
  8
0
 62
7
100
AcDbSpline
 70
8
 71
3
 72
8
 73
4
 74
0
 40
0
 40
0
 40
0
 40
0
 40
1
 40
1
 40
1
 40
1
 10
2214.174525
 20
2387.476230
 30
0.0
 10
2222.075550
 20
2405.536230
 30
0.0
 10
2241.613575
 20
2465.674837
 30
0.0
 10
2240.022825
 20
2467.038727
 30
0.0
  0
SPLINE
  5
431
100
AcDbEntity
  8
0
 62
7
100
AcDbSpline
 70
8
 71
3
 72
8
 73
4
 74
0
 40
0
 40
0
 40
0
 40
0
 40
1
 40
1
 40
1
 40
1
 10
2240.022825
 20
2467.038727
 30
0.0
 10
2239.560675
 20
2467.435072
 30
0.0
 10
2116.959000
 20
2491.783293
 30
0.0
 10
2110.059750
 20
2492.848939
 30
0.0
  0
SPLINE
  5
432
100
AcDbEntity
  8
0
 62
7
100
AcDbSpline
 70
8
 71
3
 72
8
 73
4
 74
0
 40
0
 40
0
 40
0
 40
0
 40
1
 40
1
 40
1
 40
1
 10
2110.059750
 20
2492.848939
 30
0.0
 10
2105.346600
 20
2493.576892
 30
0.0
 10
2105.225625
 20
2493.697801
 30
0.0
 10
2105.849400
 20
2497.056320
 30
0.0
  0
SPLINE
  5
433
100
AcDbEntity
  8
0
 62
7
100
AcDbSpline
 70
8
 71
3
 72
8
 73
4
 74
0
 40
0
 40
0
 40
0
 40
0
 40
1
 40
1
 40
1
 40
1
 10
2105.849400
 20
2497.056320
 30
0.0
 10
2109.143325
 20
2514.795166
 30
0.0
 10
2111.141850
 20
2529.270632
 30
0.0
 10
2111.746425
 20
2539.770049
 30
0.0
  0
LWPOLYLINE
  5
434
100
AcDbEntity
  8
0
 62
7
100
AcDbPolyline
 90
3
 70
0
 10
2214.010500
 20
2309.558482
 30
0.0
 10
2240.593950
 20
2291.773897
 30
0.0
 10
2243.006775
 20
2295.359565
 30
0.0
  0
SPLINE
  5
435
100
AcDbEntity
  8
0
 62
7
100
AcDbSpline
 70
8
 71
3
 72
8
 73
4
 74
0
 40
0
 40
0
 40
0
 40
0
 40
1
 40
1
 40
1
 40
1
 10
2066.051175
 20
2548.818378
 30
0.0
 10
2065.668375
 20
2546.904305
 30
0.0
 10
2065.355175
 20
2543.686730
 30
0.0
 10
2065.355175
 20
2541.668211
 30
0.0
  0
SPLINE
  5
436
100
AcDbEntity
  8
0
 62
7
100
AcDbSpline
 70
8
 71
3
 72
8
 73
4
 74
0
 40
0
 40
0
 40
0
 40
0
 40
1
 40
1
 40
1
 40
1
 10
2065.355175
 20
2541.668211
 30
0.0
 10
2065.355175
 20
2534.220577
 30
0.0
 10
2059.673250
 20
2504.566823
 30
0.0
 10
2055.762675
 20
2491.605080
 30
0.0
  0
SPLINE
  5
437
100
AcDbEntity
  8
0
 62
7
100
AcDbSpline
 70
8
 71
3
 72
8
 73
4
 74
0
 40
0
 40
0
 40
0
 40
0
 40
1
 40
1
 40
1
 40
1
 10
2055.762675
 20
2491.605080
 30
0.0
 10
2046.191100
 20
2459.880630
 30
0.0
 10
2029.440000
 20
2428.081320
 30
0.0
 10
2009.912250
 20
2404.565617
 30
0.0
  0
SPLINE
  5
438
100
AcDbEntity
  8
0
 62
7
100
AcDbSpline
 70
8
 71
3
 72
8
 73
4
 74
0
 40
0
 40
0
 40
0
 40
0
 40
1
 40
1
 40
1
 40
1
 10
2009.912250
 20
2404.565617
 30
0.0
 10
2006.412000
 20
2400.350512
 30
0.0
 10
2002.833375
 20
2396.002215
 30
0.0
 10
2001.960000
 20
2394.902737
 30
0.0
  0
SPLINE
  5
439
100
AcDbEntity
  8
0
 62
7
100
AcDbSpline
 70
8
 71
3
 72
8
 73
4
 74
0
 40
0
 40
0
 40
0
 40
0
 40
1
 40
1
 40
1
 40
1
 10
2001.960000
 20
2394.902737
 30
0.0
 10
2000.505600
 20
2393.072280
 30
0.0
 10
2002.289475
 20
2390.984160
 30
0.0
 10
2023.109025
 20
2370.145837
 30
0.0
  0
LWPOLYLINE
  5
43a
100
AcDbEntity
  8
0
 62
7
100
AcDbPolyline
 90
5
 70
0
 10
2111.746425
 20
2539.770049
 30
0.0
 10
2112.467550
 20
2552.298508
 30
0.0
 10
2089.607400
 20
2552.298508
 30
0.0
 10
2066.747250
 20
2552.298508
 30
0.0
 10
2066.051175
 20
2548.818378
 30
0.0
  0
SPLINE
  5
43b
100
AcDbEntity
  8
0
 62
7
100
AcDbSpline
 70
8
 71
3
 72
8
 73
4
 74
0
 40
0
 40
0
 40
0
 40
0
 40
1
 40
1
 40
1
 40
1
 10
1974.559500
 20
2368.921845
 30
0.0
 10
1961.921625
 20
2358.411600
 30
0.0
 10
1946.365275
 20
2347.954507
 30
0.0
 10
1932.542250
 20
2340.677370
 30
0.0
  0
SPLINE
  5
43c
100
AcDbEntity
  8
0
 62
7
100
AcDbSpline
 70
8
 71
3
 72
8
 73
4
 74
0
 40
0
 40
0
 40
0
 40
0
 40
1
 40
1
 40
1
 40
1
 10
1932.542250
 20
2340.677370
 30
0.0
 10
1926.154425
 20
2337.314542
 30
0.0
 10
1921.695525
 20
2334.277942
 30
0.0
 10
1921.695525
 20
2333.290635
 30
0.0
  0
SPLINE
  5
43d
100
AcDbEntity
  8
0
 62
7
100
AcDbSpline
 70
8
 71
3
 72
8
 73
4
 74
0
 40
0
 40
0
 40
0
 40
0
 40
1
 40
1
 40
1
 40
1
 10
1921.695525
 20
2333.290635
 30
0.0
 10
1921.695525
 20
2332.368547
 30
0.0
 10
1923.150450
 20
2328.272722
 30
0.0
 10
1924.928625
 20
2324.188792
 30
0.0
  0
SPLINE
  5
43e
100
AcDbEntity
  8
0
 62
7
100
AcDbSpline
 70
8
 71
3
 72
8
 73
4
 74
0
 40
0
 40
0
 40
0
 40
0
 40
1
 40
1
 40
1
 40
1
 10
1924.928625
 20
2324.188792
 30
0.0
 10
1926.706725
 20
2320.104870
 30
0.0
 10
1930.497075
 20
2311.000372
 30
0.0
 10
1933.351725
 20
2303.956597
 30
0.0
  0
SPLINE
  5
43f
100
AcDbEntity
  8
0
 62
7
100
AcDbSpline
 70
8
 71
3
 72
8
 73
4
 74
0
 40
0
 40
0
 40
0
 40
0
 40
1
 40
1
 40
1
 40
1
 10
1933.351725
 20
2303.956597
 30
0.0
 10
1936.206300
 20
2296.912822
 30
0.0
 10
1939.280175
 20
2289.531562
 30
0.0
 10
1940.182500
 20
2287.553797
 30
0.0
  0
SPLINE
  5
440
100
AcDbEntity
  8
0
 62
7
100
AcDbSpline
 70
8
 71
3
 72
8
 73
4
 74
0
 40
0
 40
0
 40
0
 40
0
 40
1
 40
1
 40
1
 40
1
 10
1940.182500
 20
2287.553797
 30
0.0
 10
1942.257075
 20
2283.007335
 30
0.0
 10
1945.198575
 20
2274.709012
 30
0.0
 10
1944.815475
 20
2274.484140
 30
0.0
  0
SPLINE
  5
441
100
AcDbEntity
  8
0
 62
7
100
AcDbSpline
 70
8
 71
3
 72
8
 73
4
 74
0
 40
0
 40
0
 40
0
 40
0
 40
1
 40
1
 40
1
 40
1
 10
1944.815475
 20
2274.484140
 30
0.0
 10
1944.655725
 20
2274.390472
 30
0.0
 10
1940.109525
 20
2272.476390
 30
0.0
 10
1934.712450
 20
2270.230703
 30
0.0
  0
LWPOLYLINE
  5
442
100
AcDbEntity
  8
0
 62
7
100
AcDbPolyline
 90
7
 70
0
 10
2023.109025
 20
2370.145837
 30
0.0
 10
2045.846775
 20
2347.387995
 30
0.0
 10
2037.885450
 20
2339.426827
 30
0.0
 10
2029.924350
 20
2331.465637
 30
0.0
 10
2007.205800
 20
2354.321955
 30
0.0
 10
1984.487400
 20
2377.178272
 30
0.0
 10
1974.559500
 20
2368.921845
 30
0.0
  0
SPLINE
  5
443
100
AcDbEntity
  8
0
 62
7
100
AcDbSpline
 70
8
 71
3
 72
8
 73
4
 74
0
 40
0
 40
0
 40
0
 40
0
 40
1
 40
1
 40
1
 40
1
 10
1923.175875
 20
2270.296365
 30
0.0
 10
1922.227725
 20
2272.578172
 30
0.0
 10
1918.249200
 20
2282.063497
 30
0.0
 10
1914.335025
 20
2291.374860
 30
0.0
  0
SPLINE
  5
444
100
AcDbEntity
  8
0
 62
7
100
AcDbSpline
 70
8
 71
3
 72
8
 73
4
 74
0
 40
0
 40
0
 40
0
 40
0
 40
1
 40
1
 40
1
 40
1
 10
1914.335025
 20
2291.374860
 30
0.0
 10
1910.420775
 20
2300.686230
 30
0.0
 10
1907.218275
 20
2308.566607
 30
0.0
 10
1907.218275
 20
2308.886827
 30
0.0
  0
SPLINE
  5
445
100
AcDbEntity
  8
0
 62
7
100
AcDbSpline
 70
8
 71
3
 72
8
 73
4
 74
0
 40
0
 40
0
 40
0
 40
0
 40
1
 40
1
 40
1
 40
1
 10
1907.218275
 20
2308.886827
 30
0.0
 10
1907.218275
 20
2309.207032
 30
0.0
 10
1905.788475
 20
2312.613682
 30
0.0
 10
1904.041200
 20
2316.457170
 30
0.0
  0
SPLINE
  5
446
100
AcDbEntity
  8
0
 62
7
100
AcDbSpline
 70
8
 71
3
 72
8
 73
4
 74
0
 40
0
 40
0
 40
0
 40
0
 40
1
 40
1
 40
1
 40
1
 10
1904.041200
 20
2316.457170
 30
0.0
 10
1902.293850
 20
2320.300642
 30
0.0
 10
1900.665150
 20
2324.003145
 30
0.0
 10
1900.421850
 20
2324.684940
 30
0.0
  0
SPLINE
  5
447
100
AcDbEntity
  8
0
 62
7
100
AcDbSpline
 70
8
 71
3
 72
8
 73
4
 74
0
 40
0
 40
0
 40
0
 40
0
 40
1
 40
1
 40
1
 40
1
 10
1900.421850
 20
2324.684940
 30
0.0
 10
1900.126800
 20
2325.511672
 30
0.0
 10
1896.641250
 20
2324.860155
 30
0.0
 10
1889.956725
 20
2322.728903
 30
0.0
  0
SPLINE
  5
448
100
AcDbEntity
  8
0
 62
7
100
AcDbSpline
 70
8
 71
3
 72
8
 73
4
 74
0
 40
0
 40
0
 40
0
 40
0
 40
1
 40
1
 40
1
 40
1
 10
1889.956725
 20
2322.728903
 30
0.0
 10
1868.231025
 20
2315.801872
 30
0.0
 10
1845.981075
 20
2312.082412
 30
0.0
 10
1819.808700
 20
2311.002465
 30
0.0
  0
LWPOLYLINE
  5
449
100
AcDbEntity
  8
0
 62
7
100
AcDbPolyline
 90
3
 70
0
 10
1934.712450
 20
2270.230703
 30
0.0
 10
1924.899825
 20
2266.147620
 30
0.0
 10
1923.175875
 20
2270.296365
 30
0.0
  0
SPLINE
  5
44a
100
AcDbEntity
  8
0
 62
7
100
AcDbSpline
 70
8
 71
3
 72
8
 73
4
 74
0
 40
0
 40
0
 40
0
 40
0
 40
1
 40
1
 40
1
 40
1
 10
1798.359750
 20
2380.801567
 30
0.0
 10
1796.063025
 20
2380.803817
 30
0.0
 10
1789.422975
 20
2381.575065
 30
0.0
 10
1783.604100
 20
2382.514980
 30
0.0
  0
SPLINE
  5
44b
100
AcDbEntity
  8
0
 62
7
100
AcDbSpline
 70
8
 71
3
 72
8
 73
4
 74
0
 40
0
 40
0
 40
0
 40
0
 40
1
 40
1
 40
1
 40
1
 10
1783.604100
 20
2382.514980
 30
0.0
 10
1753.732050
 20
2387.340232
 30
0.0
 10
1723.892400
 20
2400.526102
 30
0.0
 10
1699.710900
 20
2419.586460
 30
0.0
  0
LWPOLYLINE
  5
44c
100
AcDbEntity
  8
0
 62
7
100
AcDbPolyline
 90
5
 70
0
 10
1819.808700
 20
2311.002465
 30
0.0
 10
1802.535975
 20
2310.289740
 30
0.0
 10
1802.535975
 20
2345.543782
 30
0.0
 10
1802.535975
 20
2380.797817
 30
0.0
 10
1798.359750
 20
2380.801567
 30
0.0
  0
SPLINE
  5
44d
100
AcDbEntity
  8
0
 62
7
100
AcDbSpline
 70
8
 71
3
 72
8
 73
4
 74
0
 40
0
 40
0
 40
0
 40
0
 40
1
 40
1
 40
1
 40
1
 10
1688.809425
 20
2422.429155
 30
0.0
 10
1686.998475
 20
2420.694090
 30
0.0
 10
1676.910375
 20
2410.617082
 30
0.0
 10
1666.391400
 20
2400.035797
 30
0.0
  0
SPLINE
  5
44e
100
AcDbEntity
  8
0
 62
7
100
AcDbSpline
 70
8
 71
3
 72
8
 73
4
 74
0
 40
0
 40
0
 40
0
 40
0
 40
1
 40
1
 40
1
 40
1
 10
1666.391400
 20
2400.035797
 30
0.0
 10
1655.872725
 20
2389.454535
 30
0.0
 10
1646.732025
 20
2380.797112
 30
0.0
 10
1646.079000
 20
2380.797112
 30
0.0
  0
SPLINE
  5
44f
100
AcDbEntity
  8
0
 62
7
100
AcDbSpline
 70
8
 71
3
 72
8
 73
4
 74
0
 40
0
 40
0
 40
0
 40
0
 40
1
 40
1
 40
1
 40
1
 10
1646.079000
 20
2380.797112
 30
0.0
 10
1644.601875
 20
2380.797112
 30
0.0
 10
1631.035350
 20
2394.377865
 30
0.0
 10
1631.035350
 20
2395.856362
 30
0.0
  0
SPLINE
  5
450
100
AcDbEntity
  8
0
 62
7
100
AcDbSpline
 70
8
 71
3
 72
8
 73
4
 74
0
 40
0
 40
0
 40
0
 40
0
 40
1
 40
1
 40
1
 40
1
 10
1631.035350
 20
2395.856362
 30
0.0
 10
1631.035350
 20
2396.449725
 30
0.0
 10
1652.123850
 20
2418.028155
 30
0.0
 10
1677.898800
 20
2443.808422
 30
0.0
  0
LWPOLYLINE
  5
451
100
AcDbEntity
  8
0
 62
7
100
AcDbPolyline
 90
3
 70
0
 10
1699.710900
 20
2419.586460
 30
0.0
 10
1692.102150
 20
2425.583827
 30
0.0
 10
1688.809425
 20
2422.429155
 30
0.0
  0
SPLINE
  5
452
100
AcDbEntity
  8
0
 62
7
100
AcDbSpline
 70
8
 71
3
 72
8
 73
4
 74
0
 40
0
 40
0
 40
0
 40
0
 40
1
 40
1
 40
1
 40
1
 10
1719.616200
 20
2498.043110
 30
0.0
 10
1712.584425
 20
2508.102160
 30
0.0
 10
1706.063175
 20
2522.422907
 30
0.0
 10
1702.621050
 20
2535.363988
 30
0.0
  0
SPLINE
  5
453
100
AcDbEntity
  8
0
 62
7
100
AcDbSpline
 70
8
 71
3
 72
8
 73
4
 74
0
 40
0
 40
0
 40
0
 40
0
 40
1
 40
1
 40
1
 40
1
 10
1702.621050
 20
2535.363988
 30
0.0
 10
1700.143950
 20
2544.677168
 30
0.0
 10
1699.735950
 20
2548.561225
 30
0.0
 10
1699.671975
 20
2563.434210
 30
0.0
  0
SPLINE
  5
454
100
AcDbEntity
  8
0
 62
7
100
AcDbSpline
 70
8
 71
3
 72
8
 73
4
 74
0
 40
0
 40
0
 40
0
 40
0
 40
1
 40
1
 40
1
 40
1
 10
1699.671975
 20
2563.434210
 30
0.0
 10
1699.604475
 20
2578.928106
 30
0.0
 10
1699.909800
 20
2581.835989
 30
0.0
 10
1702.646475
 20
2591.832052
 30
0.0
  0
SPLINE
  5
455
100
AcDbEntity
  8
0
 62
7
100
AcDbSpline
 70
8
 71
3
 72
8
 73
4
 74
0
 40
0
 40
0
 40
0
 40
0
 40
1
 40
1
 40
1
 40
1
 10
1702.646475
 20
2591.832052
 30
0.0
 10
1713.954150
 20
2633.135205
 30
0.0
 10
1743.922950
 20
2663.108257
 30
0.0
 10
1785.274500
 20
2674.471507
 30
0.0
  0
SPLINE
  5
456
100
AcDbEntity
  8
0
 62
7
100
AcDbSpline
 70
8
 71
3
 72
8
 73
4
 74
0
 40
0
 40
0
 40
0
 40
0
 40
1
 40
1
 40
1
 40
1
 10
1785.274500
 20
2674.471507
 30
0.0
 10
1795.199325
 20
2677.198815
 30
0.0
 10
1798.288875
 20
2677.531770
 30
0.0
 10
1813.672425
 20
2677.531770
 30
0.0
  0
SPLINE
  5
457
100
AcDbEntity
  8
0
 62
7
100
AcDbSpline
 70
8
 71
3
 72
8
 73
4
 74
0
 40
0
 40
0
 40
0
 40
0
 40
1
 40
1
 40
1
 40
1
 10
1813.672425
 20
2677.531770
 30
0.0
 10
1829.055750
 20
2677.531770
 30
0.0
 10
1832.145450
 20
2677.198815
 30
0.0
 10
1842.070275
 20
2674.471507
 30
0.0
  0
SPLINE
  5
458
100
AcDbEntity
  8
0
 62
7
100
AcDbSpline
 70
8
 71
3
 72
8
 73
4
 74
0
 40
0
 40
0
 40
0
 40
0
 40
1
 40
1
 40
1
 40
1
 10
1842.070275
 20
2674.471507
 30
0.0
 10
1855.177800
 20
2670.869602
 30
0.0
 10
1869.036900
 20
2664.499395
 30
0.0
 10
1879.156875
 20
2657.425050
 30
0.0
  0
LWPOLYLINE
  5
459
100
AcDbEntity
  8
0
 62
7
100
AcDbPolyline
 90
3
 70
0
 10
1677.898800
 20
2443.808422
 30
0.0
 10
1724.762325
 20
2490.681671
 30
0.0
 10
1719.616200
 20
2498.043110
 30
0.0
  0
SPLINE
  5
45a
100
AcDbEntity
  8
0
 62
7
100
AcDbSpline
 70
8
 71
3
 72
8
 73
4
 74
0
 40
0
 40
0
 40
0
 40
0
 40
1
 40
1
 40
1
 40
1
 10
1914.639150
 20
2689.073422
 30
0.0
 10
1912.088850
 20
2691.226972
 30
0.0
 10
1905.580800
 20
2695.863945
 30
0.0
 10
1900.176825
 20
2699.377830
 30
0.0
  0
SPLINE
  5
45b
100
AcDbEntity
  8
0
 62
7
100
AcDbSpline
 70
8
 71
3
 72
8
 73
4
 74
0
 40
0
 40
0
 40
0
 40
0
 40
1
 40
1
 40
1
 40
1
 10
1900.176825
 20
2699.377830
 30
0.0
 10
1856.184525
 20
2727.983025
 30
0.0
 10
1797.195600
 20
2732.469090
 30
0.0
 10
1748.459700
 20
2710.915792
 30
0.0
  0
SPLINE
  5
45c
100
AcDbEntity
  8
0
 62
7
100
AcDbSpline
 70
8
 71
3
 72
8
 73
4
 74
0
 40
0
 40
0
 40
0
 40
0
 40
1
 40
1
 40
1
 40
1
 10
1748.459700
 20
2710.915792
 30
0.0
 10
1744.974225
 20
2709.374340
 30
0.0
 10
1741.980750
 20
2708.259675
 30
0.0
 10
1741.807575
 20
2708.438752
 30
0.0
  0
SPLINE
  5
45d
100
AcDbEntity
  8
0
 62
7
100
AcDbSpline
 70
8
 71
3
 72
8
 73
4
 74
0
 40
0
 40
0
 40
0
 40
0
 40
1
 40
1
 40
1
 40
1
 10
1741.807575
 20
2708.438752
 30
0.0
 10
1741.063125
 20
2709.208777
 30
0.0
 10
1733.377725
 20
2728.510095
 30
0.0
 10
1733.695950
 20
2728.811355
 30
0.0
  0
SPLINE
  5
45e
100
AcDbEntity
  8
0
 62
7
100
AcDbSpline
 70
8
 71
3
 72
8
 73
4
 74
0
 40
0
 40
0
 40
0
 40
0
 40
1
 40
1
 40
1
 40
1
 10
1733.695950
 20
2728.811355
 30
0.0
 10
1734.269400
 20
2729.354685
 30
0.0
 10
1748.163675
 20
2734.957237
 30
0.0
 10
1752.978900
 20
2736.586890
 30
0.0
  0
SPLINE
  5
45f
100
AcDbEntity
  8
0
 62
7
100
AcDbSpline
 70
8
 71
3
 72
8
 73
4
 74
0
 40
0
 40
0
 40
0
 40
0
 40
1
 40
1
 40
1
 40
1
 10
1752.978900
 20
2736.586890
 30
0.0
 10
1768.424775
 20
2741.814157
 30
0.0
 10
1788.732975
 20
2746.056502
 30
0.0
 10
1798.359750
 20
2746.066830
 30
0.0
  0
LWPOLYLINE
  5
460
100
AcDbEntity
  8
0
 62
7
100
AcDbPolyline
 90
5
 70
0
 10
1879.156875
 20
2657.425050
 30
0.0
 10
1886.414700
 20
2652.351495
 30
0.0
 10
1902.845175
 20
2668.754700
 30
0.0
 10
1919.275725
 20
2685.157897
 30
0.0
 10
1914.639150
 20
2689.073422
 30
0.0
  0
SPLINE
  5
461
100
AcDbEntity
  8
0
 62
7
100
AcDbSpline
 70
8
 71
3
 72
8
 73
4
 74
0
 40
0
 40
0
 40
0
 40
0
 40
1
 40
1
 40
1
 40
1
 10
1799.473500
 20
2793.426510
 30
0.0
 10
1797.789075
 20
2793.165300
 30
0.0
 10
1793.153475
 20
2792.671665
 30
0.0
 10
1789.172325
 20
2792.329567
 30
0.0
  0
SPLINE
  5
462
100
AcDbEntity
  8
0
 62
7
100
AcDbSpline
 70
8
 71
3
 72
8
 73
4
 74
0
 40
0
 40
0
 40
0
 40
0
 40
1
 40
1
 40
1
 40
1
 10
1789.172325
 20
2792.329567
 30
0.0
 10
1770.011025
 20
2790.683062
 30
0.0
 10
1743.697200
 20
2783.830717
 30
0.0
 10
1723.467450
 20
2775.219457
 30
0.0
  0
SPLINE
  5
463
100
AcDbEntity
  8
0
 62
7
100
AcDbSpline
 70
8
 71
3
 72
8
 73
4
 74
0
 40
0
 40
0
 40
0
 40
0
 40
1
 40
1
 40
1
 40
1
 10
1723.467450
 20
2775.219457
 30
0.0
 10
1654.073625
 20
2745.680400
 30
0.0
 10
1603.493400
 20
2683.773967
 30
0.0
 10
1588.180800
 20
2609.638873
 30
0.0
  0
SPLINE
  5
464
100
AcDbEntity
  8
0
 62
7
100
AcDbSpline
 70
8
 71
3
 72
8
 73
4
 74
0
 40
0
 40
0
 40
0
 40
0
 40
1
 40
1
 40
1
 40
1
 10
1588.180800
 20
2609.638873
 30
0.0
 10
1580.479275
 20
2572.351924
 30
0.0
 10
1582.618275
 20
2529.858513
 30
0.0
 10
1593.930900
 20
2495.410477
 30
0.0
  0
LWPOLYLINE
  5
465
100
AcDbEntity
  8
0
 62
7
100
AcDbPolyline
 90
5
 70
0
 10
1798.359750
 20
2746.066830
 30
0.0
 10
1802.535975
 20
2746.070580
 30
0.0
 10
1802.535975
 20
2769.986025
 30
0.0
 10
1802.535975
 20
2793.901455
 30
0.0
 10
1799.473500
 20
2793.426510
 30
0.0
  0
SPLINE
  5
466
100
AcDbEntity
  8
0
 62
7
100
AcDbSpline
 70
8
 71
3
 72
8
 73
4
 74
0
 40
0
 40
0
 40
0
 40
0
 40
1
 40
1
 40
1
 40
1
 10
1618.103850
 20
2494.543491
 30
0.0
 10
1629.672900
 20
2499.322923
 30
0.0
 10
1639.351575
 20
2503.446581
 30
0.0
 10
1639.612275
 20
2503.707157
 30
0.0
  0
SPLINE
  5
467
100
AcDbEntity
  8
0
 62
7
100
AcDbSpline
 70
8
 71
3
 72
8
 73
4
 74
0
 40
0
 40
0
 40
0
 40
0
 40
1
 40
1
 40
1
 40
1
 10
1639.612275
 20
2503.707157
 30
0.0
 10
1639.872825
 20
2503.967733
 30
0.0
 10
1638.816225
 20
2508.366992
 30
0.0
 10
1637.264325
 20
2513.483265
 30
0.0
  0
SPLINE
  5
468
100
AcDbEntity
  8
0
 62
7
100
AcDbSpline
 70
8
 71
3
 72
8
 73
4
 74
0
 40
0
 40
0
 40
0
 40
0
 40
1
 40
1
 40
1
 40
1
 10
1637.264325
 20
2513.483265
 30
0.0
 10
1632.285150
 20
2529.897835
 30
0.0
 10
1630.636200
 20
2542.278058
 30
0.0
 10
1630.610925
 20
2563.433489
 30
0.0
  0
SPLINE
  5
469
100
AcDbEntity
  8
0
 62
7
100
AcDbSpline
 70
8
 71
3
 72
8
 73
4
 74
0
 40
0
 40
0
 40
0
 40
0
 40
1
 40
1
 40
1
 40
1
 10
1630.610925
 20
2563.433489
 30
0.0
 10
1630.562175
 20
2604.266589
 30
0.0
 10
1641.147075
 20
2637.147397
 30
0.0
 10
1665.358275
 20
2671.370422
 30
0.0
  0
SPLINE
  5
46a
100
AcDbEntity
  8
0
 62
7
100
AcDbSpline
 70
8
 71
3
 72
8
 73
4
 74
0
 40
0
 40
0
 40
0
 40
0
 40
1
 40
1
 40
1
 40
1
 10
1665.358275
 20
2671.370422
 30
0.0
 10
1673.029575
 20
2682.213870
 30
0.0
 10
1689.462225
 20
2700.411307
 30
0.0
 10
1691.582850
 20
2700.411307
 30
0.0
  0
SPLINE
  5
46b
100
AcDbEntity
  8
0
 62
7
100
AcDbSpline
 70
8
 71
3
 72
8
 73
4
 74
0
 40
0
 40
0
 40
0
 40
0
 40
1
 40
1
 40
1
 40
1
 10
1691.582850
 20
2700.411307
 30
0.0
 10
1693.161975
 20
2700.411307
 30
0.0
 10
1706.765625
 20
2686.905795
 30
0.0
 10
1706.756475
 20
2685.347190
 30
0.0
  0
SPLINE
  5
46c
100
AcDbEntity
  8
0
 62
7
100
AcDbSpline
 70
8
 71
3
 72
8
 73
4
 74
0
 40
0
 40
0
 40
0
 40
0
 40
1
 40
1
 40
1
 40
1
 10
1706.756475
 20
2685.347190
 30
0.0
 10
1706.756475
 20
2684.751172
 30
0.0
 10
1703.936175
 20
2681.507250
 30
0.0
 10
1700.497050
 20
2678.138497
 30
0.0
  0
SPLINE
  5
46d
100
AcDbEntity
  8
0
 62
7
100
AcDbSpline
 70
8
 71
3
 72
8
 73
4
 74
0
 40
0
 40
0
 40
0
 40
0
 40
1
 40
1
 40
1
 40
1
 10
1700.497050
 20
2678.138497
 30
0.0
 10
1677.173625
 20
2655.292560
 30
0.0
 10
1660.743075
 20
2623.961105
 30
0.0
 10
1654.783275
 20
2590.966655
 30
0.0
  0
SPLINE
  5
46e
100
AcDbEntity
  8
0
 62
7
100
AcDbSpline
 70
8
 71
3
 72
8
 73
4
 74
0
 40
0
 40
0
 40
0
 40
0
 40
1
 40
1
 40
1
 40
1
 10
1654.783275
 20
2590.966655
 30
0.0
 10
1652.289750
 20
2577.161986
 30
0.0
 10
1652.289750
 20
2549.704995
 30
0.0
 10
1654.783275
 20
2535.900320
 30
0.0
  0
SPLINE
  5
46f
100
AcDbEntity
  8
0
 62
7
100
AcDbSpline
 70
8
 71
3
 72
8
 73
4
 74
0
 40
0
 40
0
 40
0
 40
0
 40
1
 40
1
 40
1
 40
1
 10
1654.783275
 20
2535.900320
 30
0.0
 10
1656.820050
 20
2524.624456
 30
0.0
 10
1661.825175
 20
2508.092218
 30
0.0
 10
1666.190775
 20
2498.220853
 30
0.0
  0
SPLINE
  5
470
100
AcDbEntity
  8
0
 62
7
100
AcDbSpline
 70
8
 71
3
 72
8
 73
4
 74
0
 40
0
 40
0
 40
0
 40
0
 40
1
 40
1
 40
1
 40
1
 10
1666.190775
 20
2498.220853
 30
0.0
 10
1667.732100
 20
2494.735369
 30
0.0
 10
1668.846825
 20
2491.755032
 30
0.0
 10
1668.667875
 20
2491.597865
 30
0.0
  0
SPLINE
  5
471
100
AcDbEntity
  8
0
 62
7
100
AcDbSpline
 70
8
 71
3
 72
8
 73
4
 74
0
 40
0
 40
0
 40
0
 40
0
 40
1
 40
1
 40
1
 40
1
 10
1668.667875
 20
2491.597865
 30
0.0
 10
1668.265050
 20
2491.244413
 30
0.0
 10
1654.958550
 20
2485.650064
 30
0.0
 10
1631.592075
 20
2476.010550
 30
0.0
  0
SPLINE
  5
472
100
AcDbEntity
  8
0
 62
7
100
AcDbSpline
 70
8
 71
3
 72
8
 73
4
 74
0
 40
0
 40
0
 40
0
 40
0
 40
1
 40
1
 40
1
 40
1
 10
1631.592075
 20
2476.010550
 30
0.0
 10
1621.792125
 20
2471.967660
 30
0.0
 10
1611.017625
 20
2467.477013
 30
0.0
 10
1607.648850
 20
2466.031327
 30
0.0
  0
SPLINE
  5
473
100
AcDbEntity
  8
0
 62
7
100
AcDbSpline
 70
8
 71
3
 72
8
 73
4
 74
0
 40
0
 40
0
 40
0
 40
0
 40
1
 40
1
 40
1
 40
1
 10
1607.648850
 20
2466.031327
 30
0.0
 10
1604.280075
 20
2464.585642
 30
0.0
 10
1591.501050
 20
2459.296927
 30
0.0
 10
1579.250925
 20
2454.278632
 30
0.0
  0
SPLINE
  5
474
100
AcDbEntity
  8
0
 62
7
100
AcDbSpline
 70
8
 71
3
 72
8
 73
4
 74
0
 40
0
 40
0
 40
0
 40
0
 40
1
 40
1
 40
1
 40
1
 10
1579.250925
 20
2454.278632
 30
0.0
 10
1567.000950
 20
2449.260330
 30
0.0
 10
1554.956250
 20
2444.241255
 30
0.0
 10
1552.485000
 20
2443.125120
 30
0.0
  0
SPLINE
  5
475
100
AcDbEntity
  8
0
 62
7
100
AcDbSpline
 70
8
 71
3
 72
8
 73
4
 74
0
 40
0
 40
0
 40
0
 40
0
 40
1
 40
1
 40
1
 40
1
 10
1552.485000
 20
2443.125120
 30
0.0
 10
1550.013675
 20
2442.008985
 30
0.0
 10
1546.631025
 20
2440.754265
 30
0.0
 10
1544.967975
 20
2440.336838
 30
0.0
  0
SPLINE
  5
476
100
AcDbEntity
  8
0
 62
7
100
AcDbSpline
 70
8
 71
3
 72
8
 73
4
 74
0
 40
0
 40
0
 40
0
 40
0
 40
1
 40
1
 40
1
 40
1
 10
1544.967975
 20
2440.336838
 30
0.0
 10
1543.304625
 20
2439.919425
 30
0.0
 10
1541.944050
 20
2439.396510
 30
0.0
 10
1541.944050
 20
2439.174802
 30
0.0
  0
SPLINE
  5
477
100
AcDbEntity
  8
0
 62
7
100
AcDbSpline
 70
8
 71
3
 72
8
 73
4
 74
0
 40
0
 40
0
 40
0
 40
0
 40
1
 40
1
 40
1
 40
1
 10
1541.944050
 20
2439.174802
 30
0.0
 10
1541.944050
 20
2436.566625
 30
0.0
 10
1554.662550
 20
2413.018102
 30
0.0
 10
1562.948100
 20
2400.285105
 30
0.0
  0
SPLINE
  5
478
100
AcDbEntity
  8
0
 62
7
100
AcDbSpline
 70
8
 71
3
 72
8
 73
4
 74
0
 40
0
 40
0
 40
0
 40
0
 40
1
 40
1
 40
1
 40
1
 10
1562.948100
 20
2400.285105
 30
0.0
 10
1585.205850
 20
2366.080695
 30
0.0
 10
1618.106700
 20
2333.380080
 30
0.0
 10
1651.706025
 20
2312.067435
 30
0.0
  0
SPLINE
  5
479
100
AcDbEntity
  8
0
 62
7
100
AcDbSpline
 70
8
 71
3
 72
8
 73
4
 74
0
 40
0
 40
0
 40
0
 40
0
 40
1
 40
1
 40
1
 40
1
 10
1651.706025
 20
2312.067435
 30
0.0
 10
1666.923225
 20
2302.414822
 30
0.0
 10
1687.661475
 20
2291.468932
 30
0.0
 10
1689.075900
 20
2292.343087
 30
0.0
  0
SPLINE
  5
47a
100
AcDbEntity
  8
0
 62
7
100
AcDbSpline
 70
8
 71
3
 72
8
 73
4
 74
0
 40
0
 40
0
 40
0
 40
0
 40
1
 40
1
 40
1
 40
1
 10
1689.075900
 20
2292.343087
 30
0.0
 10
1689.501525
 20
2292.606135
 30
0.0
 10
1690.607550
 20
2294.950620
 30
0.0
 10
1691.533800
 20
2297.553037
 30
0.0
  0
SPLINE
  5
47b
100
AcDbEntity
  8
0
 62
7
100
AcDbSpline
 70
8
 71
3
 72
8
 73
4
 74
0
 40
0
 40
0
 40
0
 40
0
 40
1
 40
1
 40
1
 40
1
 10
1691.533800
 20
2297.553037
 30
0.0
 10
1695.508275
 20
2308.719840
 30
0.0
 10
1713.401025
 20
2350.171275
 30
0.0
 10
1714.246725
 20
2350.171275
 30
0.0
  0
SPLINE
  5
47c
100
AcDbEntity
  8
0
 62
7
100
AcDbSpline
 70
8
 71
3
 72
8
 73
4
 74
0
 40
0
 40
0
 40
0
 40
0
 40
1
 40
1
 40
1
 40
1
 10
1714.246725
 20
2350.171275
 30
0.0
 10
1716.511425
 20
2350.171275
 30
0.0
 10
1732.705350
 20
2343.371865
 30
0.0
 10
1733.140275
 20
2342.238330
 30
0.0
  0
SPLINE
  5
47d
100
AcDbEntity
  8
0
 62
7
100
AcDbSpline
 70
8
 71
3
 72
8
 73
4
 74
0
 40
0
 40
0
 40
0
 40
0
 40
1
 40
1
 40
1
 40
1
 10
1733.140275
 20
2342.238330
 30
0.0
 10
1733.406450
 20
2341.544625
 30
0.0
 10
1728.275400
 20
2328.093472
 30
0.0
 10
1721.737725
 20
2312.346847
 30
0.0
  0
SPLINE
  5
47e
100
AcDbEntity
  8
0
 62
7
100
AcDbSpline
 70
8
 71
3
 72
8
 73
4
 74
0
 40
0
 40
0
 40
0
 40
0
 40
1
 40
1
 40
1
 40
1
 10
1721.737725
 20
2312.346847
 30
0.0
 10
1715.189100
 20
2296.573410
 30
0.0
 10
1710.283125
 20
2283.305722
 30
0.0
 10
1710.812850
 20
2282.801617
 30
0.0
  0
SPLINE
  5
47f
100
AcDbEntity
  8
0
 62
7
100
AcDbSpline
 70
8
 71
3
 72
8
 73
4
 74
0
 40
0
 40
0
 40
0
 40
0
 40
1
 40
1
 40
1
 40
1
 10
1710.812850
 20
2282.801617
 30
0.0
 10
1712.773350
 20
2280.935760
 30
0.0
 10
1737.187275
 20
2273.949120
 30
0.0
 10
1753.174275
 20
2270.678857
 30
0.0
  0
SPLINE
  5
480
100
AcDbEntity
  8
0
 62
7
100
AcDbSpline
 70
8
 71
3
 72
8
 73
4
 74
0
 40
0
 40
0
 40
0
 40
0
 40
1
 40
1
 40
1
 40
1
 10
1753.174275
 20
2270.678857
 30
0.0
 10
1775.024175
 20
2266.209270
 30
0.0
 10
1788.304950
 20
2264.977740
 30
0.0
 10
1814.654700
 20
2264.977740
 30
0.0
  0
SPLINE
  5
481
100
AcDbEntity
  8
0
 62
7
100
AcDbSpline
 70
8
 71
3
 72
8
 73
4
 74
0
 40
0
 40
0
 40
0
 40
0
 40
1
 40
1
 40
1
 40
1
 10
1814.654700
 20
2264.977740
 30
0.0
 10
1838.072250
 20
2264.977740
 30
0.0
 10
1847.523825
 20
2265.781867
 30
0.0
 10
1869.076650
 20
2269.607895
 30
0.0
  0
SPLINE
  5
482
100
AcDbEntity
  8
0
 62
7
100
AcDbSpline
 70
8
 71
3
 72
8
 73
4
 74
0
 40
0
 40
0
 40
0
 40
0
 40
1
 40
1
 40
1
 40
1
 10
1869.076650
 20
2269.607895
 30
0.0
 10
1876.579950
 20
2270.939902
 30
0.0
 10
1882.877400
 20
2271.821152
 30
0.0
 10
1883.070675
 20
2271.566235
 30
0.0
  0
SPLINE
  5
483
100
AcDbEntity
  8
0
 62
7
100
AcDbSpline
 70
8
 71
3
 72
8
 73
4
 74
0
 40
0
 40
0
 40
0
 40
0
 40
1
 40
1
 40
1
 40
1
 10
1883.070675
 20
2271.566235
 30
0.0
 10
1883.264025
 20
2271.311325
 30
0.0
 10
1885.485375
 20
2260.578862
 30
0.0
 10
1888.006950
 20
2247.716310
 30
0.0
  0
SPLINE
  5
484
100
AcDbEntity
  8
0
 62
7
100
AcDbSpline
 70
8
 71
3
 72
8
 73
4
 74
0
 40
0
 40
0
 40
0
 40
0
 40
1
 40
1
 40
1
 40
1
 10
1888.006950
 20
2247.716310
 30
0.0
 10
1899.854250
 20
2187.282930
 30
0.0
 10
1909.732200
 20
2137.444380
 30
0.0
 10
1909.904475
 20
2137.234230
 30
0.0
  0
SPLINE
  5
485
100
AcDbEntity
  8
0
 62
7
100
AcDbSpline
 70
8
 71
3
 72
8
 73
4
 74
0
 40
0
 40
0
 40
0
 40
0
 40
1
 40
1
 40
1
 40
1
 10
1909.904475
 20
2137.234230
 30
0.0
 10
1910.158725
 20
2136.924082
 30
0.0
 10
1924.339050
 20
2140.495643
 30
0.0
 10
1936.729650
 20
2143.990582
 30
0.0
  0
SPLINE
  5
486
100
AcDbEntity
  8
0
 62
7
100
AcDbSpline
 70
8
 71
3
 72
8
 73
4
 74
0
 40
0
 40
0
 40
0
 40
0
 40
1
 40
1
 40
1
 40
1
 10
1936.729650
 20
2143.990582
 30
0.0
 10
1945.832250
 20
2146.558087
 30
0.0
 10
1967.597475
 20
2154.057450
 30
0.0
 10
1969.677600
 20
2155.343152
 30
0.0
  0
SPLINE
  5
487
100
AcDbEntity
  8
0
 62
7
100
AcDbSpline
 70
8
 71
3
 72
8
 73
4
 74
0
 40
0
 40
0
 40
0
 40
0
 40
1
 40
1
 40
1
 40
1
 10
1969.677600
 20
2155.343152
 30
0.0
 10
1970.146275
 20
2155.632802
 30
0.0
 10
1968.273825
 20
2161.250557
 30
0.0
 10
1965.516750
 20
2167.826947
 30
0.0
  0
SPLINE
  5
488
100
AcDbEntity
  8
0
 62
7
100
AcDbSpline
 70
8
 71
3
 72
8
 73
4
 74
0
 40
0
 40
0
 40
0
 40
0
 40
1
 40
1
 40
1
 40
1
 10
1965.516750
 20
2167.826947
 30
0.0
 10
1962.759600
 20
2174.403472
 30
0.0
 10
1959.331200
 20
2182.791052
 30
0.0
 10
1957.898025
 20
2186.466060
 30
0.0
  0
SPLINE
  5
489
100
AcDbEntity
  8
0
 62
7
100
AcDbSpline
 70
8
 71
3
 72
8
 73
4
 74
0
 40
0
 40
0
 40
0
 40
0
 40
1
 40
1
 40
1
 40
1
 10
1957.898025
 20
2186.466060
 30
0.0
 10
1956.464775
 20
2190.141082
 30
0.0
 10
1952.960175
 20
2198.584507
 30
0.0
 10
1950.109950
 20
2205.229207
 30
0.0
  0
SPLINE
  5
48a
100
AcDbEntity
  8
0
 62
7
100
AcDbSpline
 70
8
 71
3
 72
8
 73
4
 74
0
 40
0
 40
0
 40
0
 40
0
 40
1
 40
1
 40
1
 40
1
 10
1950.109950
 20
2205.229207
 30
0.0
 10
1947.259800
 20
2211.873930
 30
0.0
 10
1945.164150
 20
2217.926070
 30
0.0
 10
1945.452750
 20
2218.678395
 30
0.0
  0
SPLINE
  5
48b
100
AcDbEntity
  8
0
 62
7
100
AcDbSpline
 70
8
 71
3
 72
8
 73
4
 74
0
 40
0
 40
0
 40
0
 40
0
 40
1
 40
1
 40
1
 40
1
 10
1945.452750
 20
2218.678395
 30
0.0
 10
1945.741425
 20
2219.430742
 30
0.0
 10
1948.407075
 20
2220.963487
 30
0.0
 10
1951.376325
 20
2222.084542
 30
0.0
  0
SPLINE
  5
48c
100
AcDbEntity
  8
0
 62
7
100
AcDbSpline
 70
8
 71
3
 72
8
 73
4
 74
0
 40
0
 40
0
 40
0
 40
0
 40
1
 40
1
 40
1
 40
1
 10
1951.376325
 20
2222.084542
 30
0.0
 10
1964.272800
 20
2226.953460
 30
0.0
 10
1996.441050
 20
2243.211180
 30
0.0
 10
2007.273900
 20
2250.334830
 30
0.0
  0
SPLINE
  5
48d
100
AcDbEntity
  8
0
 62
7
100
AcDbSpline
 70
8
 71
3
 72
8
 73
4
 74
0
 40
0
 40
0
 40
0
 40
0
 40
1
 40
1
 40
1
 40
1
 10
2007.273900
 20
2250.334830
 30
0.0
 10
2008.422000
 20
2251.089825
 30
0.0
 10
2004.801225
 20
2257.278075
 30
0.0
 10
1991.787450
 20
2276.802472
 30
0.0
  0
SPLINE
  5
48e
100
AcDbEntity
  8
0
 62
7
100
AcDbSpline
 70
8
 71
3
 72
8
 73
4
 74
0
 40
0
 40
0
 40
0
 40
0
 40
1
 40
1
 40
1
 40
1
 10
1991.787450
 20
2276.802472
 30
0.0
 10
1982.445675
 20
2290.818270
 30
0.0
 10
1974.612600
 20
2303.036992
 30
0.0
 10
1974.380625
 20
2303.955750
 30
0.0
  0
SPLINE
  5
48f
100
AcDbEntity
  8
0
 62
7
100
AcDbSpline
 70
8
 71
3
 72
8
 73
4
 74
0
 40
0
 40
0
 40
0
 40
0
 40
1
 40
1
 40
1
 40
1
 10
1974.380625
 20
2303.955750
 30
0.0
 10
1974.109650
 20
2305.028655
 30
0.0
 10
1976.860800
 20
2307.542497
 30
0.0
 10
1982.071500
 20
2310.983055
 30
0.0
  0
SPLINE
  5
490
100
AcDbEntity
  8
0
 62
7
100
AcDbSpline
 70
8
 71
3
 72
8
 73
4
 74
0
 40
0
 40
0
 40
0
 40
0
 40
1
 40
1
 40
1
 40
1
 10
1982.071500
 20
2310.983055
 30
0.0
 10
1986.533625
 20
2313.929317
 30
0.0
 10
1990.562325
 20
2316.435007
 30
0.0
 10
1991.024025
 20
2316.551265
 30
0.0
  0
SPLINE
  5
491
100
AcDbEntity
  8
0
 62
7
100
AcDbSpline
 70
8
 71
3
 72
8
 73
4
 74
0
 40
0
 40
0
 40
0
 40
0
 40
1
 40
1
 40
1
 40
1
 10
1991.024025
 20
2316.551265
 30
0.0
 10
1992.212100
 20
2316.850350
 30
0.0
 10
2039.702850
 20
2245.771275
 30
0.0
 10
2039.035875
 20
2244.692145
 30
0.0
  0
SPLINE
  5
492
100
AcDbEntity
  8
0
 62
7
100
AcDbSpline
 70
8
 71
3
 72
8
 73
4
 74
0
 40
0
 40
0
 40
0
 40
0
 40
1
 40
1
 40
1
 40
1
 10
2039.035875
 20
2244.692145
 30
0.0
 10
2037.132000
 20
2241.611625
 30
0.0
 10
2005.774575
 20
2223.026032
 30
0.0
 10
1987.199400
 20
2213.968560
 30
0.0
  0
SPLINE
  5
493
100
AcDbEntity
  8
0
 62
7
100
AcDbSpline
 70
8
 71
3
 72
8
 73
4
 74
0
 40
0
 40
0
 40
0
 40
0
 40
1
 40
1
 40
1
 40
1
 10
1987.199400
 20
2213.968560
 30
0.0
 10
1980.045000
 20
2210.480055
 30
0.0
 10
1974.156675
 20
2207.176537
 30
0.0
 10
1974.114150
 20
2206.627432
 30
0.0
  0
SPLINE
  5
494
100
AcDbEntity
  8
0
 62
7
100
AcDbSpline
 70
8
 71
3
 72
8
 73
4
 74
0
 40
0
 40
0
 40
0
 40
0
 40
1
 40
1
 40
1
 40
1
 10
1974.114150
 20
2206.627432
 30
0.0
 10
1974.036450
 20
2205.628455
 30
0.0
 10
1993.303425
 20
2158.388077
 30
0.0
 10
1997.450700
 20
2149.408230
 30
0.0
  0
SPLINE
  5
495
100
AcDbEntity
  8
0
 62
7
100
AcDbSpline
 70
8
 71
3
 72
8
 73
4
 74
0
 40
0
 40
0
 40
0
 40
0
 40
1
 40
1
 40
1
 40
1
 10
1997.450700
 20
2149.408230
 30
0.0
 10
2000.311125
 20
2143.214722
 30
0.0
 10
2000.283675
 20
2143.063935
 30
0.0
 10
1996.031100
 20
2141.637360
 30
0.0
  0
SPLINE
  5
496
100
AcDbEntity
  8
0
 62
7
100
AcDbSpline
 70
8
 71
3
 72
8
 73
4
 74
0
 40
0
 40
0
 40
0
 40
0
 40
1
 40
1
 40
1
 40
1
 10
1996.031100
 20
2141.637360
 30
0.0
 10
1994.040450
 20
2140.969627
 30
0.0
 10
1987.400325
 20
2138.362035
 30
0.0
 10
1981.275225
 20
2135.842755
 30
0.0
  0
SPLINE
  5
497
100
AcDbEntity
  8
0
 62
7
100
AcDbSpline
 70
8
 71
3
 72
8
 73
4
 74
0
 40
0
 40
0
 40
0
 40
0
 40
1
 40
1
 40
1
 40
1
 10
1981.275225
 20
2135.842755
 30
0.0
 10
1967.941950
 20
2130.358522
 30
0.0
 10
1944.766125
 20
2122.844565
 30
0.0
 10
1927.542225
 20
2118.421620
 30
0.0
  0
SPLINE
  5
498
100
AcDbEntity
  8
0
 62
7
100
AcDbSpline
 70
8
 71
3
 72
8
 73
4
 74
0
 40
0
 40
0
 40
0
 40
0
 40
1
 40
1
 40
1
 40
1
 10
1927.542225
 20
2118.421620
 30
0.0
 10
1917.165675
 20
2115.756900
 30
0.0
 10
1915.013700
 20
2114.844832
 30
0.0
 10
1915.013700
 20
2113.111455
 30
0.0
  0
SPLINE
  5
499
100
AcDbEntity
  8
0
 62
7
100
AcDbSpline
 70
8
 71
3
 72
8
 73
4
 74
0
 40
0
 40
0
 40
0
 40
0
 40
1
 40
1
 40
1
 40
1
 10
1915.013700
 20
2113.111455
 30
0.0
 10
1915.013700
 20
2111.960400
 30
0.0
 10
1918.026525
 20
2095.921627
 30
0.0
 10
1921.708875
 20
2077.469595
 30
0.0
  0
SPLINE
  5
49a
100
AcDbEntity
  8
0
 62
7
100
AcDbSpline
 70
8
 71
3
 72
8
 73
4
 74
0
 40
0
 40
0
 40
0
 40
0
 40
1
 40
1
 40
1
 40
1
 10
1921.708875
 20
2077.469595
 30
0.0
 10
1925.391300
 20
2059.017682
 30
0.0
 10
1930.233150
 20
2034.649552
 30
0.0
 10
1932.468675
 20
2023.318260
 30
0.0
  0
SPLINE
  5
49b
100
AcDbEntity
  8
0
 62
7
100
AcDbSpline
 70
8
 71
3
 72
8
 73
4
 74
0
 40
0
 40
0
 40
0
 40
0
 40
1
 40
1
 40
1
 40
1
 10
1932.468675
 20
2023.318260
 30
0.0
 10
1934.704275
 20
2011.986967
 30
0.0
 10
1936.695825
 20
2002.514107
 30
0.0
 10
1936.894275
 20
2002.267447
 30
0.0
  0
SPLINE
  5
49c
100
AcDbEntity
  8
0
 62
7
100
AcDbSpline
 70
8
 71
3
 72
8
 73
4
 74
0
 40
0
 40
0
 40
0
 40
0
 40
1
 40
1
 40
1
 40
1
 10
1936.894275
 20
2002.267447
 30
0.0
 10
1937.401050
 20
2001.638017
 30
0.0
 10
1952.112075
 20
2005.115917
 30
0.0
 10
1967.911575
 20
2009.600437
 30
0.0
  0
SPLINE
  5
49d
100
AcDbEntity
  8
0
 62
7
100
AcDbSpline
 70
8
 71
3
 72
8
 73
4
 74
0
 40
0
 40
0
 40
0
 40
0
 40
1
 40
1
 40
1
 40
1
 10
1967.911575
 20
2009.600437
 30
0.0
 10
1993.129725
 20
2016.758362
 30
0.0
 10
2016.329325
 20
2024.851845
 30
0.0
 10
2036.957400
 20
2033.687925
 30
0.0
  0
SPLINE
  5
49e
100
AcDbEntity
  8
0
 62
7
100
AcDbSpline
 70
8
 71
3
 72
8
 73
4
 74
0
 40
0
 40
0
 40
0
 40
0
 40
1
 40
1
 40
1
 40
1
 10
2036.957400
 20
2033.687925
 30
0.0
 10
2059.787550
 20
2043.467250
 30
0.0
 10
2065.784025
 20
2046.261937
 30
0.0
 10
2079.627150
 20
2053.574220
 30
0.0
  0
SPLINE
  5
49f
100
AcDbEntity
  8
0
 62
7
100
AcDbSpline
 70
8
 71
3
 72
8
 73
4
 74
0
 40
0
 40
0
 40
0
 40
0
 40
1
 40
1
 40
1
 40
1
 10
2079.627150
 20
2053.574220
 30
0.0
 10
2087.783175
 20
2057.882325
 30
0.0
 10
2094.626250
 20
2061.231165
 30
0.0
 10
2094.834450
 20
2061.016215
 30
0.0
  0
SPLINE
  5
4a0
100
AcDbEntity
  8
0
 62
7
100
AcDbSpline
 70
8
 71
3
 72
8
 73
4
 74
0
 40
0
 40
0
 40
0
 40
0
 40
1
 40
1
 40
1
 40
1
 10
2094.834450
 20
2061.016215
 30
0.0
 10
2096.026725
 20
2059.784310
 30
0.0
 10
2104.303950
 20
2043.700110
 30
0.0
 10
2104.316850
 20
2042.589592
 30
0.0
  0
SPLINE
  5
4a1
100
AcDbEntity
  8
0
 62
7
100
AcDbSpline
 70
8
 71
3
 72
8
 73
4
 74
0
 40
0
 40
0
 40
0
 40
0
 40
1
 40
1
 40
1
 40
1
 10
2104.316850
 20
2042.589592
 30
0.0
 10
2104.334850
 20
2041.046310
 30
0.0
 10
2091.813375
 20
2034.324382
 30
0.0
 10
2068.139175
 20
2023.168590
 30
0.0
  0
SPLINE
  5
4a2
100
AcDbEntity
  8
0
 62
7
100
AcDbSpline
 70
8
 71
3
 72
8
 73
4
 74
0
 40
0
 40
0
 40
0
 40
0
 40
1
 40
1
 40
1
 40
1
 10
2068.139175
 20
2023.168590
 30
0.0
 10
2026.462725
 20
2003.529525
 30
0.0
 10
1991.937900
 20
1991.731612
 30
0.0
 10
1941.741075
 20
1979.975250
 30
0.0
  0
SPLINE
  5
4a3
100
AcDbEntity
  8
0
 62
7
100
AcDbSpline
 70
8
 71
3
 72
8
 73
4
 74
0
 40
0
 40
0
 40
0
 40
0
 40
1
 40
1
 40
1
 40
1
 10
1941.741075
 20
1979.975250
 30
0.0
 10
1927.689900
 20
1976.684437
 30
0.0
 10
1894.405875
 20
1971.244635
 30
0.0
 10
1876.036125
 20
1969.236750
 30
0.0
  0
SPLINE
  5
4a4
100
AcDbEntity
  8
0
 62
7
100
AcDbSpline
 70
8
 71
3
 72
8
 73
4
 74
0
 40
0
 40
0
 40
0
 40
0
 40
1
 40
1
 40
1
 40
1
 10
1876.036125
 20
1969.236750
 30
0.0
 10
1844.488725
 20
1965.788580
 30
0.0
 10
1781.569950
 20
1965.927442
 30
0.0
 10
1750.342725
 20
1969.514257
 30
0.0
  0
LWPOLYLINE
  5
4a5
100
AcDbEntity
  8
0
 62
7
100
AcDbPolyline
 90
3
 70
0
 10
1593.930900
 20
2495.410477
 30
0.0
 10
1597.069200
 20
2485.853617
 30
0.0
 10
1618.103850
 20
2494.543491
 30
0.0
  0
SPLINE
  5
4a6
100
AcDbEntity
  8
0
 62
7
100
AcDbSpline
 70
8
 71
3
 72
8
 73
4
 74
0
 40
0
 40
0
 40
0
 40
0
 40
1
 40
1
 40
1
 40
1
 10
1745.141775
 20
1980.333285
 30
0.0
 10
1745.568675
 20
1985.906287
 30
0.0
 10
1746.304425
 20
1990.867432
 30
0.0
 10
1746.777000
 20
1991.358210
 30
0.0
  0
SPLINE
  5
4a7
100
AcDbEntity
  8
0
 62
7
100
AcDbSpline
 70
8
 71
3
 72
8
 73
4
 74
0
 40
0
 40
0
 40
0
 40
0
 40
1
 40
1
 40
1
 40
1
 10
1746.777000
 20
1991.358210
 30
0.0
 10
1747.249650
 20
1991.848995
 30
0.0
 10
1752.597000
 20
1991.694975
 30
0.0
 10
1758.659925
 20
1991.015992
 30
0.0
  0
SPLINE
  5
4a8
100
AcDbEntity
  8
0
 62
7
100
AcDbSpline
 70
8
 71
3
 72
8
 73
4
 74
0
 40
0
 40
0
 40
0
 40
0
 40
1
 40
1
 40
1
 40
1
 10
1758.659925
 20
1991.015992
 30
0.0
 10
1776.430050
 20
1989.026032
 30
0.0
 10
1830.776625
 20
1988.331892
 30
0.0
 10
1852.093050
 20
1989.822615
 30
0.0
  0
SPLINE
  5
4a9
100
AcDbEntity
  8
0
 62
7
100
AcDbSpline
 70
8
 71
3
 72
8
 73
4
 74
0
 40
0
 40
0
 40
0
 40
0
 40
1
 40
1
 40
1
 40
1
 10
1852.093050
 20
1989.822615
 30
0.0
 10
1876.111875
 20
1991.502435
 30
0.0
 10
1912.794675
 20
1996.227937
 30
0.0
 10
1914.418200
 20
1997.851522
 30
0.0
  0
SPLINE
  5
4aa
100
AcDbEntity
  8
0
 62
7
100
AcDbSpline
 70
8
 71
3
 72
8
 73
4
 74
0
 40
0
 40
0
 40
0
 40
0
 40
1
 40
1
 40
1
 40
1
 10
1914.418200
 20
1997.851522
 30
0.0
 10
1914.646725
 20
1998.079927
 30
0.0
 10
1912.131525
 20
2011.796310
 30
0.0
 10
1908.829125
 20
2028.332430
 30
0.0
  0
SPLINE
  5
4ab
100
AcDbEntity
  8
0
 62
7
100
AcDbSpline
 70
8
 71
3
 72
8
 73
4
 74
0
 40
0
 40
0
 40
0
 40
0
 40
1
 40
1
 40
1
 40
1
 10
1908.829125
 20
2028.332430
 30
0.0
 10
1905.526650
 20
2044.868430
 30
0.0
 10
1902.607050
 20
2059.650787
 30
0.0
 10
1902.340800
 20
2061.182055
 30
0.0
  0
SPLINE
  5
4ac
100
AcDbEntity
  8
0
 62
7
100
AcDbSpline
 70
8
 71
3
 72
8
 73
4
 74
0
 40
0
 40
0
 40
0
 40
0
 40
1
 40
1
 40
1
 40
1
 10
1902.340800
 20
2061.182055
 30
0.0
 10
1899.660825
 20
2076.606300
 30
0.0
 10
1865.638950
 20
2244.572160
 30
0.0
 10
1865.074500
 20
2245.165267
 30
0.0
  0
SPLINE
  5
4ad
100
AcDbEntity
  8
0
 62
7
100
AcDbSpline
 70
8
 71
3
 72
8
 73
4
 74
0
 40
0
 40
0
 40
0
 40
0
 40
1
 40
1
 40
1
 40
1
 10
1865.074500
 20
2245.165267
 30
0.0
 10
1864.661625
 20
2245.599360
 30
0.0
 10
1860.820050
 20
2245.450050
 30
0.0
 10
1856.537775
 20
2244.833415
 30
0.0
  0
SPLINE
  5
4ae
100
AcDbEntity
  8
0
 62
7
100
AcDbSpline
 70
8
 71
3
 72
8
 73
4
 74
0
 40
0
 40
0
 40
0
 40
0
 40
1
 40
1
 40
1
 40
1
 10
1856.537775
 20
2244.833415
 30
0.0
 10
1833.027750
 20
2241.448012
 30
0.0
 10
1791.419850
 20
2241.754447
 30
0.0
 10
1766.342625
 20
2245.497682
 30
0.0
  0
SPLINE
  5
4af
100
AcDbEntity
  8
0
 62
7
100
AcDbSpline
 70
8
 71
3
 72
8
 73
4
 74
0
 40
0
 40
0
 40
0
 40
0
 40
1
 40
1
 40
1
 40
1
 10
1766.342625
 20
2245.497682
 30
0.0
 10
1750.673850
 20
2247.836565
 30
0.0
 10
1730.164950
 20
2252.695065
 30
0.0
 10
1714.821900
 20
2257.702852
 30
0.0
  0
SPLINE
  5
4b0
100
AcDbEntity
  8
0
 62
7
100
AcDbSpline
 70
8
 71
3
 72
8
 73
4
 74
0
 40
0
 40
0
 40
0
 40
0
 40
1
 40
1
 40
1
 40
1
 10
1714.821900
 20
2257.702852
 30
0.0
 10
1708.191750
 20
2259.866850
 30
0.0
 10
1702.271025
 20
2261.637397
 30
0.0
 10
1701.664500
 20
2261.637397
 30
0.0
  0
SPLINE
  5
4b1
100
AcDbEntity
  8
0
 62
7
100
AcDbSpline
 70
8
 71
3
 72
8
 73
4
 74
0
 40
0
 40
0
 40
0
 40
0
 40
1
 40
1
 40
1
 40
1
 10
1701.664500
 20
2261.637397
 30
0.0
 10
1701.058050
 20
2261.637397
 30
0.0
 10
1699.228800
 20
2258.254710
 30
0.0
 10
1697.599500
 20
2254.120320
 30
0.0
  0
SPLINE
  5
4b2
100
AcDbEntity
  8
0
 62
7
100
AcDbSpline
 70
8
 71
3
 72
8
 73
4
 74
0
 40
0
 40
0
 40
0
 40
0
 40
1
 40
1
 40
1
 40
1
 10
1697.599500
 20
2254.120320
 30
0.0
 10
1694.022975
 20
2245.044585
 30
0.0
 10
1676.568825
 20
2203.300605
 30
0.0
 10
1676.164575
 20
2202.855660
 30
0.0
  0
SPLINE
  5
4b3
100
AcDbEntity
  8
0
 62
7
100
AcDbSpline
 70
8
 71
3
 72
8
 73
4
 74
0
 40
0
 40
0
 40
0
 40
0
 40
1
 40
1
 40
1
 40
1
 10
1676.164575
 20
2202.855660
 30
0.0
 10
1676.006850
 20
2202.682087
 30
0.0
 10
1671.340275
 20
2204.392657
 30
0.0
 10
1665.794550
 20
2206.656930
 30
0.0
  0
LWPOLYLINE
  5
4b4
100
AcDbEntity
  8
0
 62
7
100
AcDbPolyline
 90
3
 70
0
 10
1750.342725
 20
1969.514257
 30
0.0
 10
1744.365750
 20
1970.200830
 30
0.0
 10
1745.141775
 20
1980.333285
 30
0.0
  0
SPLINE
  5
4b5
100
AcDbEntity
  8
0
 62
7
100
AcDbSpline
 70
8
 71
3
 72
8
 73
4
 74
0
 40
0
 40
0
 40
0
 40
0
 40
1
 40
1
 40
1
 40
1
 10
1657.923375
 20
2216.438482
 30
0.0
 10
1659.140025
 20
2219.554057
 30
0.0
 10
1661.814900
 20
2226.112245
 30
0.0
 10
1663.867575
 20
2231.012272
 30
0.0
  0
SPLINE
  5
4b6
100
AcDbEntity
  8
0
 62
7
100
AcDbSpline
 70
8
 71
3
 72
8
 73
4
 74
0
 40
0
 40
0
 40
0
 40
0
 40
1
 40
1
 40
1
 40
1
 10
1663.867575
 20
2231.012272
 30
0.0
 10
1665.920325
 20
2235.912285
 30
0.0
 10
1670.397825
 20
2246.599590
 30
0.0
 10
1673.817750
 20
2254.761810
 30
0.0
  0
SPLINE
  5
4b7
100
AcDbEntity
  8
0
 62
7
100
AcDbSpline
 70
8
 71
3
 72
8
 73
4
 74
0
 40
0
 40
0
 40
0
 40
0
 40
1
 40
1
 40
1
 40
1
 10
1673.817750
 20
2254.761810
 30
0.0
 10
1677.237450
 20
2262.924030
 30
0.0
 10
1680.035475
 20
2270.010847
 30
0.0
 10
1680.035475
 20
2270.510272
 30
0.0
  0
SPLINE
  5
4b8
100
AcDbEntity
  8
0
 62
7
100
AcDbSpline
 70
8
 71
3
 72
8
 73
4
 74
0
 40
0
 40
0
 40
0
 40
0
 40
1
 40
1
 40
1
 40
1
 10
1680.035475
 20
2270.510272
 30
0.0
 10
1680.035475
 20
2271.009697
 30
0.0
 10
1678.000050
 20
2272.232707
 30
0.0
 10
1675.512450
 20
2273.228055
 30
0.0
  0
SPLINE
  5
4b9
100
AcDbEntity
  8
0
 62
7
100
AcDbSpline
 70
8
 71
3
 72
8
 73
4
 74
0
 40
0
 40
0
 40
0
 40
0
 40
1
 40
1
 40
1
 40
1
 10
1675.512450
 20
2273.228055
 30
0.0
 10
1662.333000
 20
2278.501432
 30
0.0
 10
1634.119350
 20
2296.016452
 30
0.0
 10
1615.444350
 20
2310.518325
 30
0.0
  0
SPLINE
  5
4ba
100
AcDbEntity
  8
0
 62
7
100
AcDbSpline
 70
8
 71
3
 72
8
 73
4
 74
0
 40
0
 40
0
 40
0
 40
0
 40
1
 40
1
 40
1
 40
1
 10
1615.444350
 20
2310.518325
 30
0.0
 10
1599.674625
 20
2322.764077
 30
0.0
 10
1575.028800
 20
2346.715185
 30
0.0
 10
1565.330475
 20
2359.219305
 30
0.0
  0
SPLINE
  5
4bb
100
AcDbEntity
  8
0
 62
7
100
AcDbSpline
 70
8
 71
3
 72
8
 73
4
 74
0
 40
0
 40
0
 40
0
 40
0
 40
1
 40
1
 40
1
 40
1
 10
1565.330475
 20
2359.219305
 30
0.0
 10
1564.411725
 20
2360.403877
 30
0.0
 10
1561.872525
 20
2363.613615
 30
0.0
 10
1559.687700
 20
2366.352045
 30
0.0
  0
SPLINE
  5
4bc
100
AcDbEntity
  8
0
 62
7
100
AcDbSpline
 70
8
 71
3
 72
8
 73
4
 74
0
 40
0
 40
0
 40
0
 40
0
 40
1
 40
1
 40
1
 40
1
 10
1559.687700
 20
2366.352045
 30
0.0
 10
1548.136350
 20
2380.830697
 30
0.0
 10
1530.060225
 20
2410.111170
 30
0.0
 10
1524.129675
 20
2423.950545
 30
0.0
  0
SPLINE
  5
4bd
100
AcDbEntity
  8
0
 62
7
100
AcDbSpline
 70
8
 71
3
 72
8
 73
4
 74
0
 40
0
 40
0
 40
0
 40
0
 40
1
 40
1
 40
1
 40
1
 10
1524.129675
 20
2423.950545
 30
0.0
 10
1522.751700
 20
2427.166192
 30
0.0
 10
1521.267675
 20
2429.797155
 30
0.0
 10
1520.831925
 20
2429.797155
 30
0.0
  0
SPLINE
  5
4be
100
AcDbEntity
  8
0
 62
7
100
AcDbSpline
 70
8
 71
3
 72
8
 73
4
 74
0
 40
0
 40
0
 40
0
 40
0
 40
1
 40
1
 40
1
 40
1
 10
1520.831925
 20
2429.797155
 30
0.0
 10
1520.396100
 20
2429.797155
 30
0.0
 10
1507.804125
 20
2424.732052
 30
0.0
 10
1492.849650
 20
2418.541350
 30
0.0
  0
SPLINE
  5
4bf
100
AcDbEntity
  8
0
 62
7
100
AcDbSpline
 70
8
 71
3
 72
8
 73
4
 74
0
 40
0
 40
0
 40
0
 40
0
 40
1
 40
1
 40
1
 40
1
 10
1492.849650
 20
2418.541350
 30
0.0
 10
1477.895175
 20
2412.350647
 30
0.0
 10
1458.643650
 20
2404.396852
 30
0.0
 10
1450.068675
 20
2400.866242
 30
0.0
  0
SPLINE
  5
4c0
100
AcDbEntity
  8
0
 62
7
100
AcDbSpline
 70
8
 71
3
 72
8
 73
4
 74
0
 40
0
 40
0
 40
0
 40
0
 40
1
 40
1
 40
1
 40
1
 10
1450.068675
 20
2400.866242
 30
0.0
 10
1441.493700
 20
2397.335632
 30
0.0
 10
1428.213450
 20
2391.837007
 30
0.0
 10
1420.557075
 20
2388.647077
 30
0.0
  0
SPLINE
  5
4c1
100
AcDbEntity
  8
0
 62
7
100
AcDbSpline
 70
8
 71
3
 72
8
 73
4
 74
0
 40
0
 40
0
 40
0
 40
0
 40
1
 40
1
 40
1
 40
1
 10
1420.557075
 20
2388.647077
 30
0.0
 10
1401.541950
 20
2380.724602
 30
0.0
 10
1398.015825
 20
2379.501892
 30
0.0
 10
1397.052750
 20
2380.496985
 30
0.0
  0
SPLINE
  5
4c2
100
AcDbEntity
  8
0
 62
7
100
AcDbSpline
 70
8
 71
3
 72
8
 73
4
 74
0
 40
0
 40
0
 40
0
 40
0
 40
1
 40
1
 40
1
 40
1
 10
1397.052750
 20
2380.496985
 30
0.0
 10
1395.275775
 20
2382.332767
 30
0.0
 10
1389.314925
 20
2398.997040
 30
0.0
 10
1390.155375
 20
2399.779515
 30
0.0
  0
SPLINE
  5
4c3
100
AcDbEntity
  8
0
 62
7
100
AcDbSpline
 70
8
 71
3
 72
8
 73
4
 74
0
 40
0
 40
0
 40
0
 40
0
 40
1
 40
1
 40
1
 40
1
 10
1390.155375
 20
2399.779515
 30
0.0
 10
1390.925850
 20
2400.496957
 30
0.0
 10
1416.814575
 20
2411.324685
 30
0.0
 10
1477.909725
 20
2436.482092
 30
0.0
  0
SPLINE
  5
4c4
100
AcDbEntity
  8
0
 62
7
100
AcDbSpline
 70
8
 71
3
 72
8
 73
4
 74
0
 40
0
 40
0
 40
0
 40
0
 40
1
 40
1
 40
1
 40
1
 10
1477.909725
 20
2436.482092
 30
0.0
 10
1490.554650
 20
2441.688960
 30
0.0
 10
1544.064150
 20
2463.870345
 30
0.0
 10
1570.510425
 20
2474.867992
 30
0.0
  0
LWPOLYLINE
  5
4c5
100
AcDbEntity
  8
0
 62
7
100
AcDbPolyline
 90
3
 70
0
 10
1665.794550
 20
2206.656930
 30
0.0
 10
1655.711400
 20
2210.773822
 30
0.0
 10
1657.923375
 20
2216.438482
 30
0.0
  0
SPLINE
  5
4c6
100
AcDbEntity
  8
0
 62
7
100
AcDbSpline
 70
8
 71
3
 72
8
 73
4
 74
0
 40
0
 40
0
 40
0
 40
0
 40
1
 40
1
 40
1
 40
1
 10
1572.999000
 20
2487.213013
 30
0.0
 10
1568.515125
 20
2500.961987
 30
0.0
 10
1563.412425
 20
2526.733555
 30
0.0
 10
1561.876200
 20
2543.388531
 30
0.0
  0
SPLINE
  5
4c7
100
AcDbEntity
  8
0
 62
7
100
AcDbSpline
 70
8
 71
3
 72
8
 73
4
 74
0
 40
0
 40
0
 40
0
 40
0
 40
1
 40
1
 40
1
 40
1
 10
1561.876200
 20
2543.388531
 30
0.0
 10
1559.803575
 20
2565.857896
 30
0.0
 10
1562.217075
 20
2598.058218
 30
0.0
 10
1567.710675
 20
2621.232321
 30
0.0
  0
SPLINE
  5
4c8
100
AcDbEntity
  8
0
 62
7
100
AcDbSpline
 70
8
 71
3
 72
8
 73
4
 74
0
 40
0
 40
0
 40
0
 40
0
 40
1
 40
1
 40
1
 40
1
 10
1567.710675
 20
2621.232321
 30
0.0
 10
1576.425825
 20
2657.996955
 30
0.0
 10
1594.863225
 20
2695.071405
 30
0.0
 10
1618.717125
 20
2723.798347
 30
0.0
  0
SPLINE
  5
4c9
100
AcDbEntity
  8
0
 62
7
100
AcDbSpline
 70
8
 71
3
 72
8
 73
4
 74
0
 40
0
 40
0
 40
0
 40
0
 40
1
 40
1
 40
1
 40
1
 10
1618.717125
 20
2723.798347
 30
0.0
 10
1623.040350
 20
2729.004615
 30
0.0
 10
1626.452850
 20
2733.628777
 30
0.0
 10
1626.300675
 20
2734.074247
 30
0.0
  0
SPLINE
  5
4ca
100
AcDbEntity
  8
0
 62
7
100
AcDbSpline
 70
8
 71
3
 72
8
 73
4
 74
0
 40
0
 40
0
 40
0
 40
0
 40
1
 40
1
 40
1
 40
1
 10
1626.300675
 20
2734.074247
 30
0.0
 10
1625.889000
 20
2735.278642
 30
0.0
 10
1595.093775
 20
2766.116692
 30
0.0
 10
1594.302600
 20
2766.116692
 30
0.0
  0
SPLINE
  5
4cb
100
AcDbEntity
  8
0
 62
7
100
AcDbSpline
 70
8
 71
3
 72
8
 73
4
 74
0
 40
0
 40
0
 40
0
 40
0
 40
1
 40
1
 40
1
 40
1
 10
1594.302600
 20
2766.116692
 30
0.0
 10
1592.459175
 20
2766.116692
 30
0.0
 10
1580.268300
 20
2751.409642
 30
0.0
 10
1569.378300
 20
2736.048390
 30
0.0
  0
SPLINE
  5
4cc
100
AcDbEntity
  8
0
 62
7
100
AcDbSpline
 70
8
 71
3
 72
8
 73
4
 74
0
 40
0
 40
0
 40
0
 40
0
 40
1
 40
1
 40
1
 40
1
 10
1569.378300
 20
2736.048390
 30
0.0
 10
1565.253225
 20
2730.229620
 30
0.0
 10
1561.026225
 20
2724.354525
 30
0.0
 10
1559.985000
 20
2722.992630
 30
0.0
  0
LWPOLYLINE
  5
4cd
100
AcDbEntity
  8
0
 62
7
100
AcDbPolyline
 90
3
 70
0
 10
1570.510425
 20
2474.867992
 30
0.0
 10
1576.247025
 20
2477.253600
 30
0.0
 10
1572.999000
 20
2487.213013
 30
0.0
  0
SPLINE
  5
4ce
100
AcDbEntity
  8
0
 62
7
100
AcDbSpline
 70
8
 71
3
 72
8
 73
4
 74
0
 40
0
 40
0
 40
0
 40
0
 40
1
 40
1
 40
1
 40
1
 10
1549.486875
 20
2726.333557
 30
0.0
 10
1544.754225
 20
2729.532960
 30
0.0
 10
1540.870425
 20
2732.569882
 30
0.0
 10
1540.856175
 20
2733.082282
 30
0.0
  0
SPLINE
  5
4cf
100
AcDbEntity
  8
0
 62
7
100
AcDbSpline
 70
8
 71
3
 72
8
 73
4
 74
0
 40
0
 40
0
 40
0
 40
0
 40
1
 40
1
 40
1
 40
1
 10
1540.856175
 20
2733.082282
 30
0.0
 10
1540.826175
 20
2734.157587
 30
0.0
 10
1550.135325
 20
2747.993715
 30
0.0
 10
1557.462375
 20
2757.764385
 30
0.0
  0
SPLINE
  5
4d0
100
AcDbEntity
  8
0
 62
7
100
AcDbSpline
 70
8
 71
3
 72
8
 73
4
 74
0
 40
0
 40
0
 40
0
 40
0
 40
1
 40
1
 40
1
 40
1
 10
1557.462375
 20
2757.764385
 30
0.0
 10
1573.304625
 20
2778.890460
 30
0.0
 10
1598.012550
 20
2803.593052
 30
0.0
 10
1619.342025
 20
2819.630752
 30
0.0
  0
SPLINE
  5
4d1
100
AcDbEntity
  8
0
 62
7
100
AcDbSpline
 70
8
 71
3
 72
8
 73
4
 74
0
 40
0
 40
0
 40
0
 40
0
 40
1
 40
1
 40
1
 40
1
 10
1619.342025
 20
2819.630752
 30
0.0
 10
1628.999400
 20
2826.892110
 30
0.0
 10
1642.939200
 20
2836.279875
 30
0.0
 10
1644.024150
 20
2836.252890
 30
0.0
  0
SPLINE
  5
4d2
100
AcDbEntity
  8
0
 62
7
100
AcDbSpline
 70
8
 71
3
 72
8
 73
4
 74
0
 40
0
 40
0
 40
0
 40
0
 40
1
 40
1
 40
1
 40
1
 10
1644.024150
 20
2836.252890
 30
0.0
 10
1644.536475
 20
2836.240215
 30
0.0
 10
1647.101850
 20
2832.963195
 30
0.0
 10
1649.724750
 20
2828.970765
 30
0.0
  0
SPLINE
  5
4d3
100
AcDbEntity
  8
0
 62
7
100
AcDbSpline
 70
8
 71
3
 72
8
 73
4
 74
0
 40
0
 40
0
 40
0
 40
0
 40
1
 40
1
 40
1
 40
1
 10
1649.724750
 20
2828.970765
 30
0.0
 10
1652.347725
 20
2824.978342
 30
0.0
 10
1654.893300
 20
2821.958700
 30
0.0
 10
1655.381475
 20
2822.260455
 30
0.0
  0
SPLINE
  5
4d4
100
AcDbEntity
  8
0
 62
7
100
AcDbSpline
 70
8
 71
3
 72
8
 73
4
 74
0
 40
0
 40
0
 40
0
 40
0
 40
1
 40
1
 40
1
 40
1
 10
1655.381475
 20
2822.260455
 30
0.0
 10
1655.869800
 20
2822.562180
 30
0.0
 10
1656.189000
 20
2821.720065
 30
0.0
 10
1656.090975
 20
2820.389070
 30
0.0
  0
SPLINE
  5
4d5
100
AcDbEntity
  8
0
 62
7
100
AcDbSpline
 70
8
 71
3
 72
8
 73
4
 74
0
 40
0
 40
0
 40
0
 40
0
 40
1
 40
1
 40
1
 40
1
 10
1656.090975
 20
2820.389070
 30
0.0
 10
1655.967825
 20
2818.717897
 30
0.0
 10
1653.351150
 20
2816.235480
 30
0.0
 10
1647.635325
 20
2812.366822
 30
0.0
  0
SPLINE
  5
4d6
100
AcDbEntity
  8
0
 62
7
100
AcDbSpline
 70
8
 71
3
 72
8
 73
4
 74
0
 40
0
 40
0
 40
0
 40
0
 40
1
 40
1
 40
1
 40
1
 10
1647.635325
 20
2812.366822
 30
0.0
 10
1637.605425
 20
2805.578505
 30
0.0
 10
1623.558300
 20
2794.739535
 30
0.0
 10
1616.001075
 20
2787.957502
 30
0.0
  0
LWPOLYLINE
  5
4d7
100
AcDbEntity
  8
0
 62
7
100
AcDbPolyline
 90
3
 70
0
 10
1559.985000
 20
2722.992630
 30
0.0
 10
1558.091775
 20
2720.516475
 30
0.0
 10
1549.486875
 20
2726.333557
 30
0.0
  0
SPLINE
  5
4d8
100
AcDbEntity
  8
0
 62
7
100
AcDbSpline
 70
8
 71
3
 72
8
 73
4
 74
0
 40
0
 40
0
 40
0
 40
0
 40
1
 40
1
 40
1
 40
1
 10
1626.566250
 20
2766.743070
 30
0.0
 10
1635.439650
 20
2757.823537
 30
0.0
 10
1642.956825
 20
2750.526412
 30
0.0
 10
1643.270850
 20
2750.527267
 30
0.0
  0
SPLINE
  5
4d9
100
AcDbEntity
  8
0
 62
7
100
AcDbSpline
 70
8
 71
3
 72
8
 73
4
 74
0
 40
0
 40
0
 40
0
 40
0
 40
1
 40
1
 40
1
 40
1
 10
1643.270850
 20
2750.527267
 30
0.0
 10
1643.585100
 20
2750.528017
 30
0.0
 10
1648.043775
 20
2754.015652
 30
0.0
 10
1653.179175
 20
2758.277370
 30
0.0
  0
SPLINE
  5
4da
100
AcDbEntity
  8
0
 62
7
100
AcDbSpline
 70
8
 71
3
 72
8
 73
4
 74
0
 40
0
 40
0
 40
0
 40
0
 40
1
 40
1
 40
1
 40
1
 10
1653.179175
 20
2758.277370
 30
0.0
 10
1690.080525
 20
2788.901077
 30
0.0
 10
1736.888550
 20
2808.839490
 30
0.0
 10
1784.160975
 20
2814.070515
 30
0.0
  0
SPLINE
  5
4db
100
AcDbEntity
  8
0
 62
7
100
AcDbSpline
 70
8
 71
3
 72
8
 73
4
 74
0
 40
0
 40
0
 40
0
 40
0
 40
1
 40
1
 40
1
 40
1
 10
1784.160975
 20
2814.070515
 30
0.0
 10
1790.285925
 20
2814.748282
 30
0.0
 10
1796.926050
 20
2815.534275
 30
0.0
 10
1798.916625
 20
2815.817145
 30
0.0
  0
LWPOLYLINE
  5
4dc
100
AcDbEntity
  8
0
 62
7
100
AcDbPolyline
 90
3
 70
0
 10
1616.001075
 20
2787.957502
 30
0.0
 10
1610.433000
 20
2782.960425
 30
0.0
 10
1626.566250
 20
2766.743070
 30
0.0
  0
SPLINE
  5
4dd
100
AcDbEntity
  8
0
 62
7
100
AcDbSpline
 70
8
 71
3
 72
8
 73
4
 74
0
 40
0
 40
0
 40
0
 40
0
 40
1
 40
1
 40
1
 40
1
 10
1810.609800
 20
2885.265247
 30
0.0
 10
1822.606200
 20
2885.248897
 30
0.0
 10
1849.442625
 20
2883.202305
 30
0.0
 10
1862.115825
 20
2881.337347
 30
0.0
  0
SPLINE
  5
4de
100
AcDbEntity
  8
0
 62
7
100
AcDbSpline
 70
8
 71
3
 72
8
 73
4
 74
0
 40
0
 40
0
 40
0
 40
0
 40
1
 40
1
 40
1
 40
1
 10
1862.115825
 20
2881.337347
 30
0.0
 10
1920.070575
 20
2872.808745
 30
0.0
 10
1983.018600
 20
2843.665770
 30
0.0
 10
2024.205825
 20
2806.294657
 30
0.0
  0
LWPOLYLINE
  5
4df
100
AcDbEntity
  8
0
 62
7
100
AcDbPolyline
 90
5
 70
0
 10
1798.916625
 20
2815.817145
 30
0.0
 10
1802.535975
 20
2816.331457
 30
0.0
 10
1802.535975
 20
2850.803865
 30
0.0
 10
1802.535975
 20
2885.276272
 30
0.0
 10
1810.609800
 20
2885.265247
 30
0.0
  0
SPLINE
  5
4e0
100
AcDbEntity
  8
0
 62
7
100
AcDbSpline
 70
8
 71
3
 72
8
 73
4
 74
0
 40
0
 40
0
 40
0
 40
0
 40
1
 40
1
 40
1
 40
1
 10
2044.906200
 20
2810.576272
 30
0.0
 10
2051.559450
 20
2817.224850
 30
0.0
 10
2058.970350
 20
2824.711012
 30
0.0
 10
2061.375000
 20
2827.212202
 30
0.0
  0
LWPOLYLINE
  5
4e1
100
AcDbEntity
  8
0
 62
7
100
AcDbPolyline
 90
3
 70
0
 10
2024.205825
 20
2806.294657
 30
0.0
 10
2032.809600
 20
2798.487967
 30
0.0
 10
2044.906200
 20
2810.576272
 30
0.0
  0
SPLINE
  5
4e2
100
AcDbEntity
  8
0
 62
7
100
AcDbSpline
 70
8
 71
3
 72
8
 73
4
 74
0
 40
0
 40
0
 40
0
 40
0
 40
1
 40
1
 40
1
 40
1
 10
2062.962750
 20
2834.296357
 30
0.0
 10
2046.842250
 20
2848.982452
 30
0.0
 10
2034.649575
 20
2858.606137
 30
0.0
 10
2018.303925
 20
2869.545330
 30
0.0
  0
SPLINE
  5
4e3
100
AcDbEntity
  8
0
 62
7
100
AcDbSpline
 70
8
 71
3
 72
8
 73
4
 74
0
 40
0
 40
0
 40
0
 40
0
 40
1
 40
1
 40
1
 40
1
 10
2018.303925
 20
2869.545330
 30
0.0
 10
2013.556950
 20
2872.722150
 30
0.0
 10
2009.673075
 20
2875.614547
 30
0.0
 10
2009.673075
 20
2875.972890
 30
0.0
  0
SPLINE
  5
4e4
100
AcDbEntity
  8
0
 62
7
100
AcDbSpline
 70
8
 71
3
 72
8
 73
4
 74
0
 40
0
 40
0
 40
0
 40
0
 40
1
 40
1
 40
1
 40
1
 10
2009.673075
 20
2875.972890
 30
0.0
 10
2009.673075
 20
2876.612482
 30
0.0
 10
2019.285300
 20
2891.623155
 30
0.0
 10
2020.860075
 20
2893.442902
 30
0.0
  0
SPLINE
  5
4e5
100
AcDbEntity
  8
0
 62
7
100
AcDbSpline
 70
8
 71
3
 72
8
 73
4
 74
0
 40
0
 40
0
 40
0
 40
0
 40
1
 40
1
 40
1
 40
1
 10
2020.860075
 20
2893.442902
 30
0.0
 10
2022.336150
 20
2895.148402
 30
0.0
 10
2060.535825
 20
2867.459977
 30
0.0
 10
2072.064075
 20
2856.328515
 30
0.0
  0
SPLINE
  5
4e6
100
AcDbEntity
  8
0
 62
7
100
AcDbSpline
 70
8
 71
3
 72
8
 73
4
 74
0
 40
0
 40
0
 40
0
 40
0
 40
1
 40
1
 40
1
 40
1
 10
2072.064075
 20
2856.328515
 30
0.0
 10
2072.385225
 20
2856.018465
 30
0.0
 10
2074.667100
 20
2853.879997
 30
0.0
 10
2077.134975
 20
2851.576365
 30
0.0
  0
LWPOLYLINE
  5
4e7
100
AcDbEntity
  8
0
 62
7
100
AcDbPolyline
 90
3
 70
0
 10
2061.375000
 20
2827.212202
 30
0.0
 10
2065.746975
 20
2831.759812
 30
0.0
 10
2062.962750
 20
2834.296357
 30
0.0
  0
SPLINE
  5
4e8
100
AcDbEntity
  8
0
 62
7
100
AcDbSpline
 70
8
 71
3
 72
8
 73
4
 74
0
 40
0
 40
0
 40
0
 40
0
 40
1
 40
1
 40
1
 40
1
 10
2118.312600
 20
2884.039777
 30
0.0
 10
2138.492475
 20
2904.198285
 30
0.0
 10
2156.927475
 20
2922.687772
 30
0.0
 10
2159.279250
 20
2925.127537
 30
0.0
  0
LWPOLYLINE
  5
4e9
100
AcDbEntity
  8
0
 62
7
100
AcDbPolyline
 90
3
 70
0
 10
2077.134975
 20
2851.576365
 30
0.0
 10
2081.622000
 20
2847.387945
 30
0.0
 10
2118.312600
 20
2884.039777
 30
0.0
  0
SPLINE
  5
4ea
100
AcDbEntity
  8
0
 62
7
100
AcDbSpline
 70
8
 71
3
 72
8
 73
4
 74
0
 40
0
 40
0
 40
0
 40
0
 40
1
 40
1
 40
1
 40
1
 10
2149.927275
 20
2941.664325
 30
0.0
 10
2142.431925
 20
2948.319787
 30
0.0
 10
2133.491850
 20
2955.925327
 30
0.0
 10
2130.060375
 20
2958.565515
 30
0.0
  0
SPLINE
  5
4eb
100
AcDbEntity
  8
0
 62
7
100
AcDbSpline
 70
8
 71
3
 72
8
 73
4
 74
0
 40
0
 40
0
 40
0
 40
0
 40
1
 40
1
 40
1
 40
1
 10
2130.060375
 20
2958.565515
 30
0.0
 10
2126.628900
 20
2961.205717
 30
0.0
 10
2122.116600
 20
2964.713685
 30
0.0
 10
2120.033250
 20
2966.361015
 30
0.0
  0
SPLINE
  5
4ec
100
AcDbEntity
  8
0
 62
7
100
AcDbSpline
 70
8
 71
3
 72
8
 73
4
 74
0
 40
0
 40
0
 40
0
 40
0
 40
1
 40
1
 40
1
 40
1
 10
2120.033250
 20
2966.361015
 30
0.0
 10
2113.138650
 20
2971.812270
 30
0.0
 10
2088.486825
 20
2988.844972
 30
0.0
 10
2087.491725
 20
2988.844972
 30
0.0
  0
SPLINE
  5
4ed
100
AcDbEntity
  8
0
 62
7
100
AcDbSpline
 70
8
 71
3
 72
8
 73
4
 74
0
 40
0
 40
0
 40
0
 40
0
 40
1
 40
1
 40
1
 40
1
 10
2087.491725
 20
2988.844972
 30
0.0
 10
2085.420150
 20
2988.844972
 30
0.0
 10
2086.721700
 20
2992.047975
 30
0.0
 10
2092.158675
 20
3000.330000
 30
0.0
  0
SPLINE
  5
4ee
100
AcDbEntity
  8
0
 62
7
100
AcDbSpline
 70
8
 71
3
 72
8
 73
4
 74
0
 40
0
 40
0
 40
0
 40
0
 40
1
 40
1
 40
1
 40
1
 10
2092.158675
 20
3000.330000
 30
0.0
 10
2095.731525
 20
3005.772082
 30
0.0
 10
2098.286100
 20
3008.644297
 30
0.0
 10
2099.118975
 20
3008.155395
 30
0.0
  0
SPLINE
  5
4ef
100
AcDbEntity
  8
0
 62
7
100
AcDbSpline
 70
8
 71
3
 72
8
 73
4
 74
0
 40
0
 40
0
 40
0
 40
0
 40
1
 40
1
 40
1
 40
1
 10
2099.118975
 20
3008.155395
 30
0.0
 10
2103.952800
 20
3005.317927
 30
0.0
 10
2119.096425
 20
2994.824482
 30
0.0
 10
2129.876475
 20
2986.842517
 30
0.0
  0
SPLINE
  5
4f0
100
AcDbEntity
  8
0
 62
7
100
AcDbSpline
 70
8
 71
3
 72
8
 73
4
 74
0
 40
0
 40
0
 40
0
 40
0
 40
1
 40
1
 40
1
 40
1
 10
2129.876475
 20
2986.842517
 30
0.0
 10
2144.890275
 20
2975.725830
 30
0.0
 10
2153.367450
 20
2968.709062
 30
0.0
 10
2167.997475
 20
2955.289290
 30
0.0
  0
SPLINE
  5
4f1
100
AcDbEntity
  8
0
 62
7
100
AcDbSpline
 70
8
 71
3
 72
8
 73
4
 74
0
 40
0
 40
0
 40
0
 40
0
 40
1
 40
1
 40
1
 40
1
 10
2167.997475
 20
2955.289290
 30
0.0
 10
2173.919325
 20
2949.857325
 30
0.0
 10
2179.006125
 20
2945.412982
 30
0.0
 10
2179.301550
 20
2945.412982
 30
0.0
  0
SPLINE
  5
4f2
100
AcDbEntity
  8
0
 62
7
100
AcDbSpline
 70
8
 71
3
 72
8
 73
4
 74
0
 40
0
 40
0
 40
0
 40
0
 40
1
 40
1
 40
1
 40
1
 10
2179.301550
 20
2945.412982
 30
0.0
 10
2179.596825
 20
2945.412982
 30
0.0
 10
2187.141825
 20
2952.778080
 30
0.0
 10
2196.068175
 20
2961.779880
 30
0.0
  0
LWPOLYLINE
  5
4f3
100
AcDbEntity
  8
0
 62
7
100
AcDbPolyline
 90
3
 70
0
 10
2159.279250
 20
2925.127537
 30
0.0
 10
2163.555225
 20
2929.563472
 30
0.0
 10
2149.927275
 20
2941.664325
 30
0.0
  0
SPLINE
  5
4f4
100
AcDbEntity
  8
0
 62
7
100
AcDbSpline
 70
8
 71
3
 72
8
 73
4
 74
0
 40
0
 40
0
 40
0
 40
0
 40
1
 40
1
 40
1
 40
1
 10
2203.779300
 20
2985.995827
 30
0.0
 10
2194.164300
 20
2994.855615
 30
0.0
 10
2177.681325
 20
3009.142417
 30
0.0
 10
2173.161150
 20
3012.534675
 30
0.0
  0
LWPOLYLINE
  5
4f5
100
AcDbEntity
  8
0
 62
7
100
AcDbPolyline
 90
3
 70
0
 10
2196.068175
 20
2961.779880
 30
0.0
 10
2212.297650
 20
2978.146770
 30
0.0
 10
2203.779300
 20
2985.995827
 30
0.0
  0
SPLINE
  5
4f6
100
AcDbEntity
  8
0
 62
7
100
AcDbSpline
 70
8
 71
3
 72
8
 73
4
 74
0
 40
0
 40
0
 40
0
 40
0
 40
1
 40
1
 40
1
 40
1
 10
2175.388500
 20
3021.448215
 30
0.0
 10
2178.264150
 20
3025.111882
 30
0.0
 10
2181.390900
 20
3029.073660
 30
0.0
 10
2182.336725
 20
3030.252165
 30
0.0
  0
SPLINE
  5
4f7
100
AcDbEntity
  8
0
 62
7
100
AcDbSpline
 70
8
 71
3
 72
8
 73
4
 74
0
 40
0
 40
0
 40
0
 40
0
 40
1
 40
1
 40
1
 40
1
 10
2182.336725
 20
3030.252165
 30
0.0
 10
2183.985750
 20
3032.306812
 30
0.0
 10
2184.650025
 20
3031.902135
 30
0.0
 10
2198.484600
 20
3020.414205
 30
0.0
  0
SPLINE
  5
4f8
100
AcDbEntity
  8
0
 62
7
100
AcDbSpline
 70
8
 71
3
 72
8
 73
4
 74
0
 40
0
 40
0
 40
0
 40
0
 40
1
 40
1
 40
1
 40
1
 10
2198.484600
 20
3020.414205
 30
0.0
 10
2215.629075
 20
3006.177682
 30
0.0
 10
2253.679950
 20
2968.549965
 30
0.0
 10
2267.602725
 20
2952.064620
 30
0.0
  0
SPLINE
  5
4f9
100
AcDbEntity
  8
0
 62
7
100
AcDbSpline
 70
8
 71
3
 72
8
 73
4
 74
0
 40
0
 40
0
 40
0
 40
0
 40
1
 40
1
 40
1
 40
1
 10
2267.602725
 20
2952.064620
 30
0.0
 10
2283.498825
 20
2933.242762
 30
0.0
 10
2315.924400
 20
2889.196117
 30
0.0
 10
2315.924400
 20
2886.424965
 30
0.0
  0
SPLINE
  5
4fa
100
AcDbEntity
  8
0
 62
7
100
AcDbSpline
 70
8
 71
3
 72
8
 73
4
 74
0
 40
0
 40
0
 40
0
 40
0
 40
1
 40
1
 40
1
 40
1
 10
2315.924400
 20
2886.424965
 30
0.0
 10
2315.924400
 20
2885.185635
 30
0.0
 10
2299.162950
 20
2874.043612
 30
0.0
 10
2298.196875
 20
2874.640710
 30
0.0
  0
SPLINE
  5
4fb
100
AcDbEntity
  8
0
 62
7
100
AcDbSpline
 70
8
 71
3
 72
8
 73
4
 74
0
 40
0
 40
0
 40
0
 40
0
 40
1
 40
1
 40
1
 40
1
 10
2298.196875
 20
2874.640710
 30
0.0
 10
2297.680725
 20
2874.959700
 30
0.0
 10
2294.102175
 20
2879.863627
 30
0.0
 10
2290.244400
 20
2885.538330
 30
0.0
  0
SPLINE
  5
4fc
100
AcDbEntity
  8
0
 62
7
100
AcDbSpline
 70
8
 71
3
 72
8
 73
4
 74
0
 40
0
 40
0
 40
0
 40
0
 40
1
 40
1
 40
1
 40
1
 10
2290.244400
 20
2885.538330
 30
0.0
 10
2274.310425
 20
2908.976940
 30
0.0
 10
2254.796325
 20
2933.587065
 30
0.0
 10
2236.698225
 20
2953.067925
 30
0.0
  0
LWPOLYLINE
  5
4fd
100
AcDbEntity
  8
0
 62
7
100
AcDbPolyline
 90
3
 70
0
 10
2173.161150
 20
3012.534675
 30
0.0
 10
2170.159950
 20
3014.787037
 30
0.0
 10
2175.388500
 20
3021.448215
 30
0.0
  0
SPLINE
  5
4fe
100
AcDbEntity
  8
0
 62
7
100
AcDbSpline
 70
8
 71
3
 72
8
 73
4
 74
0
 40
0
 40
0
 40
0
 40
0
 40
1
 40
1
 40
1
 40
1
 10
2053.986450
 20
2776.796902
 30
0.0
 10
2064.147300
 20
2765.974950
 30
0.0
 10
2086.560825
 20
2735.849115
 30
0.0
 10
2086.489275
 20
2733.110257
 30
0.0
  0
SPLINE
  5
4ff
100
AcDbEntity
  8
0
 62
7
100
AcDbSpline
 70
8
 71
3
 72
8
 73
4
 74
0
 40
0
 40
0
 40
0
 40
0
 40
1
 40
1
 40
1
 40
1
 10
2086.489275
 20
2733.110257
 30
0.0
 10
2086.475775
 20
2732.582535
 30
0.0
 10
2082.499725
 20
2729.539207
 30
0.0
 10
2077.654200
 20
2726.347320
 30
0.0
  0
LWPOLYLINE
  5
500
100
AcDbEntity
  8
0
 62
7
100
AcDbPolyline
 90
5
 70
0
 10
2236.698225
 20
2953.067925
 30
0.0
 10
2228.408925
 20
2961.990495
 30
0.0
 10
2138.536575
 20
2872.228057
 30
0.0
 10
2048.664000
 20
2782.465620
 30
0.0
 10
2053.986450
 20
2776.796902
 30
0.0
  0
SPLINE
  5
501
100
AcDbEntity
  8
0
 62
7
100
AcDbSpline
 70
8
 71
3
 72
8
 73
4
 74
0
 40
0
 40
0
 40
0
 40
0
 40
1
 40
1
 40
1
 40
1
 10
2059.346700
 20
2734.142805
 30
0.0
 10
2054.122875
 20
2741.622225
 30
0.0
 10
2048.702325
 20
2749.001812
 30
0.0
 10
2047.300950
 20
2750.541915
 30
0.0
  0
SPLINE
  5
502
100
AcDbEntity
  8
0
 62
7
100
AcDbSpline
 70
8
 71
3
 72
8
 73
4
 74
0
 40
0
 40
0
 40
0
 40
0
 40
1
 40
1
 40
1
 40
1
 10
2047.300950
 20
2750.541915
 30
0.0
 10
2045.899575
 20
2752.082017
 30
0.0
 10
2042.247075
 20
2756.319457
 30
0.0
 10
2039.184600
 20
2759.958457
 30
0.0
  0
SPLINE
  5
503
100
AcDbEntity
  8
0
 62
7
100
AcDbSpline
 70
8
 71
3
 72
8
 73
4
 74
0
 40
0
 40
0
 40
0
 40
0
 40
1
 40
1
 40
1
 40
1
 10
2039.184600
 20
2759.958457
 30
0.0
 10
2011.023075
 20
2793.421297
 30
0.0
 10
1966.652850
 20
2824.958602
 30
0.0
 10
1925.036400
 20
2841.092377
 30
0.0
  0
SPLINE
  5
504
100
AcDbEntity
  8
0
 62
7
100
AcDbSpline
 70
8
 71
3
 72
8
 73
4
 74
0
 40
0
 40
0
 40
0
 40
0
 40
1
 40
1
 40
1
 40
1
 10
1925.036400
 20
2841.092377
 30
0.0
 10
1893.030000
 20
2853.500602
 30
0.0
 10
1855.272450
 20
2861.889930
 30
0.0
 10
1831.433550
 20
2861.889930
 30
0.0
  0
LWPOLYLINE
  5
505
100
AcDbEntity
  8
0
 62
7
100
AcDbPolyline
 90
3
 70
0
 10
2077.654200
 20
2726.347320
 30
0.0
 10
2068.844475
 20
2720.543880
 30
0.0
 10
2059.346700
 20
2734.142805
 30
0.0
  0
SPLINE
  5
506
100
AcDbEntity
  8
0
 62
7
100
AcDbSpline
 70
8
 71
3
 72
8
 73
4
 74
0
 40
0
 40
0
 40
0
 40
0
 40
1
 40
1
 40
1
 40
1
 10
1829.674350
 20
2746.071270
 30
0.0
 10
1841.833500
 20
2746.071270
 30
0.0
 10
1869.338475
 20
2739.307462
 30
0.0
 10
1885.758150
 20
2732.279527
 30
0.0
  0
SPLINE
  5
507
100
AcDbEntity
  8
0
 62
7
100
AcDbSpline
 70
8
 71
3
 72
8
 73
4
 74
0
 40
0
 40
0
 40
0
 40
0
 40
1
 40
1
 40
1
 40
1
 10
1885.758150
 20
2732.279527
 30
0.0
 10
1898.014875
 20
2727.033442
 30
0.0
 10
1913.704950
 20
2718.002790
 30
0.0
 10
1923.746100
 20
2710.414935
 30
0.0
  0
SPLINE
  5
508
100
AcDbEntity
  8
0
 62
7
100
AcDbSpline
 70
8
 71
3
 72
8
 73
4
 74
0
 40
0
 40
0
 40
0
 40
0
 40
1
 40
1
 40
1
 40
1
 10
1923.746100
 20
2710.414935
 30
0.0
 10
1934.343825
 20
2702.406397
 30
0.0
 10
1950.650175
 20
2687.313697
 30
0.0
 10
1950.650175
 20
2685.513090
 30
0.0
  0
SPLINE
  5
509
100
AcDbEntity
  8
0
 62
7
100
AcDbSpline
 70
8
 71
3
 72
8
 73
4
 74
0
 40
0
 40
0
 40
0
 40
0
 40
1
 40
1
 40
1
 40
1
 10
1950.650175
 20
2685.513090
 30
0.0
 10
1950.650175
 20
2684.774842
 30
0.0
 10
1943.007825
 20
2676.574965
 30
0.0
 10
1933.667250
 20
2667.291127
 30
0.0
  0
SPLINE
  5
50a
100
AcDbEntity
  8
0
 62
7
100
AcDbSpline
 70
8
 71
3
 72
8
 73
4
 74
0
 40
0
 40
0
 40
0
 40
0
 40
1
 40
1
 40
1
 40
1
 10
1933.667250
 20
2667.291127
 30
0.0
 10
1924.326525
 20
2658.007252
 30
0.0
 10
1913.516025
 20
2647.203990
 30
0.0
 10
1909.644000
 20
2643.283845
 30
0.0
  0
LWPOLYLINE
  5
50b
100
AcDbEntity
  8
0
 62
7
100
AcDbPolyline
 90
5
 70
0
 10
1831.433550
 20
2861.889930
 30
0.0
 10
1824.808725
 20
2861.889930
 30
0.0
 10
1824.808725
 20
2803.980600
 30
0.0
 10
1824.808725
 20
2746.071270
 30
0.0
 10
1829.674350
 20
2746.071270
 30
0.0
  0
SPLINE
  5
50c
100
AcDbEntity
  8
0
 62
7
100
AcDbSpline
 70
8
 71
3
 72
8
 73
4
 74
0
 40
0
 40
0
 40
0
 40
0
 40
1
 40
1
 40
1
 40
1
 10
1907.670300
 20
2628.908569
 30
0.0
 10
1914.737925
 20
2618.798144
 30
0.0
 10
1921.109025
 20
2604.935314
 30
0.0
 10
1924.709775
 20
2591.831992
 30
0.0
  0
SPLINE
  5
50d
100
AcDbEntity
  8
0
 62
7
100
AcDbSpline
 70
8
 71
3
 72
8
 73
4
 74
0
 40
0
 40
0
 40
0
 40
0
 40
1
 40
1
 40
1
 40
1
 10
1924.709775
 20
2591.831992
 30
0.0
 10
1927.437075
 20
2581.907215
 30
0.0
 10
1927.769925
 20
2578.817550
 30
0.0
 10
1927.769925
 20
2563.434151
 30
0.0
  0
SPLINE
  5
50e
100
AcDbEntity
  8
0
 62
7
100
AcDbSpline
 70
8
 71
3
 72
8
 73
4
 74
0
 40
0
 40
0
 40
0
 40
0
 40
1
 40
1
 40
1
 40
1
 10
1927.769925
 20
2563.434151
 30
0.0
 10
1927.769925
 20
2548.050747
 30
0.0
 10
1927.437075
 20
2544.961087
 30
0.0
 10
1924.709775
 20
2535.036310
 30
0.0
  0
SPLINE
  5
50f
100
AcDbEntity
  8
0
 62
7
100
AcDbSpline
 70
8
 71
3
 72
8
 73
4
 74
0
 40
0
 40
0
 40
0
 40
0
 40
1
 40
1
 40
1
 40
1
 10
1924.709775
 20
2535.036310
 30
0.0
 10
1921.107150
 20
2521.926588
 30
0.0
 10
1914.737400
 20
2508.069360
 30
0.0
 10
1907.659425
 20
2497.944360
 30
0.0
  0
LWPOLYLINE
  5
510
100
AcDbEntity
  8
0
 62
7
100
AcDbPolyline
 90
3
 70
0
 10
1909.644000
 20
2643.283845
 30
0.0
 10
1902.603750
 20
2636.156310
 30
0.0
 10
1907.670300
 20
2628.908569
 30
0.0
  0
SPLINE
  5
511
100
AcDbEntity
  8
0
 62
7
100
AcDbSpline
 70
8
 71
3
 72
8
 73
4
 74
0
 40
0
 40
0
 40
0
 40
0
 40
1
 40
1
 40
1
 40
1
 10
1942.367625
 20
2466.485047
 30
0.0
 10
1977.635025
 20
2514.365145
 30
0.0
 10
1984.705200
 20
2575.393359
 30
0.0
 10
1961.154000
 20
2628.646782
 30
0.0
  0
SPLINE
  5
512
100
AcDbEntity
  8
0
 62
7
100
AcDbSpline
 70
8
 71
3
 72
8
 73
4
 74
0
 40
0
 40
0
 40
0
 40
0
 40
1
 40
1
 40
1
 40
1
 10
1961.154000
 20
2628.646782
 30
0.0
 10
1959.612525
 20
2632.132275
 30
0.0
 10
1958.552025
 20
2635.184640
 30
0.0
 10
1958.797050
 20
2635.429860
 30
0.0
  0
SPLINE
  5
513
100
AcDbEntity
  8
0
 62
7
100
AcDbSpline
 70
8
 71
3
 72
8
 73
4
 74
0
 40
0
 40
0
 40
0
 40
0
 40
1
 40
1
 40
1
 40
1
 10
1958.797050
 20
2635.429860
 30
0.0
 10
1959.042300
 20
2635.675050
 30
0.0
 10
1973.204850
 20
2641.652325
 30
0.0
 10
1990.269450
 20
2648.712660
 30
0.0
  0
SPLINE
  5
514
100
AcDbEntity
  8
0
 62
7
100
AcDbSpline
 70
8
 71
3
 72
8
 73
4
 74
0
 40
0
 40
0
 40
0
 40
0
 40
1
 40
1
 40
1
 40
1
 10
1990.269450
 20
2648.712660
 30
0.0
 10
2007.333900
 20
2655.772995
 30
0.0
 10
2021.439900
 20
2661.693712
 30
0.0
 10
2021.616075
 20
2661.869812
 30
0.0
  0
SPLINE
  5
515
100
AcDbEntity
  8
0
 62
7
100
AcDbSpline
 70
8
 71
3
 72
8
 73
4
 74
0
 40
0
 40
0
 40
0
 40
0
 40
1
 40
1
 40
1
 40
1
 10
2021.616075
 20
2661.869812
 30
0.0
 10
2021.792175
 20
2662.045912
 30
0.0
 10
2019.447075
 20
2666.771040
 30
0.0
 10
2016.405000
 20
2672.370105
 30
0.0
  0
SPLINE
  5
516
100
AcDbEntity
  8
0
 62
7
100
AcDbSpline
 70
8
 71
3
 72
8
 73
4
 74
0
 40
0
 40
0
 40
0
 40
0
 40
1
 40
1
 40
1
 40
1
 10
2016.405000
 20
2672.370105
 30
0.0
 10
1991.037975
 20
2719.056262
 30
0.0
 10
1951.786200
 20
2754.837030
 30
0.0
 10
1903.320450
 20
2775.454432
 30
0.0
  0
SPLINE
  5
517
100
AcDbEntity
  8
0
 62
7
100
AcDbSpline
 70
8
 71
3
 72
8
 73
4
 74
0
 40
0
 40
0
 40
0
 40
0
 40
1
 40
1
 40
1
 40
1
 10
1903.320450
 20
2775.454432
 30
0.0
 10
1897.807875
 20
2777.799465
 30
0.0
 10
1892.941950
 20
2780.045512
 30
0.0
 10
1892.507100
 20
2780.445660
 30
0.0
  0
SPLINE
  5
518
100
AcDbEntity
  8
0
 62
7
100
AcDbSpline
 70
8
 71
3
 72
8
 73
4
 74
0
 40
0
 40
0
 40
0
 40
0
 40
1
 40
1
 40
1
 40
1
 10
1892.507100
 20
2780.445660
 30
0.0
 10
1891.899300
 20
2781.004852
 30
0.0
 10
1898.527875
 20
2798.509965
 30
0.0
 10
1900.095975
 20
2800.486890
 30
0.0
  0
SPLINE
  5
519
100
AcDbEntity
  8
0
 62
7
100
AcDbSpline
 70
8
 71
3
 72
8
 73
4
 74
0
 40
0
 40
0
 40
0
 40
0
 40
1
 40
1
 40
1
 40
1
 10
1900.095975
 20
2800.486890
 30
0.0
 10
1900.510425
 20
2801.009385
 30
0.0
 10
1917.867450
 20
2793.605947
 30
0.0
 10
1927.471125
 20
2788.810365
 30
0.0
  0
SPLINE
  5
51a
100
AcDbEntity
  8
0
 62
7
100
AcDbSpline
 70
8
 71
3
 72
8
 73
4
 74
0
 40
0
 40
0
 40
0
 40
0
 40
1
 40
1
 40
1
 40
1
 10
1927.471125
 20
2788.810365
 30
0.0
 10
1966.452600
 20
2769.345060
 30
0.0
 10
2002.109250
 20
2737.290487
 30
0.0
 10
2026.422750
 20
2699.855145
 30
0.0
  0
SPLINE
  5
51b
100
AcDbEntity
  8
0
 62
7
100
AcDbSpline
 70
8
 71
3
 72
8
 73
4
 74
0
 40
0
 40
0
 40
0
 40
0
 40
1
 40
1
 40
1
 40
1
 10
2026.422750
 20
2699.855145
 30
0.0
 10
2034.509100
 20
2687.404807
 30
0.0
 10
2052.231150
 20
2650.963635
 30
0.0
 10
2050.723125
 20
2649.887287
 30
0.0
  0
SPLINE
  5
51c
100
AcDbEntity
  8
0
 62
7
100
AcDbSpline
 70
8
 71
3
 72
8
 73
4
 74
0
 40
0
 40
0
 40
0
 40
0
 40
1
 40
1
 40
1
 40
1
 10
2050.723125
 20
2649.887287
 30
0.0
 10
2049.936450
 20
2649.325725
 30
0.0
 10
2036.734125
 20
2643.709447
 30
0.0
 10
2021.923200
 20
2637.635737
 30
0.0
  0
SPLINE
  5
51d
100
AcDbEntity
  8
0
 62
7
100
AcDbSpline
 70
8
 71
3
 72
8
 73
4
 74
0
 40
0
 40
0
 40
0
 40
0
 40
1
 40
1
 40
1
 40
1
 10
2021.923200
 20
2637.635737
 30
0.0
 10
2000.634450
 20
2628.905532
 30
0.0
 10
1988.271450
 20
2623.699489
 30
0.0
 10
1987.866300
 20
2623.294290
 30
0.0
  0
SPLINE
  5
51e
100
AcDbEntity
  8
0
 62
7
100
AcDbSpline
 70
8
 71
3
 72
8
 73
4
 74
0
 40
0
 40
0
 40
0
 40
0
 40
1
 40
1
 40
1
 40
1
 10
1987.866300
 20
2623.294290
 30
0.0
 10
1987.674450
 20
2623.102517
 30
0.0
 10
1988.698125
 20
2618.885318
 30
0.0
 10
1990.140825
 20
2613.922736
 30
0.0
  0
SPLINE
  5
51f
100
AcDbEntity
  8
0
 62
7
100
AcDbSpline
 70
8
 71
3
 72
8
 73
4
 74
0
 40
0
 40
0
 40
0
 40
0
 40
1
 40
1
 40
1
 40
1
 10
1990.140825
 20
2613.922736
 30
0.0
 10
1995.184275
 20
2596.575303
 30
0.0
 10
1996.764450
 20
2584.329361
 30
0.0
 10
1996.728000
 20
2562.877327
 30
0.0
  0
SPLINE
  5
520
100
AcDbEntity
  8
0
 62
7
100
AcDbSpline
 70
8
 71
3
 72
8
 73
4
 74
0
 40
0
 40
0
 40
0
 40
0
 40
1
 40
1
 40
1
 40
1
 10
1996.728000
 20
2562.877327
 30
0.0
 10
1996.692000
 20
2541.388806
 30
0.0
 10
1995.343800
 20
2531.356892
 30
0.0
 10
1989.996225
 20
2512.763490
 30
0.0
  0
SPLINE
  5
521
100
AcDbEntity
  8
0
 62
7
100
AcDbSpline
 70
8
 71
3
 72
8
 73
4
 74
0
 40
0
 40
0
 40
0
 40
0
 40
1
 40
1
 40
1
 40
1
 10
1989.996225
 20
2512.763490
 30
0.0
 10
1977.723600
 20
2470.091437
 30
0.0
 10
1950.654825
 20
2433.436657
 30
0.0
 10
1913.900100
 20
2409.719355
 30
0.0
  0
SPLINE
  5
522
100
AcDbEntity
  8
0
 62
7
100
AcDbSpline
 70
8
 71
3
 72
8
 73
4
 74
0
 40
0
 40
0
 40
0
 40
0
 40
1
 40
1
 40
1
 40
1
 10
1913.900100
 20
2409.719355
 30
0.0
 10
1899.478500
 20
2400.413325
 30
0.0
 10
1875.238950
 20
2388.904777
 30
0.0
 10
1873.644525
 20
2390.606707
 30
0.0
  0
SPLINE
  5
523
100
AcDbEntity
  8
0
 62
7
100
AcDbSpline
 70
8
 71
3
 72
8
 73
4
 74
0
 40
0
 40
0
 40
0
 40
0
 40
1
 40
1
 40
1
 40
1
 10
1873.644525
 20
2390.606707
 30
0.0
 10
1873.247775
 20
2391.030172
 30
0.0
 10
1871.318175
 20
2395.269030
 30
0.0
 10
1869.356550
 20
2400.026377
 30
0.0
  0
SPLINE
  5
524
100
AcDbEntity
  8
0
 62
7
100
AcDbSpline
 70
8
 71
3
 72
8
 73
4
 74
0
 40
0
 40
0
 40
0
 40
0
 40
1
 40
1
 40
1
 40
1
 10
1869.356550
 20
2400.026377
 30
0.0
 10
1865.868375
 20
2408.485530
 30
0.0
 10
1865.615100
 20
2411.960895
 30
0.0
 10
1868.484225
 20
2411.996902
 30
0.0
  0
SPLINE
  5
525
100
AcDbEntity
  8
0
 62
7
100
AcDbSpline
 70
8
 71
3
 72
8
 73
4
 74
0
 40
0
 40
0
 40
0
 40
0
 40
1
 40
1
 40
1
 40
1
 10
1868.484225
 20
2411.996902
 30
0.0
 10
1874.068350
 20
2412.067027
 30
0.0
 10
1905.780450
 20
2429.910750
 30
0.0
 10
1916.390250
 20
2438.952645
 30
0.0
  0
LWPOLYLINE
  5
526
100
AcDbEntity
  8
0
 62
7
100
AcDbPolyline
 90
5
 70
0
 10
1907.659425
 20
2497.944360
 30
0.0
 10
1902.582225
 20
2490.681244
 30
0.0
 10
1919.168775
 20
2474.094690
 30
0.0
 10
1935.755325
 20
2457.508132
 30
0.0
 10
1942.367625
 20
2466.485047
 30
0.0
  0
SPLINE
  5
527
100
AcDbEntity
  8
0
 62
7
100
AcDbSpline
 70
8
 71
3
 72
8
 73
4
 74
0
 40
0
 40
0
 40
0
 40
0
 40
1
 40
1
 40
1
 40
1
 10
1879.058325
 20
2469.374445
 30
0.0
 10
1861.398375
 20
2457.029295
 30
0.0
 10
1840.295475
 20
2450.148360
 30
0.0
 10
1816.734975
 20
2449.052977
 30
0.0
  0
LWPOLYLINE
  5
528
100
AcDbEntity
  8
0
 62
7
100
AcDbPolyline
 90
5
 70
0
 10
1916.390250
 20
2438.952645
 30
0.0
 10
1919.437125
 20
2441.549347
 30
0.0
 10
1902.925800
 20
2458.033117
 30
0.0
 10
1886.414700
 20
2474.516857
 30
0.0
 10
1879.058325
 20
2469.374445
 30
0.0
  0
SPLINE
  5
529
100
AcDbEntity
  8
0
 62
7
100
AcDbSpline
 70
8
 71
3
 72
8
 73
4
 74
0
 40
0
 40
0
 40
0
 40
0
 40
1
 40
1
 40
1
 40
1
 10
1815.621300
 20
2471.333497
 30
0.0
 10
1831.431525
 20
2472.129322
 30
0.0
 10
1844.025300
 20
2475.402240
 30
0.0
 10
1856.749650
 20
2482.022168
 30
0.0
  0
SPLINE
  5
52a
100
AcDbEntity
  8
0
 62
7
100
AcDbSpline
 70
8
 71
3
 72
8
 73
4
 74
0
 40
0
 40
0
 40
0
 40
0
 40
1
 40
1
 40
1
 40
1
 10
1856.749650
 20
2482.022168
 30
0.0
 10
1879.262775
 20
2493.734750
 30
0.0
 10
1896.048600
 20
2514.814351
 30
0.0
 10
1902.956475
 20
2540.048298
 30
0.0
  0
SPLINE
  5
52b
100
AcDbEntity
  8
0
 62
7
100
AcDbSpline
 70
8
 71
3
 72
8
 73
4
 74
0
 40
0
 40
0
 40
0
 40
0
 40
1
 40
1
 40
1
 40
1
 10
1902.956475
 20
2540.048298
 30
0.0
 10
1906.611450
 20
2553.399784
 30
0.0
 10
1906.585425
 20
2574.527479
 30
0.0
 10
1902.897975
 20
2587.378033
 30
0.0
  0
SPLINE
  5
52c
100
AcDbEntity
  8
0
 62
7
100
AcDbSpline
 70
8
 71
3
 72
8
 73
4
 74
0
 40
0
 40
0
 40
0
 40
0
 40
1
 40
1
 40
1
 40
1
 10
1902.897975
 20
2587.378033
 30
0.0
 10
1893.653025
 20
2619.597565
 30
0.0
 10
1869.366675
 20
2643.684142
 30
0.0
 10
1837.058700
 20
2652.675675
 30
0.0
  0
SPLINE
  5
52d
100
AcDbEntity
  8
0
 62
7
100
AcDbSpline
 70
8
 71
3
 72
8
 73
4
 74
0
 40
0
 40
0
 40
0
 40
0
 40
1
 40
1
 40
1
 40
1
 10
1837.058700
 20
2652.675675
 30
0.0
 10
1829.388075
 20
2654.810512
 30
0.0
 10
1824.952875
 20
2655.305475
 30
0.0
 10
1813.672350
 20
2655.285607
 30
0.0
  0
SPLINE
  5
52e
100
AcDbEntity
  8
0
 62
7
100
AcDbSpline
 70
8
 71
3
 72
8
 73
4
 74
0
 40
0
 40
0
 40
0
 40
0
 40
1
 40
1
 40
1
 40
1
 10
1813.672350
 20
2655.285607
 30
0.0
 10
1799.189175
 20
2655.260182
 30
0.0
 10
1791.555300
 20
2653.860495
 30
0.0
 10
1779.149475
 20
2648.956185
 30
0.0
  0
SPLINE
  5
52f
100
AcDbEntity
  8
0
 62
7
100
AcDbSpline
 70
8
 71
3
 72
8
 73
4
 74
0
 40
0
 40
0
 40
0
 40
0
 40
1
 40
1
 40
1
 40
1
 10
1779.149475
 20
2648.956185
 30
0.0
 10
1756.888350
 20
2640.155797
 30
0.0
 10
1736.821650
 20
2620.077832
 30
0.0
 10
1728.179175
 20
2597.957621
 30
0.0
  0
SPLINE
  5
530
100
AcDbEntity
  8
0
 62
7
100
AcDbSpline
 70
8
 71
3
 72
8
 73
4
 74
0
 40
0
 40
0
 40
0
 40
0
 40
1
 40
1
 40
1
 40
1
 10
1728.179175
 20
2597.957621
 30
0.0
 10
1723.166100
 20
2585.126374
 30
0.0
 10
1721.895900
 20
2577.966699
 30
0.0
 10
1721.955975
 20
2562.877932
 30
0.0
  0
SPLINE
  5
531
100
AcDbEntity
  8
0
 62
7
100
AcDbSpline
 70
8
 71
3
 72
8
 73
4
 74
0
 40
0
 40
0
 40
0
 40
0
 40
1
 40
1
 40
1
 40
1
 10
1721.955975
 20
2562.877932
 30
0.0
 10
1722.005475
 20
2550.501977
 30
0.0
 10
1722.443850
 20
2546.978699
 30
0.0
 10
1724.977875
 20
2538.604360
 30
0.0
  0
SPLINE
  5
532
100
AcDbEntity
  8
0
 62
7
100
AcDbSpline
 70
8
 71
3
 72
8
 73
4
 74
0
 40
0
 40
0
 40
0
 40
0
 40
1
 40
1
 40
1
 40
1
 10
1724.977875
 20
2538.604360
 30
0.0
 10
1726.608375
 20
2533.216437
 30
0.0
 10
1729.492200
 20
2525.699361
 30
0.0
 10
1731.386475
 20
2521.899746
 30
0.0
  0
SPLINE
  5
533
100
AcDbEntity
  8
0
 62
7
100
AcDbSpline
 70
8
 71
3
 72
8
 73
4
 74
0
 40
0
 40
0
 40
0
 40
0
 40
1
 40
1
 40
1
 40
1
 10
1731.386475
 20
2521.899746
 30
0.0
 10
1735.256025
 20
2514.138216
 30
0.0
 10
1744.530150
 20
2501.611151
 30
0.0
 10
1751.280075
 20
2495.028523
 30
0.0
  0
SPLINE
  5
534
100
AcDbEntity
  8
0
 62
7
100
AcDbSpline
 70
8
 71
3
 72
8
 73
4
 74
0
 40
0
 40
0
 40
0
 40
0
 40
1
 40
1
 40
1
 40
1
 10
1751.280075
 20
2495.028523
 30
0.0
 10
1753.745700
 20
2492.623994
 30
0.0
 10
1755.762975
 20
2490.364495
 30
0.0
 10
1755.762975
 20
2490.007424
 30
0.0
  0
SPLINE
  5
535
100
AcDbEntity
  8
0
 62
7
100
AcDbSpline
 70
8
 71
3
 72
8
 73
4
 74
0
 40
0
 40
0
 40
0
 40
0
 40
1
 40
1
 40
1
 40
1
 10
1755.762975
 20
2490.007424
 30
0.0
 10
1755.762975
 20
2489.650364
 30
0.0
 10
1745.044800
 20
2478.648690
 30
0.0
 10
1731.944775
 20
2465.559270
 30
0.0
  0
LWPOLYLINE
  5
536
100
AcDbEntity
  8
0
 62
7
100
AcDbPolyline
 90
5
 70
0
 10
1816.734975
 20
2449.052977
 30
0.0
 10
1802.535975
 20
2448.392850
 30
0.0
 10
1802.535975
 20
2459.534152
 30
0.0
 10
1802.535975
 20
2470.674840
 30
0.0
 10
1815.621300
 20
2471.333497
 30
0.0
  0
SPLINE
  5
537
100
AcDbEntity
  8
0
 62
7
100
AcDbSpline
 70
8
 71
3
 72
8
 73
4
 74
0
 40
0
 40
0
 40
0
 40
0
 40
1
 40
1
 40
1
 40
1
 10
1711.620825
 20
2438.697532
 30
0.0
 10
1718.080500
 20
2433.035572
 30
0.0
 10
1733.966400
 20
2422.977472
 30
0.0
 10
1744.069800
 20
2418.152452
 30
0.0
  0
SPLINE
  5
538
100
AcDbEntity
  8
0
 62
7
100
AcDbSpline
 70
8
 71
3
 72
8
 73
4
 74
0
 40
0
 40
0
 40
0
 40
0
 40
1
 40
1
 40
1
 40
1
 10
1744.069800
 20
2418.152452
 30
0.0
 10
1764.707400
 20
2408.296747
 30
0.0
 10
1784.510625
 20
2403.544192
 30
0.0
 10
1810.042650
 20
2402.319697
 30
0.0
  0
LWPOLYLINE
  5
539
100
AcDbEntity
  8
0
 62
7
100
AcDbPolyline
 90
3
 70
0
 10
1731.944775
 20
2465.559270
 30
0.0
 10
1708.126425
 20
2441.760315
 30
0.0
 10
1711.620825
 20
2438.697532
 30
0.0
  0
SPLINE
  5
53a
100
AcDbEntity
  8
0
 62
7
100
AcDbSpline
 70
8
 71
3
 72
8
 73
4
 74
0
 40
0
 40
0
 40
0
 40
0
 40
1
 40
1
 40
1
 40
1
 10
1834.952400
 20
2334.411240
 30
0.0
 10
1847.723550
 20
2335.317750
 30
0.0
 10
1869.468750
 20
2339.687145
 30
0.0
 10
1883.571825
 20
2344.180575
 30
0.0
  0
SPLINE
  5
53b
100
AcDbEntity
  8
0
 62
7
100
AcDbSpline
 70
8
 71
3
 72
8
 73
4
 74
0
 40
0
 40
0
 40
0
 40
0
 40
1
 40
1
 40
1
 40
1
 10
1883.571825
 20
2344.180575
 30
0.0
 10
1925.383950
 20
2357.502517
 30
0.0
 10
1962.506700
 20
2382.488467
 30
0.0
 10
1990.130400
 20
2415.901222
 30
0.0
  0
SPLINE
  5
53c
100
AcDbEntity
  8
0
 62
7
100
AcDbSpline
 70
8
 71
3
 72
8
 73
4
 74
0
 40
0
 40
0
 40
0
 40
0
 40
1
 40
1
 40
1
 40
1
 10
1990.130400
 20
2415.901222
 30
0.0
 10
2025.228000
 20
2458.353967
 30
0.0
 10
2044.065375
 20
2510.647519
 30
0.0
 10
2044.178325
 20
2565.940447
 30
0.0
  0
LWPOLYLINE
  5
53d
100
AcDbEntity
  8
0
 62
7
100
AcDbPolyline
 90
5
 70
0
 10
1810.042650
 20
2402.319697
 30
0.0
 10
1824.808725
 20
2401.611532
 30
0.0
 10
1824.808725
 20
2367.651375
 30
0.0
 10
1824.808725
 20
2333.691210
 30
0.0
 10
1834.952400
 20
2334.411240
 30
0.0
  0
SPLINE
  5
53e
100
AcDbEntity
  8
0
 62
7
100
AcDbSpline
 70
8
 71
3
 72
8
 73
4
 74
0
 40
0
 40
0
 40
0
 40
0
 40
1
 40
1
 40
1
 40
1
 10
2111.933400
 20
2585.985982
 30
0.0
 10
2109.769875
 20
2616.387106
 30
0.0
 10
2102.565000
 20
2647.285230
 30
0.0
 10
2090.883750
 20
2676.258075
 30
0.0
  0
SPLINE
  5
53f
100
AcDbEntity
  8
0
 62
7
100
AcDbSpline
 70
8
 71
3
 72
8
 73
4
 74
0
 40
0
 40
0
 40
0
 40
0
 40
1
 40
1
 40
1
 40
1
 10
2090.883750
 20
2676.258075
 30
0.0
 10
2088.231225
 20
2682.837345
 30
0.0
 10
2086.808625
 20
2687.788320
 30
0.0
 10
2087.400750
 20
2688.380445
 30
0.0
  0
SPLINE
  5
540
100
AcDbEntity
  8
0
 62
7
100
AcDbSpline
 70
8
 71
3
 72
8
 73
4
 74
0
 40
0
 40
0
 40
0
 40
0
 40
1
 40
1
 40
1
 40
1
 10
2087.400750
 20
2688.380445
 30
0.0
 10
2087.951250
 20
2688.930945
 30
0.0
 10
2096.371200
 20
2692.667955
 30
0.0
 10
2106.111750
 20
2696.684917
 30
0.0
  0
SPLINE
  5
541
100
AcDbEntity
  8
0
 62
7
100
AcDbSpline
 70
8
 71
3
 72
8
 73
4
 74
0
 40
0
 40
0
 40
0
 40
0
 40
1
 40
1
 40
1
 40
1
 10
2106.111750
 20
2696.684917
 30
0.0
 10
2115.852225
 20
2700.701872
 30
0.0
 10
2128.582425
 20
2705.976630
 30
0.0
 10
2134.401225
 20
2708.406615
 30
0.0
  0
SPLINE
  5
542
100
AcDbEntity
  8
0
 62
7
100
AcDbSpline
 70
8
 71
3
 72
8
 73
4
 74
0
 40
0
 40
0
 40
0
 40
0
 40
1
 40
1
 40
1
 40
1
 10
2134.401225
 20
2708.406615
 30
0.0
 10
2140.220025
 20
2710.836577
 30
0.0
 10
2145.857850
 20
2713.097280
 30
0.0
 10
2146.929675
 20
2713.430377
 30
0.0
  0
SPLINE
  5
543
100
AcDbEntity
  8
0
 62
7
100
AcDbSpline
 70
8
 71
3
 72
8
 73
4
 74
0
 40
0
 40
0
 40
0
 40
0
 40
1
 40
1
 40
1
 40
1
 10
2146.929675
 20
2713.430377
 30
0.0
 10
2148.001575
 20
2713.763490
 30
0.0
 10
2148.878625
 20
2714.418172
 30
0.0
 10
2148.878625
 20
2714.885227
 30
0.0
  0
SPLINE
  5
544
100
AcDbEntity
  8
0
 62
7
100
AcDbSpline
 70
8
 71
3
 72
8
 73
4
 74
0
 40
0
 40
0
 40
0
 40
0
 40
1
 40
1
 40
1
 40
1
 10
2148.878625
 20
2714.885227
 30
0.0
 10
2148.878625
 20
2719.070040
 30
0.0
 10
2129.617125
 20
2753.524132
 30
0.0
 10
2114.912475
 20
2775.642105
 30
0.0
  0
SPLINE
  5
545
100
AcDbEntity
  8
0
 62
7
100
AcDbSpline
 70
8
 71
3
 72
8
 73
4
 74
0
 40
0
 40
0
 40
0
 40
0
 40
1
 40
1
 40
1
 40
1
 10
2114.912475
 20
2775.642105
 30
0.0
 10
2114.162250
 20
2776.770697
 30
0.0
 10
2114.179875
 20
2777.579340
 30
0.0
 10
2114.965725
 20
2778.120727
 30
0.0
  0
SPLINE
  5
546
100
AcDbEntity
  8
0
 62
7
100
AcDbSpline
 70
8
 71
3
 72
8
 73
4
 74
0
 40
0
 40
0
 40
0
 40
0
 40
1
 40
1
 40
1
 40
1
 10
2114.965725
 20
2778.120727
 30
0.0
 10
2115.607875
 20
2778.562665
 30
0.0
 10
2145.540375
 20
2798.566125
 30
0.0
 10
2181.482400
 20
2822.572852
 30
0.0
  0
LWPOLYLINE
  5
547
100
AcDbEntity
  8
0
 62
7
100
AcDbPolyline
 90
5
 70
0
 10
2044.178325
 20
2565.940447
 30
0.0
 10
2044.196325
 20
2574.571162
 30
0.0
 10
2078.470950
 20
2574.571162
 30
0.0
 10
2112.745875
 20
2574.571162
 30
0.0
 10
2111.933400
 20
2585.985982
 30
0.0
  0
SPLINE
  5
548
100
AcDbEntity
  8
0
 62
7
100
AcDbSpline
 70
8
 71
3
 72
8
 73
4
 74
0
 40
0
 40
0
 40
0
 40
0
 40
1
 40
1
 40
1
 40
1
 10
2255.415225
 20
2853.197962
 30
0.0
 10
2270.847825
 20
2829.783090
 30
0.0
 10
2276.815650
 20
2819.273415
 30
0.0
 10
2288.814375
 20
2794.379745
 30
0.0
  0
SPLINE
  5
549
100
AcDbEntity
  8
0
 62
7
100
AcDbSpline
 70
8
 71
3
 72
8
 73
4
 74
0
 40
0
 40
0
 40
0
 40
0
 40
1
 40
1
 40
1
 40
1
 10
2288.814375
 20
2794.379745
 30
0.0
 10
2293.502250
 20
2784.654217
 30
0.0
 10
2297.430450
 20
2776.568137
 30
0.0
 10
2297.543925
 20
2776.410660
 30
0.0
  0
SPLINE
  5
54a
100
AcDbEntity
  8
0
 62
7
100
AcDbSpline
 70
8
 71
3
 72
8
 73
4
 74
0
 40
0
 40
0
 40
0
 40
0
 40
1
 40
1
 40
1
 40
1
 10
2297.543925
 20
2776.410660
 30
0.0
 10
2297.896275
 20
2775.921847
 30
0.0
 10
2338.671075
 20
2792.873602
 30
0.0
 10
2339.758425
 20
2793.960967
 30
0.0
  0
SPLINE
  5
54b
100
AcDbEntity
  8
0
 62
7
100
AcDbSpline
 70
8
 71
3
 72
8
 73
4
 74
0
 40
0
 40
0
 40
0
 40
0
 40
1
 40
1
 40
1
 40
1
 10
2339.758425
 20
2793.960967
 30
0.0
 10
2340.385200
 20
2794.587682
 30
0.0
 10
2335.940625
 20
2804.623087
 30
0.0
 10
2328.352725
 20
2819.713657
 30
0.0
  0
SPLINE
  5
54c
100
AcDbEntity
  8
0
 62
7
100
AcDbSpline
 70
8
 71
3
 72
8
 73
4
 74
0
 40
0
 40
0
 40
0
 40
0
 40
1
 40
1
 40
1
 40
1
 10
2328.352725
 20
2819.713657
 30
0.0
 10
2321.514750
 20
2833.312867
 30
0.0
 10
2316.046200
 20
2844.527842
 30
0.0
 10
2316.200475
 20
2844.635842
 30
0.0
  0
SPLINE
  5
54d
100
AcDbEntity
  8
0
 62
7
100
AcDbSpline
 70
8
 71
3
 72
8
 73
4
 74
0
 40
0
 40
0
 40
0
 40
0
 40
1
 40
1
 40
1
 40
1
 10
2316.200475
 20
2844.635842
 30
0.0
 10
2316.672000
 20
2844.966052
 30
0.0
 10
2332.689450
 20
2853.581730
 30
0.0
 10
2341.537725
 20
2858.264527
 30
0.0
  0
SPLINE
  5
54e
100
AcDbEntity
  8
0
 62
7
100
AcDbSpline
 70
8
 71
3
 72
8
 73
4
 74
0
 40
0
 40
0
 40
0
 40
0
 40
1
 40
1
 40
1
 40
1
 10
2341.537725
 20
2858.264527
 30
0.0
 10
2346.131550
 20
2860.695720
 30
0.0
 10
2355.778350
 20
2865.805222
 30
0.0
 10
2362.975350
 20
2869.618965
 30
0.0
  0
SPLINE
  5
54f
100
AcDbEntity
  8
0
 62
7
100
AcDbSpline
 70
8
 71
3
 72
8
 73
4
 74
0
 40
0
 40
0
 40
0
 40
0
 40
1
 40
1
 40
1
 40
1
 10
2362.975350
 20
2869.618965
 30
0.0
 10
2370.172275
 20
2873.432715
 30
0.0
 10
2376.060675
 20
2876.797995
 30
0.0
 10
2376.060675
 20
2877.097357
 30
0.0
  0
SPLINE
  5
550
100
AcDbEntity
  8
0
 62
7
100
AcDbSpline
 70
8
 71
3
 72
8
 73
4
 74
0
 40
0
 40
0
 40
0
 40
0
 40
1
 40
1
 40
1
 40
1
 10
2376.060675
 20
2877.097357
 30
0.0
 10
2376.060675
 20
2878.725472
 30
0.0
 10
2360.470650
 20
2904.257242
 30
0.0
 10
2348.966100
 20
2921.470290
 30
0.0
  0
SPLINE
  5
551
100
AcDbEntity
  8
0
 62
7
100
AcDbSpline
 70
8
 71
3
 72
8
 73
4
 74
0
 40
0
 40
0
 40
0
 40
0
 40
1
 40
1
 40
1
 40
1
 10
2348.966100
 20
2921.470290
 30
0.0
 10
2308.892175
 20
2981.428200
 30
0.0
 10
2257.508550
 20
3035.575815
 30
0.0
 10
2199.171225
 20
3079.322385
 30
0.0
  0
SPLINE
  5
552
100
AcDbEntity
  8
0
 62
7
100
AcDbSpline
 70
8
 71
3
 72
8
 73
4
 74
0
 40
0
 40
0
 40
0
 40
0
 40
1
 40
1
 40
1
 40
1
 10
2199.171225
 20
3079.322385
 30
0.0
 10
2189.578650
 20
3086.515710
 30
0.0
 10
2181.403950
 20
3092.278807
 30
0.0
 10
2181.005175
 20
3092.129250
 30
0.0
  0
SPLINE
  5
553
100
AcDbEntity
  8
0
 62
7
100
AcDbSpline
 70
8
 71
3
 72
8
 73
4
 74
0
 40
0
 40
0
 40
0
 40
0
 40
1
 40
1
 40
1
 40
1
 10
2181.005175
 20
3092.129250
 30
0.0
 10
2180.606400
 20
3091.979685
 30
0.0
 10
2171.920350
 20
3079.329217
 30
0.0
 10
2161.702725
 20
3064.017060
 30
0.0
  0
SPLINE
  5
554
100
AcDbEntity
  8
0
 62
7
100
AcDbSpline
 70
8
 71
3
 72
8
 73
4
 74
0
 40
0
 40
0
 40
0
 40
0
 40
1
 40
1
 40
1
 40
1
 10
2161.702725
 20
3064.017060
 30
0.0
 10
2151.485400
 20
3048.704917
 30
0.0
 10
2142.957225
 20
3036.008407
 30
0.0
 10
2142.751350
 20
3035.802600
 30
0.0
  0
SPLINE
  5
555
100
AcDbEntity
  8
0
 62
7
100
AcDbSpline
 70
8
 71
3
 72
8
 73
4
 74
0
 40
0
 40
0
 40
0
 40
0
 40
1
 40
1
 40
1
 40
1
 10
2142.751350
 20
3035.802600
 30
0.0
 10
2142.545550
 20
3035.596777
 30
0.0
 10
2138.701950
 20
3037.908345
 30
0.0
 10
2134.210050
 20
3040.939417
 30
0.0
  0
SPLINE
  5
556
100
AcDbEntity
  8
0
 62
7
100
AcDbSpline
 70
8
 71
3
 72
8
 73
4
 74
0
 40
0
 40
0
 40
0
 40
0
 40
1
 40
1
 40
1
 40
1
 10
2134.210050
 20
3040.939417
 30
0.0
 10
2121.060225
 20
3049.812840
 30
0.0
 10
2103.539175
 20
3060.429465
 30
0.0
 10
2090.968500
 20
3067.140885
 30
0.0
  0
SPLINE
  5
557
100
AcDbEntity
  8
0
 62
7
100
AcDbSpline
 70
8
 71
3
 72
8
 73
4
 74
0
 40
0
 40
0
 40
0
 40
0
 40
1
 40
1
 40
1
 40
1
 10
2090.968500
 20
3067.140885
 30
0.0
 10
2073.324000
 20
3076.561282
 30
0.0
 10
2074.378200
 20
3074.693122
 30
0.0
 10
2080.360800
 20
3085.939365
 30
0.0
  0
LWPOLYLINE
  5
558
100
AcDbEntity
  8
0
 62
7
100
AcDbPolyline
 90
3
 70
0
 10
2181.482400
 20
2822.572852
 30
0.0
 10
2246.831550
 20
2866.221450
 30
0.0
 10
2255.415225
 20
2853.197962
 30
0.0
  0
SPLINE
  5
559
100
AcDbEntity
  8
0
 62
7
100
AcDbSpline
 70
8
 71
3
 72
8
 73
4
 74
0
 40
0
 40
0
 40
0
 40
0
 40
1
 40
1
 40
1
 40
1
 10
2101.305825
 20
3086.901757
 30
0.0
 10
2110.014150
 20
3082.146105
 30
0.0
 10
2121.264750
 20
3075.677820
 30
0.0
 10
2126.307075
 20
3072.527775
 30
0.0
  0
SPLINE
  5
55a
100
AcDbEntity
  8
0
 62
7
100
AcDbSpline
 70
8
 71
3
 72
8
 73
4
 74
0
 40
0
 40
0
 40
0
 40
0
 40
1
 40
1
 40
1
 40
1
 10
2126.307075
 20
3072.527775
 30
0.0
 10
2131.349475
 20
3069.377715
 30
0.0
 10
2135.726475
 20
3066.800415
 30
0.0
 10
2136.033675
 20
3066.800415
 30
0.0
  0
SPLINE
  5
55b
100
AcDbEntity
  8
0
 62
7
100
AcDbSpline
 70
8
 71
3
 72
8
 73
4
 74
0
 40
0
 40
0
 40
0
 40
0
 40
1
 40
1
 40
1
 40
1
 10
2136.033675
 20
3066.800415
 30
0.0
 10
2136.574050
 20
3066.800415
 30
0.0
 10
2158.107300
 20
3098.339737
 30
0.0
 10
2160.777300
 20
3103.042147
 30
0.0
  0
SPLINE
  5
55c
100
AcDbEntity
  8
0
 62
7
100
AcDbSpline
 70
8
 71
3
 72
8
 73
4
 74
0
 40
0
 40
0
 40
0
 40
0
 40
1
 40
1
 40
1
 40
1
 10
2160.777300
 20
3103.042147
 30
0.0
 10
2161.999950
 20
3105.195487
 30
0.0
 10
2161.385025
 20
3105.805455
 30
0.0
 10
2152.424925
 20
3111.325605
 30
0.0
  0
SPLINE
  5
55d
100
AcDbEntity
  8
0
 62
7
100
AcDbSpline
 70
8
 71
3
 72
8
 73
4
 74
0
 40
0
 40
0
 40
0
 40
0
 40
1
 40
1
 40
1
 40
1
 10
2152.424925
 20
3111.325605
 30
0.0
 10
2147.105325
 20
3114.603038
 30
0.0
 10
2137.490850
 20
3120.290842
 30
0.0
 10
2131.059600
 20
3123.965175
 30
0.0
  0
SPLINE
  5
55e
100
AcDbEntity
  8
0
 62
7
100
AcDbSpline
 70
8
 71
3
 72
8
 73
4
 74
0
 40
0
 40
0
 40
0
 40
0
 40
1
 40
1
 40
1
 40
1
 10
2131.059600
 20
3123.965175
 30
0.0
 10
2118.195000
 20
3131.315122
 30
0.0
 10
2073.325125
 20
3153.623385
 30
0.0
 10
2071.355925
 20
3153.648570
 30
0.0
  0
SPLINE
  5
55f
100
AcDbEntity
  8
0
 62
7
100
AcDbSpline
 70
8
 71
3
 72
8
 73
4
 74
0
 40
0
 40
0
 40
0
 40
0
 40
1
 40
1
 40
1
 40
1
 10
2071.355925
 20
3153.648570
 30
0.0
 10
2070.675375
 20
3153.657495
 30
0.0
 10
2069.078775
 20
3151.033417
 30
0.0
 10
2067.807975
 20
3147.817777
 30
0.0
  0
SPLINE
  5
560
100
AcDbEntity
  8
0
 62
7
100
AcDbSpline
 70
8
 71
3
 72
8
 73
4
 74
0
 40
0
 40
0
 40
0
 40
0
 40
1
 40
1
 40
1
 40
1
 10
2067.807975
 20
3147.817777
 30
0.0
 10
2066.537100
 20
3144.602138
 30
0.0
 10
2063.000700
 20
3135.957495
 30
0.0
 10
2059.949175
 20
3128.607472
 30
0.0
  0
SPLINE
  5
561
100
AcDbEntity
  8
0
 62
7
100
AcDbSpline
 70
8
 71
3
 72
8
 73
4
 74
0
 40
0
 40
0
 40
0
 40
0
 40
1
 40
1
 40
1
 40
1
 10
2059.949175
 20
3128.607472
 30
0.0
 10
2018.215725
 20
3028.085565
 30
0.0
 10
2000.763600
 20
2985.592005
 30
0.0
 10
2000.763600
 20
2984.498002
 30
0.0
  0
SPLINE
  5
562
100
AcDbEntity
  8
0
 62
7
100
AcDbSpline
 70
8
 71
3
 72
8
 73
4
 74
0
 40
0
 40
0
 40
0
 40
0
 40
1
 40
1
 40
1
 40
1
 10
2000.763600
 20
2984.498002
 30
0.0
 10
2000.763600
 20
2983.868325
 30
0.0
 10
2008.656600
 20
2979.387382
 30
0.0
 10
2018.303550
 20
2974.540350
 30
0.0
  0
SPLINE
  5
563
100
AcDbEntity
  8
0
 62
7
100
AcDbSpline
 70
8
 71
3
 72
8
 73
4
 74
0
 40
0
 40
0
 40
0
 40
0
 40
1
 40
1
 40
1
 40
1
 10
2018.303550
 20
2974.540350
 30
0.0
 10
2027.950425
 20
2969.693325
 30
0.0
 10
2038.850175
 20
2964.009622
 30
0.0
 10
2042.525175
 20
2961.909922
 30
0.0
  0
SPLINE
  5
564
100
AcDbEntity
  8
0
 62
7
100
AcDbSpline
 70
8
 71
3
 72
8
 73
4
 74
0
 40
0
 40
0
 40
0
 40
0
 40
1
 40
1
 40
1
 40
1
 10
2042.525175
 20
2961.909922
 30
0.0
 10
2052.669075
 20
2956.114222
 30
0.0
 10
2076.354675
 20
2940.967350
 30
0.0
 10
2077.061100
 20
2939.824177
 30
0.0
  0
SPLINE
  5
565
100
AcDbEntity
  8
0
 62
7
100
AcDbSpline
 70
8
 71
3
 72
8
 73
4
 74
0
 40
0
 40
0
 40
0
 40
0
 40
1
 40
1
 40
1
 40
1
 10
2077.061100
 20
2939.824177
 30
0.0
 10
2077.686525
 20
2938.812217
 30
0.0
 10
2074.393200
 20
2933.056387
 30
0.0
 10
2068.661325
 20
2925.143917
 30
0.0
  0
LWPOLYLINE
  5
566
100
AcDbEntity
  8
0
 62
7
100
AcDbPolyline
 90
3
 70
0
 10
2080.360800
 20
3085.939365
 30
0.0
 10
2085.472500
 20
3095.548380
 30
0.0
 10
2101.305825
 20
3086.901757
 30
0.0
  0
SPLINE
  5
567
100
AcDbEntity
  8
0
 62
7
100
AcDbSpline
 70
8
 71
3
 72
8
 73
4
 74
0
 40
0
 40
0
 40
0
 40
0
 40
1
 40
1
 40
1
 40
1
 10
2053.762650
 20
2928.744982
 30
0.0
 10
2039.545125
 20
2938.150170
 30
0.0
 10
2018.731950
 20
2949.905850
 30
0.0
 10
2003.534100
 20
2957.114985
 30
0.0
  0
SPLINE
  5
568
100
AcDbEntity
  8
0
 62
7
100
AcDbSpline
 70
8
 71
3
 72
8
 73
4
 74
0
 40
0
 40
0
 40
0
 40
0
 40
1
 40
1
 40
1
 40
1
 10
2003.534100
 20
2957.114985
 30
0.0
 10
1997.416575
 20
2960.016787
 30
0.0
 10
1992.131850
 20
2962.550122
 30
0.0
 10
1991.790525
 20
2962.744605
 30
0.0
  0
SPLINE
  5
569
100
AcDbEntity
  8
0
 62
7
100
AcDbSpline
 70
8
 71
3
 72
8
 73
4
 74
0
 40
0
 40
0
 40
0
 40
0
 40
1
 40
1
 40
1
 40
1
 10
1991.790525
 20
2962.744605
 30
0.0
 10
1991.449050
 20
2962.939095
 30
0.0
 10
1989.837375
 20
2959.745595
 30
0.0
 10
1988.208825
 20
2955.647925
 30
0.0
  0
SPLINE
  5
56a
100
AcDbEntity
  8
0
 62
7
100
AcDbSpline
 70
8
 71
3
 72
8
 73
4
 74
0
 40
0
 40
0
 40
0
 40
0
 40
1
 40
1
 40
1
 40
1
 10
1988.208825
 20
2955.647925
 30
0.0
 10
1982.530950
 20
2941.361070
 30
0.0
 10
1965.518550
 20
2900.888100
 30
0.0
 10
1964.953650
 20
2900.323230
 30
0.0
  0
SPLINE
  5
56b
100
AcDbEntity
  8
0
 62
7
100
AcDbSpline
 70
8
 71
3
 72
8
 73
4
 74
0
 40
0
 40
0
 40
0
 40
0
 40
1
 40
1
 40
1
 40
1
 10
1964.953650
 20
2900.323230
 30
0.0
 10
1964.640600
 20
2900.010172
 30
0.0
 10
1958.162025
 20
2902.186897
 30
0.0
 10
1950.556875
 20
2905.160370
 30
0.0
  0
SPLINE
  5
56c
100
AcDbEntity
  8
0
 62
7
100
AcDbSpline
 70
8
 71
3
 72
8
 73
4
 74
0
 40
0
 40
0
 40
0
 40
0
 40
1
 40
1
 40
1
 40
1
 10
1950.556875
 20
2905.160370
 30
0.0
 10
1898.526750
 20
2925.503197
 30
0.0
 10
1845.225525
 20
2934.263512
 30
0.0
 10
1793.547750
 20
2930.965612
 30
0.0
  0
SPLINE
  5
56d
100
AcDbEntity
  8
0
 62
7
100
AcDbSpline
 70
8
 71
3
 72
8
 73
4
 74
0
 40
0
 40
0
 40
0
 40
0
 40
1
 40
1
 40
1
 40
1
 10
1793.547750
 20
2930.965612
 30
0.0
 10
1774.106175
 20
2929.724932
 30
0.0
 10
1755.186075
 20
2927.389965
 30
0.0
 10
1753.864350
 20
2926.068210
 30
0.0
  0
SPLINE
  5
56e
100
AcDbEntity
  8
0
 62
7
100
AcDbSpline
 70
8
 71
3
 72
8
 73
4
 74
0
 40
0
 40
0
 40
0
 40
0
 40
1
 40
1
 40
1
 40
1
 10
1753.864350
 20
2926.068210
 30
0.0
 10
1753.476900
 20
2925.680790
 30
0.0
 10
1756.067475
 20
2910.564472
 30
0.0
 10
1759.621200
 20
2892.476415
 30
0.0
  0
SPLINE
  5
56f
100
AcDbEntity
  8
0
 62
7
100
AcDbSpline
 70
8
 71
3
 72
8
 73
4
 74
0
 40
0
 40
0
 40
0
 40
0
 40
1
 40
1
 40
1
 40
1
 10
1759.621200
 20
2892.476415
 30
0.0
 10
1763.174850
 20
2874.388335
 30
0.0
 10
1765.890375
 20
2859.449497
 30
0.0
 10
1765.655475
 20
2859.278985
 30
0.0
  0
SPLINE
  5
570
100
AcDbEntity
  8
0
 62
7
100
AcDbSpline
 70
8
 71
3
 72
8
 73
4
 74
0
 40
0
 40
0
 40
0
 40
0
 40
1
 40
1
 40
1
 40
1
 10
1765.655475
 20
2859.278985
 30
0.0
 10
1765.420725
 20
2859.108465
 30
0.0
 10
1758.713850
 20
2857.574107
 30
0.0
 10
1750.751325
 20
2855.869305
 30
0.0
  0
SPLINE
  5
571
100
AcDbEntity
  8
0
 62
7
100
AcDbSpline
 70
8
 71
3
 72
8
 73
4
 74
0
 40
0
 40
0
 40
0
 40
0
 40
1
 40
1
 40
1
 40
1
 10
1750.751325
 20
2855.869305
 30
0.0
 10
1733.935125
 20
2852.268922
 30
0.0
 10
1720.186800
 20
2848.058520
 30
0.0
 10
1702.454550
 20
2841.078502
 30
0.0
  0
SPLINE
  5
572
100
AcDbEntity
  8
0
 62
7
100
AcDbSpline
 70
8
 71
3
 72
8
 73
4
 74
0
 40
0
 40
0
 40
0
 40
0
 40
1
 40
1
 40
1
 40
1
 10
1702.454550
 20
2841.078502
 30
0.0
 10
1695.491250
 20
2838.337597
 30
0.0
 10
1689.381375
 20
2836.511767
 30
0.0
 10
1688.877000
 20
2837.021130
 30
0.0
  0
SPLINE
  5
573
100
AcDbEntity
  8
0
 62
7
100
AcDbSpline
 70
8
 71
3
 72
8
 73
4
 74
0
 40
0
 40
0
 40
0
 40
0
 40
1
 40
1
 40
1
 40
1
 10
1688.877000
 20
2837.021130
 30
0.0
 10
1688.115225
 20
2837.790472
 30
0.0
 10
1679.479425
 20
2858.226817
 30
0.0
 10
1665.540525
 20
2892.246052
 30
0.0
  0
SPLINE
  5
574
100
AcDbEntity
  8
0
 62
7
100
AcDbSpline
 70
8
 71
3
 72
8
 73
4
 74
0
 40
0
 40
0
 40
0
 40
0
 40
1
 40
1
 40
1
 40
1
 10
1665.540525
 20
2892.246052
 30
0.0
 10
1662.450450
 20
2899.787857
 30
0.0
 10
1663.398675
 20
2899.815930
 30
0.0
 10
1647.182700
 20
2891.702265
 30
0.0
  0
SPLINE
  5
575
100
AcDbEntity
  8
0
 62
7
100
AcDbSpline
 70
8
 71
3
 72
8
 73
4
 74
0
 40
0
 40
0
 40
0
 40
0
 40
1
 40
1
 40
1
 40
1
 10
1647.182700
 20
2891.702265
 30
0.0
 10
1623.032625
 20
2879.618752
 30
0.0
 10
1605.660975
 20
2868.216142
 30
0.0
 10
1578.136875
 20
2846.380830
 30
0.0
  0
SPLINE
  5
576
100
AcDbEntity
  8
0
 62
7
100
AcDbSpline
 70
8
 71
3
 72
8
 73
4
 74
0
 40
0
 40
0
 40
0
 40
0
 40
1
 40
1
 40
1
 40
1
 10
1578.136875
 20
2846.380830
 30
0.0
 10
1556.031450
 20
2828.844262
 30
0.0
 10
1523.832150
 20
2792.890312
 30
0.0
 10
1507.229025
 20
2767.204770
 30
0.0
  0
SPLINE
  5
577
100
AcDbEntity
  8
0
 62
7
100
AcDbSpline
 70
8
 71
3
 72
8
 73
4
 74
0
 40
0
 40
0
 40
0
 40
0
 40
1
 40
1
 40
1
 40
1
 10
1507.229025
 20
2767.204770
 30
0.0
 10
1494.045675
 20
2746.809720
 30
0.0
 10
1477.090950
 20
2715.728775
 30
0.0
 10
1478.513325
 20
2714.563642
 30
0.0
  0
SPLINE
  5
578
100
AcDbEntity
  8
0
 62
7
100
AcDbSpline
 70
8
 71
3
 72
8
 73
4
 74
0
 40
0
 40
0
 40
0
 40
0
 40
1
 40
1
 40
1
 40
1
 10
1478.513325
 20
2714.563642
 30
0.0
 10
1478.987175
 20
2714.175450
 30
0.0
 10
1520.022525
 20
2697.100320
 30
0.0
 10
1534.425000
 20
2691.298312
 30
0.0
  0
SPLINE
  5
579
100
AcDbEntity
  8
0
 62
7
100
AcDbSpline
 70
8
 71
3
 72
8
 73
4
 74
0
 40
0
 40
0
 40
0
 40
0
 40
1
 40
1
 40
1
 40
1
 10
1534.425000
 20
2691.298312
 30
0.0
 10
1537.946025
 20
2689.879882
 30
0.0
 10
1540.827675
 20
2688.299445
 30
0.0
 10
1540.828425
 20
2687.786242
 30
0.0
  0
SPLINE
  5
57a
100
AcDbEntity
  8
0
 62
7
100
AcDbSpline
 70
8
 71
3
 72
8
 73
4
 74
0
 40
0
 40
0
 40
0
 40
0
 40
1
 40
1
 40
1
 40
1
 10
1540.828425
 20
2687.786242
 30
0.0
 10
1540.828425
 20
2687.273040
 30
0.0
 10
1538.637900
 20
2681.259375
 30
0.0
 10
1535.958675
 20
2674.422547
 30
0.0
  0
SPLINE
  5
57b
100
AcDbEntity
  8
0
 62
7
100
AcDbSpline
 70
8
 71
3
 72
8
 73
4
 74
0
 40
0
 40
0
 40
0
 40
0
 40
1
 40
1
 40
1
 40
1
 10
1535.958675
 20
2674.422547
 30
0.0
 10
1523.058000
 20
2641.502505
 30
0.0
 10
1517.029800
 20
2613.708852
 30
0.0
 10
1515.291075
 20
2579.132436
 30
0.0
  0
SPLINE
  5
57c
100
AcDbEntity
  8
0
 62
7
100
AcDbSpline
 70
8
 71
3
 72
8
 73
4
 74
0
 40
0
 40
0
 40
0
 40
0
 40
1
 40
1
 40
1
 40
1
 10
1515.291075
 20
2579.132436
 30
0.0
 10
1513.959600
 20
2552.653639
 30
0.0
 10
1515.906450
 20
2523.882300
 30
0.0
 10
1520.309700
 20
2504.968610
 30
0.0
  0
SPLINE
  5
57d
100
AcDbEntity
  8
0
 62
7
100
AcDbSpline
 70
8
 71
3
 72
8
 73
4
 74
0
 40
0
 40
0
 40
0
 40
0
 40
1
 40
1
 40
1
 40
1
 10
1520.309700
 20
2504.968610
 30
0.0
 10
1522.428300
 20
2495.867830
 30
0.0
 10
1522.345125
 20
2493.275381
 30
0.0
 10
1519.934400
 20
2493.275381
 30
0.0
  0
SPLINE
  5
57e
100
AcDbEntity
  8
0
 62
7
100
AcDbSpline
 70
8
 71
3
 72
8
 73
4
 74
0
 40
0
 40
0
 40
0
 40
0
 40
1
 40
1
 40
1
 40
1
 10
1519.934400
 20
2493.275381
 30
0.0
 10
1518.183225
 20
2493.275381
 30
0.0
 10
1458.305250
 20
2481.521881
 30
0.0
 10
1368.772350
 20
2463.603607
 30
0.0
  0
SPLINE
  5
57f
100
AcDbEntity
  8
0
 62
7
100
AcDbSpline
 70
8
 71
3
 72
8
 73
4
 74
0
 40
0
 40
0
 40
0
 40
0
 40
1
 40
1
 40
1
 40
1
 10
1368.772350
 20
2463.603607
 30
0.0
 10
1351.622400
 20
2460.171345
 30
0.0
 10
1333.487475
 20
2456.548177
 30
0.0
 10
1328.472675
 20
2455.552132
 30
0.0
  0
LWPOLYLINE
  5
580
100
AcDbEntity
  8
0
 62
7
100
AcDbPolyline
 90
3
 70
0
 10
2068.661325
 20
2925.143917
 30
0.0
 10
2065.598325
 20
2920.915282
 30
0.0
 10
2053.762650
 20
2928.744982
 30
0.0
  0
SPLINE
  5
581
100
AcDbEntity
  8
0
 62
7
100
AcDbSpline
 70
8
 71
3
 72
8
 73
4
 74
0
 40
0
 40
0
 40
0
 40
0
 40
1
 40
1
 40
1
 40
1
 10
1323.714075
 20
2436.688882
 30
0.0
 10
1344.061275
 20
2357.098432
 30
0.0
 10
1384.384725
 20
2283.254535
 30
0.0
 10
1441.971825
 20
2220.124335
 30
0.0
  0
LWPOLYLINE
  5
582
100
AcDbEntity
  8
0
 62
7
100
AcDbPolyline
 90
3
 70
0
 10
1328.472675
 20
2455.552132
 30
0.0
 10
1319.354700
 20
2453.741130
 30
0.0
 10
1323.714075
 20
2436.688882
 30
0.0
  0
SPLINE
  5
583
100
AcDbEntity
  8
0
 62
7
100
AcDbSpline
 70
8
 71
3
 72
8
 73
4
 74
0
 40
0
 40
0
 40
0
 40
0
 40
1
 40
1
 40
1
 40
1
 10
1473.831225
 20
2254.531477
 30
0.0
 10
1463.934975
 20
2265.214860
 30
0.0
 10
1455.572400
 20
2275.154535
 30
0.0
 10
1447.708350
 20
2285.581365
 30
0.0
  0
SPLINE
  5
584
100
AcDbEntity
  8
0
 62
7
100
AcDbSpline
 70
8
 71
3
 72
8
 73
4
 74
0
 40
0
 40
0
 40
0
 40
0
 40
1
 40
1
 40
1
 40
1
 10
1447.708350
 20
2285.581365
 30
0.0
 10
1439.463450
 20
2296.512630
 30
0.0
 10
1426.125000
 20
2315.978047
 30
0.0
 10
1426.125000
 20
2317.078672
 30
0.0
  0
SPLINE
  5
585
100
AcDbEntity
  8
0
 62
7
100
AcDbSpline
 70
8
 71
3
 72
8
 73
4
 74
0
 40
0
 40
0
 40
0
 40
0
 40
1
 40
1
 40
1
 40
1
 10
1426.125000
 20
2317.078672
 30
0.0
 10
1426.125000
 20
2318.242395
 30
0.0
 10
1443.027525
 20
2329.579282
 30
0.0
 10
1443.930450
 20
2329.021207
 30
0.0
  0
SPLINE
  5
586
100
AcDbEntity
  8
0
 62
7
100
AcDbSpline
 70
8
 71
3
 72
8
 73
4
 74
0
 40
0
 40
0
 40
0
 40
0
 40
1
 40
1
 40
1
 40
1
 10
1443.930450
 20
2329.021207
 30
0.0
 10
1444.346250
 20
2328.764280
 30
0.0
 10
1446.141525
 20
2326.402297
 30
0.0
 10
1447.919925
 20
2323.772332
 30
0.0
  0
SPLINE
  5
587
100
AcDbEntity
  8
0
 62
7
100
AcDbSpline
 70
8
 71
3
 72
8
 73
4
 74
0
 40
0
 40
0
 40
0
 40
0
 40
1
 40
1
 40
1
 40
1
 10
1447.919925
 20
2323.772332
 30
0.0
 10
1456.045275
 20
2311.756192
 30
0.0
 10
1469.445225
 20
2293.715115
 30
0.0
 10
1476.662325
 20
2285.074290
 30
0.0
  0
SPLINE
  5
588
100
AcDbEntity
  8
0
 62
7
100
AcDbSpline
 70
8
 71
3
 72
8
 73
4
 74
0
 40
0
 40
0
 40
0
 40
0
 40
1
 40
1
 40
1
 40
1
 10
1476.662325
 20
2285.074290
 30
0.0
 10
1483.555875
 20
2276.821027
 30
0.0
 10
1503.123675
 20
2255.389267
 30
0.0
 10
1506.719550
 20
2252.153940
 30
0.0
  0
SPLINE
  5
589
100
AcDbEntity
  8
0
 62
7
100
AcDbSpline
 70
8
 71
3
 72
8
 73
4
 74
0
 40
0
 40
0
 40
0
 40
0
 40
1
 40
1
 40
1
 40
1
 10
1506.719550
 20
2252.153940
 30
0.0
 10
1507.411425
 20
2251.531417
 30
0.0
 10
1508.921400
 20
2249.914717
 30
0.0
 10
1510.074900
 20
2248.561267
 30
0.0
  0
LWPOLYLINE
  5
58a
100
AcDbEntity
  8
0
 62
7
100
AcDbPolyline
 90
5
 70
0
 10
1441.971825
 20
2220.124335
 30
0.0
 10
1447.840950
 20
2213.690280
 30
0.0
 10
1464.385500
 20
2230.279162
 30
0.0
 10
1480.930200
 20
2246.868045
 30
0.0
 10
1473.831225
 20
2254.531477
 30
0.0
  0
SPLINE
  5
58b
100
AcDbEntity
  8
0
 62
7
100
AcDbSpline
 70
8
 71
3
 72
8
 73
4
 74
0
 40
0
 40
0
 40
0
 40
0
 40
1
 40
1
 40
1
 40
1
 10
1489.849275
 20
2223.718770
 30
0.0
 10
1477.571475
 20
2211.408832
 30
0.0
 10
1466.738925
 20
2200.467217
 30
0.0
 10
1465.776675
 20
2199.404032
 30
0.0
  0
SPLINE
  5
58c
100
AcDbEntity
  8
0
 62
7
100
AcDbSpline
 70
8
 71
3
 72
8
 73
4
 74
0
 40
0
 40
0
 40
0
 40
0
 40
1
 40
1
 40
1
 40
1
 10
1465.776675
 20
2199.404032
 30
0.0
 10
1464.153150
 20
2197.609987
 30
0.0
 10
1464.926850
 20
2196.665107
 30
0.0
 10
1476.536400
 20
2186.263717
 30
0.0
  0
SPLINE
  5
58d
100
AcDbEntity
  8
0
 62
7
100
AcDbSpline
 70
8
 71
3
 72
8
 73
4
 74
0
 40
0
 40
0
 40
0
 40
0
 40
1
 40
1
 40
1
 40
1
 10
1476.536400
 20
2186.263717
 30
0.0
 10
1493.722125
 20
2170.866675
 30
0.0
 10
1516.446600
 20
2153.143642
 30
0.0
 10
1533.591375
 20
2141.766015
 30
0.0
  0
SPLINE
  5
58e
100
AcDbEntity
  8
0
 62
7
100
AcDbSpline
 70
8
 71
3
 72
8
 73
4
 74
0
 40
0
 40
0
 40
0
 40
0
 40
1
 40
1
 40
1
 40
1
 10
1533.591375
 20
2141.766015
 30
0.0
 10
1537.296750
 20
2139.307087
 30
0.0
 10
1540.215600
 20
2136.561967
 30
0.0
 10
1540.143975
 20
2135.603452
 30
0.0
  0
SPLINE
  5
58f
100
AcDbEntity
  8
0
 62
7
100
AcDbSpline
 70
8
 71
3
 72
8
 73
4
 74
0
 40
0
 40
0
 40
0
 40
0
 40
1
 40
1
 40
1
 40
1
 10
1540.143975
 20
2135.603452
 30
0.0
 10
1540.072725
 20
2134.652850
 30
0.0
 10
1531.929300
 20
2121.733627
 30
0.0
 10
1522.047300
 20
2106.894120
 30
0.0
  0
SPLINE
  5
590
100
AcDbEntity
  8
0
 62
7
100
AcDbSpline
 70
8
 71
3
 72
8
 73
4
 74
0
 40
0
 40
0
 40
0
 40
0
 40
1
 40
1
 40
1
 40
1
 10
1522.047300
 20
2106.894120
 30
0.0
 10
1512.165150
 20
2092.054537
 30
0.0
 10
1504.088550
 20
2079.582637
 30
0.0
 10
1504.099275
 20
2079.178620
 30
0.0
  0
SPLINE
  5
591
100
AcDbEntity
  8
0
 62
7
100
AcDbSpline
 70
8
 71
3
 72
8
 73
4
 74
0
 40
0
 40
0
 40
0
 40
0
 40
1
 40
1
 40
1
 40
1
 10
1504.099275
 20
2079.178620
 30
0.0
 10
1504.109775
 20
2078.774700
 30
0.0
 10
1507.492800
 20
2076.472342
 30
0.0
 10
1511.616300
 20
2074.062330
 30
0.0
  0
SPLINE
  5
592
100
AcDbEntity
  8
0
 62
7
100
AcDbSpline
 70
8
 71
3
 72
8
 73
4
 74
0
 40
0
 40
0
 40
0
 40
0
 40
1
 40
1
 40
1
 40
1
 10
1511.616300
 20
2074.062330
 30
0.0
 10
1515.740025
 20
2071.652302
 30
0.0
 10
1522.621875
 20
2067.589395
 30
0.0
 10
1526.909550
 20
2065.033590
 30
0.0
  0
SPLINE
  5
593
100
AcDbEntity
  8
0
 62
7
100
AcDbSpline
 70
8
 71
3
 72
8
 73
4
 74
0
 40
0
 40
0
 40
0
 40
0
 40
1
 40
1
 40
1
 40
1
 10
1526.909550
 20
2065.033590
 30
0.0
 10
1560.310050
 20
2045.123925
 30
0.0
 10
1607.298450
 20
2025.079282
 30
0.0
 10
1653.307725
 20
2011.113900
 30
0.0
  0
SPLINE
  5
594
100
AcDbEntity
  8
0
 62
7
100
AcDbSpline
 70
8
 71
3
 72
8
 73
4
 74
0
 40
0
 40
0
 40
0
 40
0
 40
1
 40
1
 40
1
 40
1
 10
1653.307725
 20
2011.113900
 30
0.0
 10
1656.702075
 20
2010.083550
 30
0.0
 10
1656.694725
 20
2007.535095
 30
0.0
 10
1653.264975
 20
1996.454700
 30
0.0
  0
SPLINE
  5
595
100
AcDbEntity
  8
0
 62
7
100
AcDbSpline
 70
8
 71
3
 72
8
 73
4
 74
0
 40
0
 40
0
 40
0
 40
0
 40
1
 40
1
 40
1
 40
1
 10
1653.264975
 20
1996.454700
 30
0.0
 10
1650.477225
 20
1987.447462
 30
0.0
 10
1653.367875
 20
1987.491007
 30
0.0
 10
1627.136850
 20
1996.060807
 30
0.0
  0
SPLINE
  5
596
100
AcDbEntity
  8
0
 62
7
100
AcDbSpline
 70
8
 71
3
 72
8
 73
4
 74
0
 40
0
 40
0
 40
0
 40
0
 40
1
 40
1
 40
1
 40
1
 10
1627.136850
 20
1996.060807
 30
0.0
 10
1575.360075
 20
2012.976465
 30
0.0
 10
1524.040125
 20
2038.253985
 30
0.0
 10
1476.723225
 20
2070.146542
 30
0.0
  0
SPLINE
  5
597
100
AcDbEntity
  8
0
 62
7
100
AcDbSpline
 70
8
 71
3
 72
8
 73
4
 74
0
 40
0
 40
0
 40
0
 40
0
 40
1
 40
1
 40
1
 40
1
 10
1476.723225
 20
2070.146542
 30
0.0
 10
1468.701900
 20
2075.553052
 30
0.0
 10
1437.286875
 20
2099.011342
 30
0.0
 10
1435.033800
 20
2101.276927
 30
0.0
  0
SPLINE
  5
598
100
AcDbEntity
  8
0
 62
7
100
AcDbSpline
 70
8
 71
3
 72
8
 73
4
 74
0
 40
0
 40
0
 40
0
 40
0
 40
1
 40
1
 40
1
 40
1
 10
1435.033800
 20
2101.276927
 30
0.0
 10
1434.727500
 20
2101.584847
 30
0.0
 10
1429.465500
 20
2106.151327
 30
0.0
 10
1423.340475
 20
2111.424750
 30
0.0
  0
SPLINE
  5
599
100
AcDbEntity
  8
0
 62
7
100
AcDbSpline
 70
8
 71
3
 72
8
 73
4
 74
0
 40
0
 40
0
 40
0
 40
0
 40
1
 40
1
 40
1
 40
1
 10
1423.340475
 20
2111.424750
 30
0.0
 10
1417.215450
 20
2116.698060
 30
0.0
 10
1405.689300
 20
2127.303825
 30
0.0
 10
1397.726775
 20
2134.993072
 30
0.0
  0
LWPOLYLINE
  5
59a
100
AcDbEntity
  8
0
 62
7
100
AcDbPolyline
 90
3
 70
0
 10
1510.074900
 20
2248.561267
 30
0.0
 10
1512.172275
 20
2246.100435
 30
0.0
 10
1489.849275
 20
2223.718770
 30
0.0
  0
SPLINE
  5
59b
100
AcDbEntity
  8
0
 62
7
100
AcDbSpline
 70
8
 71
3
 72
8
 73
4
 74
0
 40
0
 40
0
 40
0
 40
0
 40
1
 40
1
 40
1
 40
1
 10
1414.351725
 20
2149.864297
 30
0.0
 10
1430.591850
 20
2134.540372
 30
0.0
 10
1449.905850
 20
2117.750340
 30
0.0
 10
1461.279450
 20
2109.069292
 30
0.0
  0
SPLINE
  5
59c
100
AcDbEntity
  8
0
 62
7
100
AcDbSpline
 70
8
 71
3
 72
8
 73
4
 74
0
 40
0
 40
0
 40
0
 40
0
 40
1
 40
1
 40
1
 40
1
 10
1461.279450
 20
2109.069292
 30
0.0
 10
1474.254600
 20
2099.165677
 30
0.0
 10
1483.841475
 20
2092.365457
 30
0.0
 10
1484.764425
 20
2092.410675
 30
0.0
  0
SPLINE
  5
59d
100
AcDbEntity
  8
0
 62
7
100
AcDbSpline
 70
8
 71
3
 72
8
 73
4
 74
0
 40
0
 40
0
 40
0
 40
0
 40
1
 40
1
 40
1
 40
1
 10
1484.764425
 20
2092.410675
 30
0.0
 10
1485.740250
 20
2092.458525
 30
0.0
 10
1511.208975
 20
2130.235710
 30
0.0
 10
1510.567650
 20
2130.684165
 30
0.0
  0
SPLINE
  5
59e
100
AcDbEntity
  8
0
 62
7
100
AcDbSpline
 70
8
 71
3
 72
8
 73
4
 74
0
 40
0
 40
0
 40
0
 40
0
 40
1
 40
1
 40
1
 40
1
 10
1510.567650
 20
2130.684165
 30
0.0
 10
1467.011325
 20
2161.145362
 30
0.0
 10
1424.575050
 20
2202.026197
 30
0.0
 10
1392.549075
 20
2244.376665
 30
0.0
  0
SPLINE
  5
59f
100
AcDbEntity
  8
0
 62
7
100
AcDbSpline
 70
8
 71
3
 72
8
 73
4
 74
0
 40
0
 40
0
 40
0
 40
0
 40
1
 40
1
 40
1
 40
1
 10
1392.549075
 20
2244.376665
 30
0.0
 10
1349.799975
 20
2300.907060
 30
0.0
 10
1319.773200
 20
2363.319030
 30
0.0
 10
1301.695800
 20
2433.218970
 30
0.0
  0
LWPOLYLINE
  5
5a0
100
AcDbEntity
  8
0
 62
7
100
AcDbPolyline
 90
5
 70
0
 10
1397.726775
 20
2134.993072
 30
0.0
 10
1383.249525
 20
2148.973492
 30
0.0
 10
1390.965300
 20
2156.812185
 30
0.0
 10
1398.681075
 20
2164.650885
 30
0.0
 10
1414.351725
 20
2149.864297
 30
0.0
  0
SPLINE
  5
5a1
100
AcDbEntity
  8
0
 62
7
100
AcDbSpline
 70
8
 71
3
 72
8
 73
4
 74
0
 40
0
 40
0
 40
0
 40
0
 40
1
 40
1
 40
1
 40
1
 10
1275.226275
 20
2445.053370
 30
0.0
 10
1262.976225
 20
2442.636900
 30
0.0
 10
1252.746525
 20
2440.472760
 30
0.0
 10
1252.493475
 20
2440.244197
 30
0.0
  0
SPLINE
  5
5a2
100
AcDbEntity
  8
0
 62
7
100
AcDbSpline
 70
8
 71
3
 72
8
 73
4
 74
0
 40
0
 40
0
 40
0
 40
0
 40
1
 40
1
 40
1
 40
1
 10
1252.493475
 20
2440.244197
 30
0.0
 10
1251.899850
 20
2439.707962
 30
0.0
 10
1257.553650
 20
2415.509212
 30
0.0
 10
1260.137850
 20
2407.525042
 30
0.0
  0
SPLINE
  5
5a3
100
AcDbEntity
  8
0
 62
7
100
AcDbSpline
 70
8
 71
3
 72
8
 73
4
 74
0
 40
0
 40
0
 40
0
 40
0
 40
1
 40
1
 40
1
 40
1
 10
1260.137850
 20
2407.525042
 30
0.0
 10
1263.362775
 20
2397.561300
 30
0.0
 10
1266.141375
 20
2386.375620
 30
0.0
 10
1265.540475
 20
2385.774810
 30
0.0
  0
SPLINE
  5
5a4
100
AcDbEntity
  8
0
 62
7
100
AcDbSpline
 70
8
 71
3
 72
8
 73
4
 74
0
 40
0
 40
0
 40
0
 40
0
 40
1
 40
1
 40
1
 40
1
 10
1265.540475
 20
2385.774810
 30
0.0
 10
1264.768650
 20
2385.003015
 30
0.0
 10
1245.550950
 20
2379.476632
 30
0.0
 10
1245.123975
 20
2379.903682
 30
0.0
  0
SPLINE
  5
5a5
100
AcDbEntity
  8
0
 62
7
100
AcDbSpline
 70
8
 71
3
 72
8
 73
4
 74
0
 40
0
 40
0
 40
0
 40
0
 40
1
 40
1
 40
1
 40
1
 10
1245.123975
 20
2379.903682
 30
0.0
 10
1244.274150
 20
2380.753365
 30
0.0
 10
1236.508800
 20
2408.503275
 30
0.0
 10
1232.933625
 20
2423.466157
 30
0.0
  0
SPLINE
  5
5a6
100
AcDbEntity
  8
0
 62
7
100
AcDbSpline
 70
8
 71
3
 72
8
 73
4
 74
0
 40
0
 40
0
 40
0
 40
0
 40
1
 40
1
 40
1
 40
1
 10
1232.933625
 20
2423.466157
 30
0.0
 10
1225.962225
 20
2452.642200
 30
0.0
 10
1219.900275
 20
2489.672548
 30
0.0
 10
1218.771225
 20
2509.979995
 30
0.0
  0
LWPOLYLINE
  5
5a7
100
AcDbEntity
  8
0
 62
7
100
AcDbPolyline
 90
3
 70
0
 10
1301.695800
 20
2433.218970
 30
0.0
 10
1297.499100
 20
2449.446960
 30
0.0
 10
1275.226275
 20
2445.053370
 30
0.0
  0
SPLINE
  5
5a8
100
AcDbEntity
  8
0
 62
7
100
AcDbSpline
 70
8
 71
3
 72
8
 73
4
 74
0
 40
0
 40
0
 40
0
 40
0
 40
1
 40
1
 40
1
 40
1
 10
1228.762050
 20
2517.095584
 30
0.0
 10
1234.444425
 20
2517.640388
 30
0.0
 10
1239.390300
 20
2517.789376
 30
0.0
 10
1239.752925
 20
2517.426685
 30
0.0
  0
SPLINE
  5
5a9
100
AcDbEntity
  8
0
 62
7
100
AcDbSpline
 70
8
 71
3
 72
8
 73
4
 74
0
 40
0
 40
0
 40
0
 40
0
 40
1
 40
1
 40
1
 40
1
 10
1239.752925
 20
2517.426685
 30
0.0
 10
1240.115625
 20
2517.063986
 30
0.0
 10
1241.100450
 20
2509.852873
 30
0.0
 10
1241.941350
 20
2501.401976
 30
0.0
  0
SPLINE
  5
5aa
100
AcDbEntity
  8
0
 62
7
100
AcDbSpline
 70
8
 71
3
 72
8
 73
4
 74
0
 40
0
 40
0
 40
0
 40
0
 40
1
 40
1
 40
1
 40
1
 10
1241.941350
 20
2501.401976
 30
0.0
 10
1242.782250
 20
2492.951080
 30
0.0
 10
1244.373450
 20
2480.774768
 30
0.0
 10
1245.477225
 20
2474.343495
 30
0.0
  0
SPLINE
  5
5ab
100
AcDbEntity
  8
0
 62
7
100
AcDbSpline
 70
8
 71
3
 72
8
 73
4
 74
0
 40
0
 40
0
 40
0
 40
0
 40
1
 40
1
 40
1
 40
1
 10
1245.477225
 20
2474.343495
 30
0.0
 10
1247.249700
 20
2464.015312
 30
0.0
 10
1247.738250
 20
2462.673412
 30
0.0
 10
1249.662000
 20
2462.848590
 30
0.0
  0
SPLINE
  5
5ac
100
AcDbEntity
  8
0
 62
7
100
AcDbSpline
 70
8
 71
3
 72
8
 73
4
 74
0
 40
0
 40
0
 40
0
 40
0
 40
1
 40
1
 40
1
 40
1
 10
1249.662000
 20
2462.848590
 30
0.0
 10
1250.859750
 20
2462.957617
 30
0.0
 10
1261.245525
 20
2464.914015
 30
0.0
 10
1272.741300
 20
2467.196032
 30
0.0
  0
SPLINE
  5
5ad
100
AcDbEntity
  8
0
 62
7
100
AcDbSpline
 70
8
 71
3
 72
8
 73
4
 74
0
 40
0
 40
0
 40
0
 40
0
 40
1
 40
1
 40
1
 40
1
 10
1272.741300
 20
2467.196032
 30
0.0
 10
1290.222975
 20
2470.666312
 30
0.0
 10
1293.557850
 20
2471.635987
 30
0.0
 10
1293.123975
 20
2473.122727
 30
0.0
  0
SPLINE
  5
5ae
100
AcDbEntity
  8
0
 62
7
100
AcDbSpline
 70
8
 71
3
 72
8
 73
4
 74
0
 40
0
 40
0
 40
0
 40
0
 40
1
 40
1
 40
1
 40
1
 10
1293.123975
 20
2473.122727
 30
0.0
 10
1290.606975
 20
2481.748988
 30
0.0
 10
1285.830450
 20
2527.125601
 30
0.0
 10
1285.815375
 20
2542.553990
 30
0.0
  0
LWPOLYLINE
  5
5af
100
AcDbEntity
  8
0
 62
7
100
AcDbPolyline
 90
3
 70
0
 10
1218.771225
 20
2509.979995
 30
0.0
 10
1218.430500
 20
2516.105017
 30
0.0
 10
1228.762050
 20
2517.095584
 30
0.0
  0
SPLINE
  5
5b0
100
AcDbEntity
  8
0
 62
7
100
AcDbSpline
 70
8
 71
3
 72
8
 73
4
 74
0
 40
0
 40
0
 40
0
 40
0
 40
1
 40
1
 40
1
 40
1
 10
1286.194425
 20
2593.224806
 30
0.0
 10
1286.902575
 20
2611.109569
 30
0.0
 10
1291.047900
 20
2644.420597
 30
0.0
 10
1295.344425
 20
2666.751240
 30
0.0
  0
SPLINE
  5
5b1
100
AcDbEntity
  8
0
 62
7
100
AcDbSpline
 70
8
 71
3
 72
8
 73
4
 74
0
 40
0
 40
0
 40
0
 40
0
 40
1
 40
1
 40
1
 40
1
 10
1295.344425
 20
2666.751240
 30
0.0
 10
1296.828300
 20
2674.463302
 30
0.0
 10
1297.754025
 20
2677.026278
 30
0.0
 10
1299.055575
 20
2677.026278
 30
0.0
  0
SPLINE
  5
5b2
100
AcDbEntity
  8
0
 62
7
100
AcDbSpline
 70
8
 71
3
 72
8
 73
4
 74
0
 40
0
 40
0
 40
0
 40
0
 40
1
 40
1
 40
1
 40
1
 10
1299.055575
 20
2677.026278
 30
0.0
 10
1300.813275
 20
2677.026278
 30
0.0
 10
1318.350150
 20
2673.516323
 30
0.0
 10
1319.026500
 20
2673.029130
 30
0.0
  0
SPLINE
  5
5b3
100
AcDbEntity
  8
0
 62
7
100
AcDbSpline
 70
8
 71
3
 72
8
 73
4
 74
0
 40
0
 40
0
 40
0
 40
0
 40
1
 40
1
 40
1
 40
1
 10
1319.026500
 20
2673.029130
 30
0.0
 10
1319.228850
 20
2672.883450
 30
0.0
 10
1318.371675
 20
2667.584272
 30
0.0
 10
1317.121950
 20
2661.253177
 30
0.0
  0
SPLINE
  5
5b4
100
AcDbEntity
  8
0
 62
7
100
AcDbSpline
 70
8
 71
3
 72
8
 73
4
 74
0
 40
0
 40
0
 40
0
 40
0
 40
1
 40
1
 40
1
 40
1
 10
1317.121950
 20
2661.253177
 30
0.0
 10
1314.172950
 20
2646.313665
 30
0.0
 10
1310.607150
 20
2620.808089
 30
0.0
 10
1309.207050
 20
2604.639625
 30
0.0
  0
SPLINE
  5
5b5
100
AcDbEntity
  8
0
 62
7
100
AcDbSpline
 70
8
 71
3
 72
8
 73
4
 74
0
 40
0
 40
0
 40
0
 40
0
 40
1
 40
1
 40
1
 40
1
 10
1309.207050
 20
2604.639625
 30
0.0
 10
1307.777025
 20
2588.122829
 30
0.0
 10
1307.777325
 20
2538.741429
 30
0.0
 10
1309.207725
 20
2522.230206
 30
0.0
  0
SPLINE
  5
5b6
100
AcDbEntity
  8
0
 62
7
100
AcDbSpline
 70
8
 71
3
 72
8
 73
4
 74
0
 40
0
 40
0
 40
0
 40
0
 40
1
 40
1
 40
1
 40
1
 10
1309.207725
 20
2522.230206
 30
0.0
 10
1310.134875
 20
2511.528304
 30
0.0
 10
1314.640500
 20
2476.412647
 30
0.0
 10
1315.160025
 20
2475.840113
 30
0.0
  0
SPLINE
  5
5b7
100
AcDbEntity
  8
0
 62
7
100
AcDbSpline
 70
8
 71
3
 72
8
 73
4
 74
0
 40
0
 40
0
 40
0
 40
0
 40
1
 40
1
 40
1
 40
1
 10
1315.160025
 20
2475.840113
 30
0.0
 10
1315.405200
 20
2475.569880
 30
0.0
 10
1427.742300
 20
2497.964201
 30
0.0
 10
1428.208350
 20
2498.376203
 30
0.0
  0
SPLINE
  5
5b8
100
AcDbEntity
  8
0
 62
7
100
AcDbSpline
 70
8
 71
3
 72
8
 73
4
 74
0
 40
0
 40
0
 40
0
 40
0
 40
1
 40
1
 40
1
 40
1
 10
1428.208350
 20
2498.376203
 30
0.0
 10
1428.435300
 20
2498.576916
 30
0.0
 10
1427.806575
 20
2504.402024
 30
0.0
 10
1426.811025
 20
2511.320900
 30
0.0
  0
SPLINE
  5
5b9
100
AcDbEntity
  8
0
 62
7
100
AcDbSpline
 70
8
 71
3
 72
8
 73
4
 74
0
 40
0
 40
0
 40
0
 40
0
 40
1
 40
1
 40
1
 40
1
 10
1426.811025
 20
2511.320900
 30
0.0
 10
1424.762850
 20
2525.557230
 30
0.0
 10
1422.825450
 20
2551.675359
 30
0.0
 10
1422.800625
 20
2565.383783
 30
0.0
  0
LWPOLYLINE
  5
5ba
100
AcDbEntity
  8
0
 62
7
100
AcDbPolyline
 90
9
 70
0
 10
1285.815375
 20
2542.553990
 30
0.0
 10
1285.806375
 20
2552.298349
 30
0.0
 10
1252.953900
 20
2552.298349
 30
0.0
 10
1220.101575
 20
2552.298349
 30
0.0
 10
1220.101575
 20
2563.434914
 30
0.0
 10
1220.101575
 20
2574.571321
 30
0.0
 10
1252.778700
 20
2574.571321
 30
0.0
 10
1285.455825
 20
2574.571321
 30
0.0
 10
1286.194425
 20
2593.224806
 30
0.0
  0
SPLINE
  5
5bb
100
AcDbEntity
  8
0
 62
7
100
AcDbSpline
 70
8
 71
3
 72
8
 73
4
 74
0
 40
0
 40
0
 40
0
 40
0
 40
1
 40
1
 40
1
 40
1
 10
1445.991675
 20
2548.679169
 30
0.0
 10
1447.330725
 20
2523.919718
 30
0.0
 10
1449.400650
 20
2505.264600
 30
0.0
 10
1450.984500
 20
2503.680685
 30
0.0
  0
SPLINE
  5
5bc
100
AcDbEntity
  8
0
 62
7
100
AcDbSpline
 70
8
 71
3
 72
8
 73
4
 74
0
 40
0
 40
0
 40
0
 40
0
 40
1
 40
1
 40
1
 40
1
 10
1450.984500
 20
2503.680685
 30
0.0
 10
1451.829000
 20
2502.836326
 30
0.0
 10
1495.006800
 20
2511.042307
 30
0.0
 10
1495.710525
 20
2512.180878
 30
0.0
  0
SPLINE
  5
5bd
100
AcDbEntity
  8
0
 62
7
100
AcDbSpline
 70
8
 71
3
 72
8
 73
4
 74
0
 40
0
 40
0
 40
0
 40
0
 40
1
 40
1
 40
1
 40
1
 10
1495.710525
 20
2512.180878
 30
0.0
 10
1495.963500
 20
2512.590259
 30
0.0
 10
1495.702275
 20
2516.146395
 30
0.0
 10
1495.133175
 20
2520.083395
 30
0.0
  0
SPLINE
  5
5be
100
AcDbEntity
  8
0
 62
7
100
AcDbSpline
 70
8
 71
3
 72
8
 73
4
 74
0
 40
0
 40
0
 40
0
 40
0
 40
1
 40
1
 40
1
 40
1
 10
1495.133175
 20
2520.083395
 30
0.0
 10
1488.599400
 20
2565.175526
 30
0.0
 10
1493.775450
 20
2621.051195
 30
0.0
 10
1508.479125
 20
2664.149902
 30
0.0
  0
SPLINE
  5
5bf
100
AcDbEntity
  8
0
 62
7
100
AcDbSpline
 70
8
 71
3
 72
8
 73
4
 74
0
 40
0
 40
0
 40
0
 40
0
 40
1
 40
1
 40
1
 40
1
 10
1508.479125
 20
2664.149902
 30
0.0
 10
1510.346550
 20
2669.624197
 30
0.0
 10
1511.874675
 20
2674.692780
 30
0.0
 10
1511.874675
 20
2675.413425
 30
0.0
  0
SPLINE
  5
5c0
100
AcDbEntity
  8
0
 62
7
100
AcDbSpline
 70
8
 71
3
 72
8
 73
4
 74
0
 40
0
 40
0
 40
0
 40
0
 40
1
 40
1
 40
1
 40
1
 10
1511.874675
 20
2675.413425
 30
0.0
 10
1511.874675
 20
2676.134062
 30
0.0
 10
1509.494250
 20
2677.610985
 30
0.0
 10
1506.585000
 20
2678.695447
 30
0.0
  0
SPLINE
  5
5c1
100
AcDbEntity
  8
0
 62
7
100
AcDbSpline
 70
8
 71
3
 72
8
 73
4
 74
0
 40
0
 40
0
 40
0
 40
0
 40
1
 40
1
 40
1
 40
1
 10
1506.585000
 20
2678.695447
 30
0.0
 10
1503.675450
 20
2679.779940
 30
0.0
 10
1499.290575
 20
2681.546992
 30
0.0
 10
1496.840550
 20
2682.622267
 30
0.0
  0
SPLINE
  5
5c2
100
AcDbEntity
  8
0
 62
7
100
AcDbSpline
 70
8
 71
3
 72
8
 73
4
 74
0
 40
0
 40
0
 40
0
 40
0
 40
1
 40
1
 40
1
 40
1
 10
1496.840550
 20
2682.622267
 30
0.0
 10
1484.813700
 20
2687.900648
 30
0.0
 10
1469.448225
 20
2693.987512
 30
0.0
 10
1469.117850
 20
2693.604383
 30
0.0
  0
SPLINE
  5
5c3
100
AcDbEntity
  8
0
 62
7
100
AcDbSpline
 70
8
 71
3
 72
8
 73
4
 74
0
 40
0
 40
0
 40
0
 40
0
 40
1
 40
1
 40
1
 40
1
 10
1469.117850
 20
2693.604383
 30
0.0
 10
1468.492575
 20
2692.879327
 30
0.0
 10
1460.871075
 20
2669.181938
 30
0.0
 10
1458.413850
 20
2660.321670
 30
0.0
  0
SPLINE
  5
5c4
100
AcDbEntity
  8
0
 62
7
100
AcDbSpline
 70
8
 71
3
 72
8
 73
4
 74
0
 40
0
 40
0
 40
0
 40
0
 40
1
 40
1
 40
1
 40
1
 10
1458.413850
 20
2660.321670
 30
0.0
 10
1457.139675
 20
2655.727897
 30
0.0
 10
1454.862075
 20
2645.993730
 30
0.0
 10
1453.352475
 20
2638.690170
 30
0.0
  0
SPLINE
  5
5c5
100
AcDbEntity
  8
0
 62
7
100
AcDbSpline
 70
8
 71
3
 72
8
 73
4
 74
0
 40
0
 40
0
 40
0
 40
0
 40
1
 40
1
 40
1
 40
1
 10
1453.352475
 20
2638.690170
 30
0.0
 10
1451.842950
 20
2631.386617
 30
0.0
 10
1450.402950
 20
2625.206128
 30
0.0
 10
1450.152600
 20
2624.955715
 30
0.0
  0
SPLINE
  5
5c6
100
AcDbEntity
  8
0
 62
7
100
AcDbSpline
 70
8
 71
3
 72
8
 73
4
 74
0
 40
0
 40
0
 40
0
 40
0
 40
1
 40
1
 40
1
 40
1
 10
1450.152600
 20
2624.955715
 30
0.0
 10
1449.747900
 20
2624.551045
 30
0.0
 10
1433.099400
 20
2627.512340
 30
0.0
 10
1429.862400
 20
2628.564784
 30
0.0
  0
SPLINE
  5
5c7
100
AcDbEntity
  8
0
 62
7
100
AcDbSpline
 70
8
 71
3
 72
8
 73
4
 74
0
 40
0
 40
0
 40
0
 40
0
 40
1
 40
1
 40
1
 40
1
 10
1429.862400
 20
2628.564784
 30
0.0
 10
1428.343200
 20
2629.058670
 30
0.0
 10
1430.146725
 20
2639.679802
 30
0.0
 10
1435.065975
 20
2659.208025
 30
0.0
  0
SPLINE
  5
5c8
100
AcDbEntity
  8
0
 62
7
100
AcDbSpline
 70
8
 71
3
 72
8
 73
4
 74
0
 40
0
 40
0
 40
0
 40
0
 40
1
 40
1
 40
1
 40
1
 10
1435.065975
 20
2659.208025
 30
0.0
 10
1450.285125
 20
2719.624755
 30
0.0
 10
1479.524475
 20
2774.673150
 30
0.0
 10
1522.087350
 20
2823.040402
 30
0.0
  0
LWPOLYLINE
  5
5c9
100
AcDbEntity
  8
0
 62
7
100
AcDbPolyline
 90
5
 70
0
 10
1422.800625
 20
2565.383783
 30
0.0
 10
1422.783375
 20
2574.571321
 30
0.0
 10
1433.687400
 20
2574.571321
 30
0.0
 10
1444.591350
 20
2574.571321
 30
0.0
 10
1445.991675
 20
2548.679169
 30
0.0
  0
SPLINE
  5
5ca
100
AcDbEntity
  8
0
 62
7
100
AcDbSpline
 70
8
 71
3
 72
8
 73
4
 74
0
 40
0
 40
0
 40
0
 40
0
 40
1
 40
1
 40
1
 40
1
 10
1555.863600
 20
2856.474817
 30
0.0
 10
1568.271000
 20
2867.475188
 30
0.0
 10
1586.770350
 20
2881.519395
 30
0.0
 10
1601.763225
 20
2891.320312
 30
0.0
  0
SPLINE
  5
5cb
100
AcDbEntity
  8
0
 62
7
100
AcDbSpline
 70
8
 71
3
 72
8
 73
4
 74
0
 40
0
 40
0
 40
0
 40
0
 40
1
 40
1
 40
1
 40
1
 10
1601.763225
 20
2891.320312
 30
0.0
 10
1614.071925
 20
2899.366590
 30
0.0
 10
1643.821800
 20
2915.717670
 30
0.0
 10
1649.687850
 20
2917.660372
 30
0.0
  0
SPLINE
  5
5cc
100
AcDbEntity
  8
0
 62
7
100
AcDbSpline
 70
8
 71
3
 72
8
 73
4
 74
0
 40
0
 40
0
 40
0
 40
0
 40
1
 40
1
 40
1
 40
1
 10
1649.687850
 20
2917.660372
 30
0.0
 10
1651.678425
 20
2918.319660
 30
0.0
 10
1653.307200
 20
2919.454282
 30
0.0
 10
1653.307200
 20
2920.181745
 30
0.0
  0
SPLINE
  5
5cd
100
AcDbEntity
  8
0
 62
7
100
AcDbSpline
 70
8
 71
3
 72
8
 73
4
 74
0
 40
0
 40
0
 40
0
 40
0
 40
1
 40
1
 40
1
 40
1
 10
1653.307200
 20
2920.181745
 30
0.0
 10
1653.307200
 20
2920.909230
 30
0.0
 10
1647.531750
 20
2935.474688
 30
0.0
 10
1640.473050
 20
2952.549413
 30
0.0
  0
SPLINE
  5
5ce
100
AcDbEntity
  8
0
 62
7
100
AcDbSpline
 70
8
 71
3
 72
8
 73
4
 74
0
 40
0
 40
0
 40
0
 40
0
 40
1
 40
1
 40
1
 40
1
 10
1640.473050
 20
2952.549413
 30
0.0
 10
1633.414350
 20
2969.624145
 30
0.0
 10
1627.776600
 20
2983.702387
 30
0.0
 10
1627.944600
 20
2983.834380
 30
0.0
  0
SPLINE
  5
5cf
100
AcDbEntity
  8
0
 62
7
100
AcDbSpline
 70
8
 71
3
 72
8
 73
4
 74
0
 40
0
 40
0
 40
0
 40
0
 40
1
 40
1
 40
1
 40
1
 10
1627.944600
 20
2983.834380
 30
0.0
 10
1629.287850
 20
2984.889375
 30
0.0
 10
1661.941425
 20
2997.170970
 30
0.0
 10
1671.682200
 20
3000.284880
 30
0.0
  0
SPLINE
  5
5d0
100
AcDbEntity
  8
0
 62
7
100
AcDbSpline
 70
8
 71
3
 72
8
 73
4
 74
0
 40
0
 40
0
 40
0
 40
0
 40
1
 40
1
 40
1
 40
1
 10
1671.682200
 20
3000.284880
 30
0.0
 10
1715.915325
 20
3014.425207
 30
0.0
 10
1753.827450
 20
3020.878725
 30
0.0
 10
1798.915650
 20
3021.943012
 30
0.0
  0
LWPOLYLINE
  5
5d1
100
AcDbEntity
  8
0
 62
7
100
AcDbPolyline
 90
9
 70
0
 10
1522.087350
 20
2823.040402
 30
0.0
 10
1529.549175
 20
2831.519873
 30
0.0
 10
1506.699075
 20
2854.293240
 30
0.0
 10
1483.849125
 20
2877.066638
 30
0.0
 10
1491.928800
 20
2885.146328
 30
0.0
 10
1500.008625
 20
2893.226018
 30
0.0
 10
1522.924650
 20
2870.407312
 30
0.0
 10
1545.840750
 20
2847.588607
 30
0.0
 10
1555.863600
 20
2856.474817
 30
0.0
  0
SPLINE
  5
5d2
100
AcDbEntity
  8
0
 62
7
100
AcDbSpline
 70
8
 71
3
 72
8
 73
4
 74
0
 40
0
 40
0
 40
0
 40
0
 40
1
 40
1
 40
1
 40
1
 10
1798.915650
 20
2999.643713
 30
0.0
 10
1753.380750
 20
2998.493745
 30
0.0
 10
1716.865725
 20
2991.960202
 30
0.0
 10
1671.910875
 20
2976.919133
 30
0.0
  0
SPLINE
  5
5d3
100
AcDbEntity
  8
0
 62
7
100
AcDbSpline
 70
8
 71
3
 72
8
 73
4
 74
0
 40
0
 40
0
 40
0
 40
0
 40
1
 40
1
 40
1
 40
1
 10
1671.910875
 20
2976.919133
 30
0.0
 10
1662.835350
 20
2973.882645
 30
0.0
 10
1656.755475
 20
2971.283565
 30
0.0
 10
1657.054125
 20
2970.568087
 30
0.0
  0
SPLINE
  5
5d4
100
AcDbEntity
  8
0
 62
7
100
AcDbSpline
 70
8
 71
3
 72
8
 73
4
 74
0
 40
0
 40
0
 40
0
 40
0
 40
1
 40
1
 40
1
 40
1
 10
1657.054125
 20
2970.568087
 30
0.0
 10
1657.332150
 20
2969.901990
 30
0.0
 10
1660.913700
 20
2961.338775
 30
0.0
 10
1665.013125
 20
2951.538742
 30
0.0
  0
SPLINE
  5
5d5
100
AcDbEntity
  8
0
 62
7
100
AcDbSpline
 70
8
 71
3
 72
8
 73
4
 74
0
 40
0
 40
0
 40
0
 40
0
 40
1
 40
1
 40
1
 40
1
 10
1665.013125
 20
2951.538742
 30
0.0
 10
1669.112475
 20
2941.738695
 30
0.0
 10
1674.113250
 20
2929.711372
 30
0.0
 10
1676.126250
 20
2924.811360
 30
0.0
  0
SPLINE
  5
5d6
100
AcDbEntity
  8
0
 62
7
100
AcDbSpline
 70
8
 71
3
 72
8
 73
4
 74
0
 40
0
 40
0
 40
0
 40
0
 40
1
 40
1
 40
1
 40
1
 10
1676.126250
 20
2924.811360
 30
0.0
 10
1678.139025
 20
2919.911332
 30
0.0
 10
1681.761150
 20
2911.141410
 30
0.0
 10
1684.175175
 20
2905.322648
 30
0.0
  0
SPLINE
  5
5d7
100
AcDbEntity
  8
0
 62
7
100
AcDbSpline
 70
8
 71
3
 72
8
 73
4
 74
0
 40
0
 40
0
 40
0
 40
0
 40
1
 40
1
 40
1
 40
1
 10
1684.175175
 20
2905.322648
 30
0.0
 10
1686.589350
 20
2899.503878
 30
0.0
 10
1691.245650
 20
2888.228257
 30
0.0
 10
1694.522700
 20
2880.265725
 30
0.0
  0
SPLINE
  5
5d8
100
AcDbEntity
  8
0
 62
7
100
AcDbSpline
 70
8
 71
3
 72
8
 73
4
 74
0
 40
0
 40
0
 40
0
 40
0
 40
1
 40
1
 40
1
 40
1
 10
1694.522700
 20
2880.265725
 30
0.0
 10
1697.799675
 20
2872.303200
 30
0.0
 10
1700.636775
 20
2865.584010
 30
0.0
 10
1700.827500
 20
2865.334200
 30
0.0
  0
SPLINE
  5
5d9
100
AcDbEntity
  8
0
 62
7
100
AcDbSpline
 70
8
 71
3
 72
8
 73
4
 74
0
 40
0
 40
0
 40
0
 40
0
 40
1
 40
1
 40
1
 40
1
 10
1700.827500
 20
2865.334200
 30
0.0
 10
1701.018075
 20
2865.084397
 30
0.0
 10
1706.315175
 20
2866.538175
 30
0.0
 10
1712.598675
 20
2868.564833
 30
0.0
  0
SPLINE
  5
5da
100
AcDbEntity
  8
0
 62
7
100
AcDbSpline
 70
8
 71
3
 72
8
 73
4
 74
0
 40
0
 40
0
 40
0
 40
0
 40
1
 40
1
 40
1
 40
1
 10
1712.598675
 20
2868.564833
 30
0.0
 10
1718.882250
 20
2870.591490
 30
0.0
 10
1727.451150
 20
2873.137920
 30
0.0
 10
1731.640725
 20
2874.223590
 30
0.0
  0
SPLINE
  5
5db
100
AcDbEntity
  8
0
 62
7
100
AcDbSpline
 70
8
 71
3
 72
8
 73
4
 74
0
 40
0
 40
0
 40
0
 40
0
 40
1
 40
1
 40
1
 40
1
 10
1731.640725
 20
2874.223590
 30
0.0
 10
1735.830375
 20
2875.309253
 30
0.0
 10
1739.454375
 20
2876.393648
 30
0.0
 10
1739.694075
 20
2876.633362
 30
0.0
  0
SPLINE
  5
5dc
100
AcDbEntity
  8
0
 62
7
100
AcDbSpline
 70
8
 71
3
 72
8
 73
4
 74
0
 40
0
 40
0
 40
0
 40
0
 40
1
 40
1
 40
1
 40
1
 10
1739.694075
 20
2876.633362
 30
0.0
 10
1739.933775
 20
2876.873077
 30
0.0
 10
1737.099975
 20
2891.996610
 30
0.0
 10
1733.396475
 20
2910.241237
 30
0.0
  0
SPLINE
  5
5dd
100
AcDbEntity
  8
0
 62
7
100
AcDbSpline
 70
8
 71
3
 72
8
 73
4
 74
0
 40
0
 40
0
 40
0
 40
0
 40
1
 40
1
 40
1
 40
1
 10
1733.396475
 20
2910.241237
 30
0.0
 10
1729.693050
 20
2928.485843
 30
0.0
 10
1726.939950
 20
2943.690180
 30
0.0
 10
1727.278425
 20
2944.028632
 30
0.0
  0
SPLINE
  5
5de
100
AcDbEntity
  8
0
 62
7
100
AcDbSpline
 70
8
 71
3
 72
8
 73
4
 74
0
 40
0
 40
0
 40
0
 40
0
 40
1
 40
1
 40
1
 40
1
 10
1727.278425
 20
2944.028632
 30
0.0
 10
1729.163325
 20
2945.913532
 30
0.0
 10
1770.568875
 20
2951.987482
 30
0.0
 10
1789.615650
 20
2953.173128
 30
0.0
  0
SPLINE
  5
5df
100
AcDbEntity
  8
0
 62
7
100
AcDbSpline
 70
8
 71
3
 72
8
 73
4
 74
0
 40
0
 40
0
 40
0
 40
0
 40
1
 40
1
 40
1
 40
1
 10
1789.615650
 20
2953.173128
 30
0.0
 10
1804.400775
 20
2954.093498
 30
0.0
 10
1836.988125
 20
2953.761983
 30
0.0
 10
1848.194250
 20
2952.577200
 30
0.0
  0
SPLINE
  5
5e0
100
AcDbEntity
  8
0
 62
7
100
AcDbSpline
 70
8
 71
3
 72
8
 73
4
 74
0
 40
0
 40
0
 40
0
 40
0
 40
1
 40
1
 40
1
 40
1
 10
1848.194250
 20
2952.577200
 30
0.0
 10
1851.563025
 20
2952.221025
 30
0.0
 10
1859.745000
 20
2951.170207
 30
0.0
 10
1866.376500
 20
2950.242007
 30
0.0
  0
SPLINE
  5
5e1
100
AcDbEntity
  8
0
 62
7
100
AcDbSpline
 70
8
 71
3
 72
8
 73
4
 74
0
 40
0
 40
0
 40
0
 40
0
 40
1
 40
1
 40
1
 40
1
 10
1866.376500
 20
2950.242007
 30
0.0
 10
1873.007925
 20
2949.313837
 30
0.0
 10
1878.592050
 20
2948.724758
 30
0.0
 10
1878.785550
 20
2948.932935
 30
0.0
  0
SPLINE
  5
5e2
100
AcDbEntity
  8
0
 62
7
100
AcDbSpline
 70
8
 71
3
 72
8
 73
4
 74
0
 40
0
 40
0
 40
0
 40
0
 40
1
 40
1
 40
1
 40
1
 10
1878.785550
 20
2948.932935
 30
0.0
 10
1878.979200
 20
2949.141128
 30
0.0
 10
1881.481650
 20
2961.088207
 30
0.0
 10
1884.346725
 20
2975.482020
 30
0.0
  0
SPLINE
  5
5e3
100
AcDbEntity
  8
0
 62
7
100
AcDbSpline
 70
8
 71
3
 72
8
 73
4
 74
0
 40
0
 40
0
 40
0
 40
0
 40
1
 40
1
 40
1
 40
1
 10
1884.346725
 20
2975.482020
 30
0.0
 10
1887.211725
 20
2989.875832
 30
0.0
 10
1890.049575
 20
3003.969457
 30
0.0
 10
1890.653100
 20
3006.801180
 30
0.0
  0
LWPOLYLINE
  5
5e4
100
AcDbEntity
  8
0
 62
7
100
AcDbPolyline
 90
5
 70
0
 10
1798.915650
 20
3021.943012
 30
0.0
 10
1824.807825
 20
3022.554187
 30
0.0
 10
1824.807825
 20
3011.425890
 30
0.0
 10
1824.807825
 20
3000.297608
 30
0.0
 10
1798.915650
 20
2999.643713
 30
0.0
  0
SPLINE
  5
5e5
100
AcDbEntity
  8
0
 62
7
100
AcDbSpline
 70
8
 71
3
 72
8
 73
4
 74
0
 40
0
 40
0
 40
0
 40
0
 40
1
 40
1
 40
1
 40
1
 10
1899.205350
 20
3010.488892
 30
0.0
 10
1903.305600
 20
3009.685410
 30
0.0
 10
1908.201150
 20
3008.701597
 30
0.0
 10
1910.084325
 20
3008.302672
 30
0.0
  0
LWPOLYLINE
  5
5e6
100
AcDbEntity
  8
0
 62
7
100
AcDbPolyline
 90
3
 70
0
 10
1890.653100
 20
3006.801180
 30
0.0
 10
1891.750200
 20
3011.949780
 30
0.0
 10
1899.205350
 20
3010.488892
 30
0.0
  0
SPLINE
  5
5e7
100
AcDbEntity
  8
0
 62
7
100
AcDbSpline
 70
8
 71
3
 72
8
 73
4
 74
0
 40
0
 40
0
 40
0
 40
0
 40
1
 40
1
 40
1
 40
1
 10
1907.675175
 20
2978.851785
 30
0.0
 10
1904.467125
 20
2963.052727
 30
0.0
 10
1901.673525
 20
2948.740058
 30
0.0
 10
1901.467200
 20
2947.045867
 30
0.0
  0
SPLINE
  5
5e8
100
AcDbEntity
  8
0
 62
7
100
AcDbSpline
 70
8
 71
3
 72
8
 73
4
 74
0
 40
0
 40
0
 40
0
 40
0
 40
1
 40
1
 40
1
 40
1
 10
1901.467200
 20
2947.045867
 30
0.0
 10
1901.096625
 20
2944.001670
 30
0.0
 10
1901.236050
 20
2943.928792
 30
0.0
 10
1913.342250
 20
2940.836970
 30
0.0
  0
SPLINE
  5
5e9
100
AcDbEntity
  8
0
 62
7
100
AcDbSpline
 70
8
 71
3
 72
8
 73
4
 74
0
 40
0
 40
0
 40
0
 40
0
 40
1
 40
1
 40
1
 40
1
 10
1913.342250
 20
2940.836970
 30
0.0
 10
1920.079800
 20
2939.116268
 30
0.0
 10
1931.581350
 20
2935.683982
 30
0.0
 10
1938.901200
 20
2933.209658
 30
0.0
  0
SPLINE
  5
5ea
100
AcDbEntity
  8
0
 62
7
100
AcDbSpline
 70
8
 71
3
 72
8
 73
4
 74
0
 40
0
 40
0
 40
0
 40
0
 40
1
 40
1
 40
1
 40
1
 10
1938.901200
 20
2933.209658
 30
0.0
 10
1946.221125
 20
2930.735325
 30
0.0
 10
1952.576775
 20
2929.086322
 30
0.0
 10
1953.024750
 20
2929.545218
 30
0.0
  0
SPLINE
  5
5eb
100
AcDbEntity
  8
0
 62
7
100
AcDbSpline
 70
8
 71
3
 72
8
 73
4
 74
0
 40
0
 40
0
 40
0
 40
0
 40
1
 40
1
 40
1
 40
1
 10
1953.024750
 20
2929.545218
 30
0.0
 10
1953.472800
 20
2930.004112
 30
0.0
 10
1957.316175
 20
2938.898910
 30
0.0
 10
1961.565450
 20
2949.311460
 30
0.0
  0
SPLINE
  5
5ec
100
AcDbEntity
  8
0
 62
7
100
AcDbSpline
 70
8
 71
3
 72
8
 73
4
 74
0
 40
0
 40
0
 40
0
 40
0
 40
1
 40
1
 40
1
 40
1
 10
1961.565450
 20
2949.311460
 30
0.0
 10
1965.814875
 20
2959.723995
 30
0.0
 10
1979.693100
 20
2993.300272
 30
0.0
 10
1992.406125
 20
3023.925390
 30
0.0
  0
SPLINE
  5
5ed
100
AcDbEntity
  8
0
 62
7
100
AcDbSpline
 70
8
 71
3
 72
8
 73
4
 74
0
 40
0
 40
0
 40
0
 40
0
 40
1
 40
1
 40
1
 40
1
 10
1992.406125
 20
3023.925390
 30
0.0
 10
2015.881800
 20
3080.477542
 30
0.0
 10
2021.526675
 20
3094.085707
 30
0.0
 10
2033.059050
 20
3121.925782
 30
0.0
  0
SPLINE
  5
5ee
100
AcDbEntity
  8
0
 62
7
100
AcDbSpline
 70
8
 71
3
 72
8
 73
4
 74
0
 40
0
 40
0
 40
0
 40
0
 40
1
 40
1
 40
1
 40
1
 10
2033.059050
 20
3121.925782
 30
0.0
 10
2036.611125
 20
3130.500825
 30
0.0
 10
2041.811325
 20
3143.015550
 30
0.0
 10
2044.615050
 20
3149.736315
 30
0.0
  0
SPLINE
  5
5ef
100
AcDbEntity
  8
0
 62
7
100
AcDbSpline
 70
8
 71
3
 72
8
 73
4
 74
0
 40
0
 40
0
 40
0
 40
0
 40
1
 40
1
 40
1
 40
1
 10
2044.615050
 20
3149.736315
 30
0.0
 10
2047.419000
 20
3156.457065
 30
0.0
 10
2049.348450
 20
3162.309037
 30
0.0
 10
2048.902800
 20
3162.740730
 30
0.0
  0
SPLINE
  5
5f0
100
AcDbEntity
  8
0
 62
7
100
AcDbSpline
 70
8
 71
3
 72
8
 73
4
 74
0
 40
0
 40
0
 40
0
 40
0
 40
1
 40
1
 40
1
 40
1
 10
2048.902800
 20
3162.740730
 30
0.0
 10
2047.319550
 20
3164.274832
 30
0.0
 10
2026.398300
 20
3171.709522
 30
0.0
 10
2001.295725
 20
3179.658652
 30
0.0
  0
SPLINE
  5
5f1
100
AcDbEntity
  8
0
 62
7
100
AcDbSpline
 70
8
 71
3
 72
8
 73
4
 74
0
 40
0
 40
0
 40
0
 40
0
 40
1
 40
1
 40
1
 40
1
 10
2001.295725
 20
3179.658652
 30
0.0
 10
1985.252325
 20
3184.739070
 30
0.0
 10
1951.575525
 20
3192.902190
 30
0.0
 10
1950.689250
 20
3191.925450
 30
0.0
  0
SPLINE
  5
5f2
100
AcDbEntity
  8
0
 62
7
100
AcDbSpline
 70
8
 71
3
 72
8
 73
4
 74
0
 40
0
 40
0
 40
0
 40
0
 40
1
 40
1
 40
1
 40
1
 10
1950.689250
 20
3191.925450
 30
0.0
 10
1949.974125
 20
3191.137290
 30
0.0
 10
1945.043100
 20
3167.410372
 30
0.0
 10
1942.239375
 20
3151.266810
 30
0.0
  0
SPLINE
  5
5f3
100
AcDbEntity
  8
0
 62
7
100
AcDbSpline
 70
8
 71
3
 72
8
 73
4
 74
0
 40
0
 40
0
 40
0
 40
0
 40
1
 40
1
 40
1
 40
1
 10
1942.239375
 20
3151.266810
 30
0.0
 10
1941.423600
 20
3146.570332
 30
0.0
 10
1940.188950
 20
3147.229560
 30
0.0
 10
1957.331100
 20
3143.208720
 30
0.0
  0
SPLINE
  5
5f4
100
AcDbEntity
  8
0
 62
7
100
AcDbSpline
 70
8
 71
3
 72
8
 73
4
 74
0
 40
0
 40
0
 40
0
 40
0
 40
1
 40
1
 40
1
 40
1
 10
1957.331100
 20
3143.208720
 30
0.0
 10
1963.762425
 20
3141.700192
 30
0.0
 10
1973.534550
 20
3139.123095
 30
0.0
 10
1979.047125
 20
3137.481818
 30
0.0
  0
SPLINE
  5
5f5
100
AcDbEntity
  8
0
 62
7
100
AcDbSpline
 70
8
 71
3
 72
8
 73
4
 74
0
 40
0
 40
0
 40
0
 40
0
 40
1
 40
1
 40
1
 40
1
 10
1979.047125
 20
3137.481818
 30
0.0
 10
1984.559550
 20
3135.840540
 30
0.0
 10
1990.949025
 20
3133.988452
 30
0.0
 10
1993.245975
 20
3133.366057
 30
0.0
  0
SPLINE
  5
5f6
100
AcDbEntity
  8
0
 62
7
100
AcDbSpline
 70
8
 71
3
 72
8
 73
4
 74
0
 40
0
 40
0
 40
0
 40
0
 40
1
 40
1
 40
1
 40
1
 10
1993.245975
 20
3133.366057
 30
0.0
 10
1995.542925
 20
3132.743677
 30
0.0
 10
1997.422200
 20
3131.694847
 30
0.0
 10
1997.422200
 20
3131.035327
 30
0.0
  0
SPLINE
  5
5f7
100
AcDbEntity
  8
0
 62
7
100
AcDbSpline
 70
8
 71
3
 72
8
 73
4
 74
0
 40
0
 40
0
 40
0
 40
0
 40
1
 40
1
 40
1
 40
1
 10
1997.422200
 20
3131.035327
 30
0.0
 10
1997.422200
 20
3127.967595
 30
0.0
 10
1991.645100
 20
3111.346200
 30
0.0
 10
1990.578675
 20
3111.346200
 30
0.0
  0
SPLINE
  5
5f8
100
AcDbEntity
  8
0
 62
7
100
AcDbSpline
 70
8
 71
3
 72
8
 73
4
 74
0
 40
0
 40
0
 40
0
 40
0
 40
1
 40
1
 40
1
 40
1
 10
1990.578675
 20
3111.346200
 30
0.0
 10
1989.916725
 20
3111.346200
 30
0.0
 10
1983.292800
 20
3113.071560
 30
0.0
 10
1975.858725
 20
3115.180328
 30
0.0
  0
SPLINE
  5
5f9
100
AcDbEntity
  8
0
 62
7
100
AcDbSpline
 70
8
 71
3
 72
8
 73
4
 74
0
 40
0
 40
0
 40
0
 40
0
 40
1
 40
1
 40
1
 40
1
 10
1975.858725
 20
3115.180328
 30
0.0
 10
1961.523375
 20
3119.246753
 30
0.0
 10
1939.723425
 20
3124.706737
 30
0.0
 10
1937.814825
 20
3124.708703
 30
0.0
  0
SPLINE
  5
5fa
100
AcDbEntity
  8
0
 62
7
100
AcDbSpline
 70
8
 71
3
 72
8
 73
4
 74
0
 40
0
 40
0
 40
0
 40
0
 40
1
 40
1
 40
1
 40
1
 10
1937.814825
 20
3124.708703
 30
0.0
 10
1936.641825
 20
3124.709453
 30
0.0
 10
1936.333050
 20
3123.337230
 30
0.0
 10
1928.207550
 20
3082.007760
 30
0.0
  0
LWPOLYLINE
  5
5fb
100
AcDbEntity
  8
0
 62
7
100
AcDbPolyline
 90
3
 70
0
 10
1910.084325
 20
3008.302672
 30
0.0
 10
1913.508300
 20
3007.577362
 30
0.0
 10
1907.675175
 20
2978.851785
 30
0.0
  0
SPLINE
  5
5fc
100
AcDbEntity
  8
0
 62
7
100
AcDbSpline
 70
8
 71
3
 72
8
 73
4
 74
0
 40
0
 40
0
 40
0
 40
0
 40
1
 40
1
 40
1
 40
1
 10
1920.054000
 20
3058.302247
 30
0.0
 10
1918.200075
 20
3058.644105
 30
0.0
 10
1911.214800
 20
3059.943675
 30
0.0
 10
1904.531325
 20
3061.190198
 30
0.0
  0
SPLINE
  5
5fd
100
AcDbEntity
  8
0
 62
7
100
AcDbSpline
 70
8
 71
3
 72
8
 73
4
 74
0
 40
0
 40
0
 40
0
 40
0
 40
1
 40
1
 40
1
 40
1
 10
1904.531325
 20
3061.190198
 30
0.0
 10
1875.259575
 20
3066.649560
 30
0.0
 10
1858.323375
 20
3068.132430
 30
0.0
 10
1810.887300
 20
3069.389295
 30
0.0
  0
LWPOLYLINE
  5
5fe
100
AcDbEntity
  8
0
 62
7
100
AcDbPolyline
 90
3
 70
0
 10
1928.207550
 20
3082.007760
 30
0.0
 10
1923.424725
 20
3057.680693
 30
0.0
 10
1920.054000
 20
3058.302247
 30
0.0
  0
SPLINE
  5
5ff
100
AcDbEntity
  8
0
 62
7
100
AcDbSpline
 70
8
 71
3
 72
8
 73
4
 74
0
 40
0
 40
0
 40
0
 40
0
 40
1
 40
1
 40
1
 40
1
 10
1822.818975
 20
3091.887375
 30
0.0
 10
1834.019100
 20
3091.493707
 30
0.0
 10
1848.945900
 20
3090.690510
 30
0.0
 10
1855.989675
 20
3090.102495
 30
0.0
  0
SPLINE
  5
600
100
AcDbEntity
  8
0
 62
7
100
AcDbSpline
 70
8
 71
3
 72
8
 73
4
 74
0
 40
0
 40
0
 40
0
 40
0
 40
1
 40
1
 40
1
 40
1
 10
1855.989675
 20
3090.102495
 30
0.0
 10
1868.915475
 20
3089.023477
 30
0.0
 10
1900.684200
 20
3084.978308
 30
0.0
 10
1903.997325
 20
3083.989605
 30
0.0
  0
SPLINE
  5
601
100
AcDbEntity
  8
0
 62
7
100
AcDbSpline
 70
8
 71
3
 72
8
 73
4
 74
0
 40
0
 40
0
 40
0
 40
0
 40
1
 40
1
 40
1
 40
1
 10
1903.997325
 20
3083.989605
 30
0.0
 10
1905.458925
 20
3083.553427
 30
0.0
 10
1906.133100
 20
3085.253978
 30
0.0
 10
1907.657925
 20
3093.224445
 30
0.0
  0
SPLINE
  5
602
100
AcDbEntity
  8
0
 62
7
100
AcDbSpline
 70
8
 71
3
 72
8
 73
4
 74
0
 40
0
 40
0
 40
0
 40
0
 40
1
 40
1
 40
1
 40
1
 10
1907.657925
 20
3093.224445
 30
0.0
 10
1908.686025
 20
3098.597648
 30
0.0
 10
1910.036775
 20
3105.249015
 30
0.0
 10
1910.659800
 20
3108.005280
 30
0.0
  0
SPLINE
  5
603
100
AcDbEntity
  8
0
 62
7
100
AcDbSpline
 70
8
 71
3
 72
8
 73
4
 74
0
 40
0
 40
0
 40
0
 40
0
 40
1
 40
1
 40
1
 40
1
 10
1910.659800
 20
3108.005280
 30
0.0
 10
1915.344375
 20
3128.732797
 30
0.0
 10
1928.173875
 20
3196.619378
 30
0.0
 10
1927.521000
 20
3197.226053
 30
0.0
  0
SPLINE
  5
604
100
AcDbEntity
  8
0
 62
7
100
AcDbSpline
 70
8
 71
3
 72
8
 73
4
 74
0
 40
0
 40
0
 40
0
 40
0
 40
1
 40
1
 40
1
 40
1
 10
1927.521000
 20
3197.226053
 30
0.0
 10
1926.618000
 20
3198.065288
 30
0.0
 10
1899.477150
 20
3201.860175
 30
0.0
 10
1878.976200
 20
3204.013725
 30
0.0
  0
LWPOLYLINE
  5
605
100
AcDbEntity
  8
0
 62
7
100
AcDbPolyline
 90
5
 70
0
 10
1810.887300
 20
3069.389295
 30
0.0
 10
1803.091875
 20
3069.595838
 30
0.0
 10
1802.773425
 20
3081.099495
 30
0.0
 10
1802.455050
 20
3092.603130
 30
0.0
 10
1822.818975
 20
3091.887375
 30
0.0
  0
SPLINE
  5
606
100
AcDbEntity
  8
0
 62
7
100
AcDbSpline
 70
8
 71
3
 72
8
 73
4
 74
0
 40
0
 40
0
 40
0
 40
0
 40
1
 40
1
 40
1
 40
1
 10
1866.506850
 20
3214.334070
 30
0.0
 10
1867.544775
 20
3226.909275
 30
0.0
 10
1867.664925
 20
3227.164838
 30
0.0
 10
1872.537300
 20
3227.164838
 30
0.0
  0
SPLINE
  5
607
100
AcDbEntity
  8
0
 62
7
100
AcDbSpline
 70
8
 71
3
 72
8
 73
4
 74
0
 40
0
 40
0
 40
0
 40
0
 40
1
 40
1
 40
1
 40
1
 10
1872.537300
 20
3227.164838
 30
0.0
 10
1876.994475
 20
3227.164838
 30
0.0
 10
1896.095700
 20
3224.870400
 30
0.0
 10
1915.012725
 20
3222.062678
 30
0.0
  0
SPLINE
  5
608
100
AcDbEntity
  8
0
 62
7
100
AcDbSpline
 70
8
 71
3
 72
8
 73
4
 74
0
 40
0
 40
0
 40
0
 40
0
 40
1
 40
1
 40
1
 40
1
 10
1915.012725
 20
3222.062678
 30
0.0
 10
1943.073225
 20
3217.897823
 30
0.0
 10
1982.017050
 20
3208.914405
 30
0.0
 10
2011.377750
 20
3199.833503
 30
0.0
  0
SPLINE
  5
609
100
AcDbEntity
  8
0
 62
7
100
AcDbSpline
 70
8
 71
3
 72
8
 73
4
 74
0
 40
0
 40
0
 40
0
 40
0
 40
1
 40
1
 40
1
 40
1
 10
2011.377750
 20
3199.833503
 30
0.0
 10
2026.808475
 20
3195.061013
 30
0.0
 10
2053.631250
 20
3185.541323
 30
0.0
 10
2061.456375
 20
3182.060063
 30
0.0
  0
SPLINE
  5
60a
100
AcDbEntity
  8
0
 62
7
100
AcDbSpline
 70
8
 71
3
 72
8
 73
4
 74
0
 40
0
 40
0
 40
0
 40
0
 40
1
 40
1
 40
1
 40
1
 10
2061.456375
 20
3182.060063
 30
0.0
 10
2063.293950
 20
3181.242600
 30
0.0
 10
2067.303150
 20
3179.582318
 30
0.0
 10
2070.365700
 20
3178.370520
 30
0.0
  0
SPLINE
  5
60b
100
AcDbEntity
  8
0
 62
7
100
AcDbSpline
 70
8
 71
3
 72
8
 73
4
 74
0
 40
0
 40
0
 40
0
 40
0
 40
1
 40
1
 40
1
 40
1
 10
2070.365700
 20
3178.370520
 30
0.0
 10
2089.208550
 20
3170.914642
 30
0.0
 10
2119.012650
 20
3156.378705
 30
0.0
 10
2140.970700
 20
3143.935193
 30
0.0
  0
SPLINE
  5
60c
100
AcDbEntity
  8
0
 62
7
100
AcDbSpline
 70
8
 71
3
 72
8
 73
4
 74
0
 40
0
 40
0
 40
0
 40
0
 40
1
 40
1
 40
1
 40
1
 10
2140.970700
 20
3143.935193
 30
0.0
 10
2213.417775
 20
3102.879990
 30
0.0
 10
2276.059500
 20
3050.254785
 30
0.0
 10
2328.893625
 20
2986.061610
 30
0.0
  0
SPLINE
  5
60d
100
AcDbEntity
  8
0
 62
7
100
AcDbSpline
 70
8
 71
3
 72
8
 73
4
 74
0
 40
0
 40
0
 40
0
 40
0
 40
1
 40
1
 40
1
 40
1
 10
2328.893625
 20
2986.061610
 30
0.0
 10
2391.802200
 20
2909.627933
 30
0.0
 10
2437.844100
 20
2817.469455
 30
0.0
 10
2461.216575
 20
2721.200468
 30
0.0
  0
SPLINE
  5
60e
100
AcDbEntity
  8
0
 62
7
100
AcDbSpline
 70
8
 71
3
 72
8
 73
4
 74
0
 40
0
 40
0
 40
0
 40
0
 40
1
 40
1
 40
1
 40
1
 10
2461.216575
 20
2721.200468
 30
0.0
 10
2469.245925
 20
2688.128250
 30
0.0
 10
2476.082100
 20
2644.489673
 30
0.0
 10
2478.462300
 20
2611.112786
 30
0.0
  0
SPLINE
  5
60f
100
AcDbEntity
  8
0
 62
7
100
AcDbSpline
 70
8
 71
3
 72
8
 73
4
 74
0
 40
0
 40
0
 40
0
 40
0
 40
1
 40
1
 40
1
 40
1
 10
2478.462300
 20
2611.112786
 30
0.0
 10
2479.951425
 20
2590.230037
 30
0.0
 10
2479.960425
 20
2536.351819
 30
0.0
 10
2478.478800
 20
2516.105176
 30
0.0
  0
SPLINE
  5
610
100
AcDbEntity
  8
0
 62
7
100
AcDbSpline
 70
8
 71
3
 72
8
 73
4
 74
0
 40
0
 40
0
 40
0
 40
0
 40
1
 40
1
 40
1
 40
1
 10
2478.478800
 20
2516.105176
 30
0.0
 10
2472.957900
 20
2440.695165
 30
0.0
 10
2452.438575
 20
2357.823270
 30
0.0
 10
2423.806350
 20
2295.297998
 30
0.0
  0
SPLINE
  5
611
100
AcDbEntity
  8
0
 62
7
100
AcDbSpline
 70
8
 71
3
 72
8
 73
4
 74
0
 40
0
 40
0
 40
0
 40
0
 40
1
 40
1
 40
1
 40
1
 10
2423.806350
 20
2295.297998
 30
0.0
 10
2422.046250
 20
2291.454503
 30
0.0
 10
2420.606325
 20
2288.037848
 30
0.0
 10
2420.606325
 20
2287.705388
 30
0.0
  0
SPLINE
  5
612
100
AcDbEntity
  8
0
 62
7
100
AcDbSpline
 70
8
 71
3
 72
8
 73
4
 74
0
 40
0
 40
0
 40
0
 40
0
 40
1
 40
1
 40
1
 40
1
 10
2420.606325
 20
2287.705388
 30
0.0
 10
2420.606325
 20
2287.372950
 30
0.0
 10
2415.675150
 20
2277.237450
 30
0.0
 10
2409.648300
 20
2265.182047
 30
0.0
  0
SPLINE
  5
613
100
AcDbEntity
  8
0
 62
7
100
AcDbSpline
 70
8
 71
3
 72
8
 73
4
 74
0
 40
0
 40
0
 40
0
 40
0
 40
1
 40
1
 40
1
 40
1
 10
2409.648300
 20
2265.182047
 30
0.0
 10
2394.755250
 20
2235.392047
 30
0.0
 10
2368.559625
 20
2192.273595
 30
0.0
 10
2352.693300
 20
2171.433345
 30
0.0
  0
SPLINE
  5
614
100
AcDbEntity
  8
0
 62
7
100
AcDbSpline
 70
8
 71
3
 72
8
 73
4
 74
0
 40
0
 40
0
 40
0
 40
0
 40
1
 40
1
 40
1
 40
1
 10
2352.693300
 20
2171.433345
 30
0.0
 10
2351.061075
 20
2169.289575
 30
0.0
 10
2347.513875
 20
2164.528763
 30
0.0
 10
2344.810350
 20
2160.853748
 30
0.0
  0
SPLINE
  5
615
100
AcDbEntity
  8
0
 62
7
100
AcDbSpline
 70
8
 71
3
 72
8
 73
4
 74
0
 40
0
 40
0
 40
0
 40
0
 40
1
 40
1
 40
1
 40
1
 10
2344.810350
 20
2160.853748
 30
0.0
 10
2331.482250
 20
2142.735263
 30
0.0
 10
2300.975925
 20
2108.027085
 30
0.0
 10
2282.655300
 20
2090.137553
 30
0.0
  0
SPLINE
  5
616
100
AcDbEntity
  8
0
 62
7
100
AcDbSpline
 70
8
 71
3
 72
8
 73
4
 74
0
 40
0
 40
0
 40
0
 40
0
 40
1
 40
1
 40
1
 40
1
 10
2282.655300
 20
2090.137553
 30
0.0
 10
2211.546525
 20
2020.702275
 30
0.0
 10
2137.899975
 20
1973.760975
 30
0.0
 10
2044.230375
 20
1938.169125
 30
0.0
  0
SPLINE
  5
617
100
AcDbEntity
  8
0
 62
7
100
AcDbSpline
 70
8
 71
3
 72
8
 73
4
 74
0
 40
0
 40
0
 40
0
 40
0
 40
1
 40
1
 40
1
 40
1
 10
2044.230375
 20
1938.169125
 30
0.0
 10
1991.188725
 20
1918.014780
 30
0.0
 10
1920.532500
 20
1902.904800
 30
0.0
 10
1859.331225
 20
1898.628083
 30
0.0
  0
SPLINE
  5
618
100
AcDbEntity
  8
0
 62
7
100
AcDbSpline
 70
8
 71
3
 72
8
 73
4
 74
0
 40
0
 40
0
 40
0
 40
0
 40
1
 40
1
 40
1
 40
1
 10
1859.331225
 20
1898.628083
 30
0.0
 10
1840.777800
 20
1897.331588
 30
0.0
 10
1785.803250
 20
1897.369335
 30
0.0
 10
1766.899125
 20
1898.691533
 30
0.0
  0
LWPOLYLINE
  5
619
100
AcDbEntity
  8
0
 62
7
100
AcDbPolyline
 90
3
 70
0
 10
1878.976200
 20
3204.013725
 30
0.0
 10
1865.769450
 20
3205.401038
 30
0.0
 10
1866.506850
 20
3214.334070
 30
0.0
  0
SPLINE
  5
61a
100
AcDbEntity
  8
0
 62
7
100
AcDbSpline
 70
8
 71
3
 72
8
 73
4
 74
0
 40
0
 40
0
 40
0
 40
0
 40
1
 40
1
 40
1
 40
1
 10
1834.183987
 20
2563.533973
 30
0.0
 10
1834.183987
 20
2556.207238
 30
0.0
 10
1830.275221
 20
2549.437055
 30
0.0
 10
1823.930081
 20
2545.773687
 30
0.0
  0
SPLINE
  5
61b
100
AcDbEntity
  8
0
 62
7
100
AcDbSpline
 70
8
 71
3
 72
8
 73
4
 74
0
 40
0
 40
0
 40
0
 40
0
 40
1
 40
1
 40
1
 40
1
 10
1823.930081
 20
2545.773687
 30
0.0
 10
1817.584942
 20
2542.110319
 30
0.0
 10
1809.767408
 20
2542.110319
 30
0.0
 10
1803.422269
 20
2545.773687
 30
0.0
  0
SPLINE
  5
61c
100
AcDbEntity
  8
0
 62
7
100
AcDbSpline
 70
8
 71
3
 72
8
 73
4
 74
0
 40
0
 40
0
 40
0
 40
0
 40
1
 40
1
 40
1
 40
1
 10
1803.422269
 20
2545.773687
 30
0.0
 10
1797.077129
 20
2549.437055
 30
0.0
 10
1793.168362
 20
2556.207238
 30
0.0
 10
1793.168362
 20
2563.533973
 30
0.0
  0
SPLINE
  5
61d
100
AcDbEntity
  8
0
 62
7
100
AcDbSpline
 70
8
 71
3
 72
8
 73
4
 74
0
 40
0
 40
0
 40
0
 40
0
 40
1
 40
1
 40
1
 40
1
 10
1793.168362
 20
2563.533973
 30
0.0
 10
1793.168362
 20
2570.860709
 30
0.0
 10
1797.077129
 20
2577.630892
 30
0.0
 10
1803.422269
 20
2581.294260
 30
0.0
  0
SPLINE
  5
61e
100
AcDbEntity
  8
0
 62
7
100
AcDbSpline
 70
8
 71
3
 72
8
 73
4
 74
0
 40
0
 40
0
 40
0
 40
0
 40
1
 40
1
 40
1
 40
1
 10
1803.422269
 20
2581.294260
 30
0.0
 10
1809.767408
 20
2584.957628
 30
0.0
 10
1817.584942
 20
2584.957628
 30
0.0
 10
1823.930081
 20
2581.294260
 30
0.0
  0
SPLINE
  5
61f
100
AcDbEntity
  8
0
 62
7
100
AcDbSpline
 70
8
 71
3
 72
8
 73
4
 74
0
 40
0
 40
0
 40
0
 40
0
 40
1
 40
1
 40
1
 40
1
 10
1823.930081
 20
2581.294260
 30
0.0
 10
1830.275221
 20
2577.630892
 30
0.0
 10
1834.183987
 20
2570.860709
 30
0.0
 10
1834.183987
 20
2563.533973
 30
0.0
  0
LWPOLYLINE
  5
620
100
AcDbEntity
  8
0
 62
7
100
AcDbPolyline
 90
2
 70
0
 10
1766.899125
 20
1898.691533
 30
0.0
 10
1766.899950
 20
1898.691562
 30
0.0
  0
LWPOLYLINE
  5
621
100
AcDbEntity
  8
0
 62
7
100
AcDbPolyline
 90
1
 70
1
 10
1834.183987
 20
2563.533973
 30
0.0
  0
ENDSEC
  0
SECTION
  2
OBJECTS
  0
DICTIONARY
  5
C
330
0
100
AcDbDictionary
  3
ACAD_GROUP
350
D
  3
ACAD_MLINESTYLE
350
17
  0
DICTIONARY
  5
D
330
C
100
AcDbDictionary
  0
DICTIONARY
  5
1A
330
C
100
AcDbDictionary
  0
DICTIONARY
  5
17
330
C
100
AcDbDictionary
  3
STANDARD
350
18
  0
DICTIONARY
  5
19
330
C
100
AcDbDictionary
  0
ENDSEC
  0
EOF
