  0
SECTION
  2
HEADER
  9
$ACADVER
  1
AC1014
  9
$HANDSEED
  5
FFFF
  9
$MEASUREMENT
 70
     1
  0
ENDSEC
  0
SECTION
  2
TABLES
  0
TABLE
  2
VPORT
  5
8
330
0
100
AcDbSymbolTable
 70
     4
  0
VPORT
  5
2E
330
8
100
AcDbSymbolTableRecord
100
AcDbViewportTableRecord
  2
*ACTIVE
 70
     0
 10
0.0
 20
0.0
 11
1.0
 21
1.0
 12
210.0
 22
148.5
 13
0.0
 23
0.0
 14
10.0
 24
10.0
 15
10.0
 25
10.0
 16
0.0
 26
0.0
 36
1.0
 17
0.0
 27
0.0
 37
0.0
 40
341.0
 41
1.24
 42
50.0
 43
0.0
 44
0.0
 50
0.0
 51
0.0
 71
     0
 72
   100
 73
     1
 74
     3
 75
     0
 76
     0
 77
     0
 78
     0
  0
ENDTAB
  0
TABLE
  2
LTYPE
  5
5
330
0
100
AcDbSymbolTable
 70
     1
  0
LTYPE
  5
14
330
5
100
AcDbSymbolTableRecord
100
AcDbLinetypeTableRecord
  2
BYBLOCK
 70
     0
  3

 72
    65
 73
     0
 40
0.0
  0
LTYPE
  5
15
330
5
100
AcDbSymbolTableRecord
100
AcDbLinetypeTableRecord
  2
BYLAYER
 70
     0
  3

 72
    65
 73
     0
 40
0.0
  0
LTYPE
  5
16
330
5
100
AcDbSymbolTableRecord
100
AcDbLinetypeTableRecord
  2
CONTINUOUS
 70
     0
  3
Solid line
 72
    65
 73
     0
 40
0.0
  0
ENDTAB
  0
TABLE
  2
LAYER
  5
2
100
AcDbSymbolTable
 70
1
  0
LAYER
  5
50
100
AcDbSymbolTableRecord
100
AcDbLayerTableRecord
  2
0
 70
0
  6
CONTINUOUS
  0
ENDTAB
  0
TABLE
  2
STYLE
  5
3
330
0
100
AcDbSymbolTable
 70
     1
  0
STYLE
  5
11
330
3
100
AcDbSymbolTableRecord
100
AcDbTextStyleTableRecord
  2
STANDARD
 70
     0
 40
0.0
 41
1.0
 50
0.0
 71
     0
 42
2.5
  3
txt
  4

  0
ENDTAB
  0
TABLE
  2
VIEW
  5
6
330
0
100
AcDbSymbolTable
 70
     0
  0
ENDTAB
  0
TABLE
  2
UCS
  5
7
330
0
100
AcDbSymbolTable
 70
     0
  0
ENDTAB
  0
TABLE
  2
APPID
  5
9
330
0
100
AcDbSymbolTable
 70
     2
  0
APPID
  5
12
330
9
100
AcDbSymbolTableRecord
100
AcDbRegAppTableRecord
  2
ACAD
 70
     0
  0
ENDTAB
  0
TABLE
  2
DIMSTYLE
  5
A
330
0
100
AcDbSymbolTable
 70
     1
  0
DIMSTYLE
105
27
330
A
100
AcDbSymbolTableRecord
100
AcDbDimStyleTableRecord
  2
ISO-25
 70
     0
  3

  4

  5

  6

  7

 40
1.0
 41
2.5
 42
0.625
 43
3.75
 44
1.25
 45
0.0
 46
0.0
 47
0.0
 48
0.0
140
2.5
141
2.5
142
0.0
143
0.03937007874016
144
1.0
145
0.0
146
1.0
147
0.625
 71
     0
 72
     0
 73
     0
 74
     0
 75
     0
 76
     0
 77
     1
 78
     8
170
     0
171
     3
172
     1
173
     0
174
     0
175
     0
176
     0
177
     0
178
     0
270
     2
271
     2
272
     2
273
     2
274
     3
340
11
275
     0
280
     0
281
     0
282
     0
283
     0
284
     8
285
     0
286
     0
287
     3
288
     0
  0
ENDTAB
  0
TABLE
  2
BLOCK_RECORD
  5
1
330
0
100
AcDbSymbolTable
 70
     1
  0
BLOCK_RECORD
  5
1F
330
1
100
AcDbSymbolTableRecord
100
AcDbBlockTableRecord
  2
*MODEL_SPACE
  0
BLOCK_RECORD
  5
1B
330
1
100
AcDbSymbolTableRecord
100
AcDbBlockTableRecord
  2
*PAPER_SPACE
  0
ENDTAB
  0
ENDSEC
  0
SECTION
  2
BLOCKS
  0
BLOCK
  5
20
330
1F
100
AcDbEntity
  8
0
100
AcDbBlockBegin
  2
*MODEL_SPACE
 70
     0
 10
0.0
 20
0.0
 30
0.0
  3
*MODEL_SPACE
  1

  0
ENDBLK
  5
21
330
1F
100
AcDbEntity
  8
0
100
AcDbBlockEnd
  0
BLOCK
  5
1C
330
1B
100
AcDbEntity
 67
     1
  8
0
100
AcDbBlockBegin
  2
*PAPER_SPACE
  1

  0
ENDBLK
  5
1D
330
1B
100
AcDbEntity
 67
     1
  8
0
100
AcDbBlockEnd
  0
ENDSEC
  0
SECTION
  2
ENTITIES
  0
SPLINE
  5
100
100
AcDbEntity
  8
0
 62
7
100
AcDbSpline
 70
8
 71
3
 72
8
 73
4
 74
0
 40
0
 40
0
 40
0
 40
0
 40
1
 40
1
 40
1
 40
1
 10
738.330675
 20
3485.999985
 30
0.0
 10
738.364138
 20
3612.612454
 30
0.0
 10
670.836408
 20
3729.621519
 30
0.0
 10
561.192368
 20
3792.937415
 30
0.0
  0
SPLINE
  5
101
100
AcDbEntity
  8
0
 62
7
100
AcDbSpline
 70
8
 71
3
 72
8
 73
4
 74
0
 40
0
 40
0
 40
0
 40
0
 40
1
 40
1
 40
1
 40
1
 10
561.192368
 20
3792.937415
 30
0.0
 10
451.548327
 20
3856.253311
 30
0.0
 10
316.451638
 20
3856.253311
 30
0.0
 10
206.807597
 20
3792.937415
 30
0.0
  0
SPLINE
  5
102
100
AcDbEntity
  8
0
 62
7
100
AcDbSpline
 70
8
 71
3
 72
8
 73
4
 74
0
 40
0
 40
0
 40
0
 40
0
 40
1
 40
1
 40
1
 40
1
 10
206.807597
 20
3792.937415
 30
0.0
 10
97.163557
 20
3729.621519
 30
0.0
 10
29.635827
 20
3612.612454
 30
0.0
 10
29.669290
 20
3485.999985
 30
0.0
  0
SPLINE
  5
103
100
AcDbEntity
  8
0
 62
7
100
AcDbSpline
 70
8
 71
3
 72
8
 73
4
 74
0
 40
0
 40
0
 40
0
 40
0
 40
1
 40
1
 40
1
 40
1
 10
29.669290
 20
3485.999985
 30
0.0
 10
29.635827
 20
3359.387517
 30
0.0
 10
97.163557
 20
3242.378452
 30
0.0
 10
206.807597
 20
3179.062556
 30
0.0
  0
SPLINE
  5
104
100
AcDbEntity
  8
0
 62
7
100
AcDbSpline
 70
8
 71
3
 72
8
 73
4
 74
0
 40
0
 40
0
 40
0
 40
0
 40
1
 40
1
 40
1
 40
1
 10
206.807597
 20
3179.062556
 30
0.0
 10
316.451638
 20
3115.746660
 30
0.0
 10
451.548327
 20
3115.746660
 30
0.0
 10
561.192368
 20
3179.062556
 30
0.0
  0
SPLINE
  5
105
100
AcDbEntity
  8
0
 62
7
100
AcDbSpline
 70
8
 71
3
 72
8
 73
4
 74
0
 40
0
 40
0
 40
0
 40
0
 40
1
 40
1
 40
1
 40
1
 10
561.192368
 20
3179.062556
 30
0.0
 10
670.836408
 20
3242.378452
 30
0.0
 10
738.364138
 20
3359.387517
 30
0.0
 10
738.330675
 20
3485.999985
 30
0.0
  0
SPLINE
  5
106
100
AcDbEntity
  8
0
 62
7
100
AcDbSpline
 70
8
 71
3
 72
8
 73
4
 74
0
 40
0
 40
0
 40
0
 40
0
 40
1
 40
1
 40
1
 40
1
 10
504.472433
 20
3485.999985
 30
0.0
 10
504.472433
 20
3529.040643
 30
0.0
 10
481.510515
 20
3568.811850
 30
0.0
 10
444.236213
 20
3590.332179
 30
0.0
  0
SPLINE
  5
107
100
AcDbEntity
  8
0
 62
7
100
AcDbSpline
 70
8
 71
3
 72
8
 73
4
 74
0
 40
0
 40
0
 40
0
 40
0
 40
1
 40
1
 40
1
 40
1
 10
444.236213
 20
3590.332179
 30
0.0
 10
406.961910
 20
3611.852507
 30
0.0
 10
361.038075
 20
3611.852507
 30
0.0
 10
323.763773
 20
3590.332179
 30
0.0
  0
SPLINE
  5
108
100
AcDbEntity
  8
0
 62
7
100
AcDbSpline
 70
8
 71
3
 72
8
 73
4
 74
0
 40
0
 40
0
 40
0
 40
0
 40
1
 40
1
 40
1
 40
1
 10
323.763773
 20
3590.332179
 30
0.0
 10
286.489470
 20
3568.811850
 30
0.0
 10
263.527553
 20
3529.040643
 30
0.0
 10
263.527553
 20
3485.999985
 30
0.0
  0
SPLINE
  5
109
100
AcDbEntity
  8
0
 62
7
100
AcDbSpline
 70
8
 71
3
 72
8
 73
4
 74
0
 40
0
 40
0
 40
0
 40
0
 40
1
 40
1
 40
1
 40
1
 10
263.527553
 20
3485.999985
 30
0.0
 10
263.527553
 20
3442.959328
 30
0.0
 10
286.489470
 20
3403.188120
 30
0.0
 10
323.763772
 20
3381.667792
 30
0.0
  0
SPLINE
  5
10a
100
AcDbEntity
  8
0
 62
7
100
AcDbSpline
 70
8
 71
3
 72
8
 73
4
 74
0
 40
0
 40
0
 40
0
 40
0
 40
1
 40
1
 40
1
 40
1
 10
323.763772
 20
3381.667792
 30
0.0
 10
361.038075
 20
3360.147463
 30
0.0
 10
406.961910
 20
3360.147463
 30
0.0
 10
444.236213
 20
3381.667792
 30
0.0
  0
SPLINE
  5
10b
100
AcDbEntity
  8
0
 62
7
100
AcDbSpline
 70
8
 71
3
 72
8
 73
4
 74
0
 40
0
 40
0
 40
0
 40
0
 40
1
 40
1
 40
1
 40
1
 10
444.236213
 20
3381.667792
 30
0.0
 10
481.510515
 20
3403.188120
 30
0.0
 10
504.472433
 20
3442.959328
 30
0.0
 10
504.472433
 20
3485.999985
 30
0.0
  0
LWPOLYLINE
  5
10c
100
AcDbEntity
  8
0
 62
7
100
AcDbPolyline
 90
1
 70
1
 10
738.330675
 20
3485.999985
 30
0.0
  0
SPLINE
  5
10d
100
AcDbEntity
  8
0
 62
7
100
AcDbSpline
 70
8
 71
3
 72
8
 73
4
 74
0
 40
0
 40
0
 40
0
 40
0
 40
1
 40
1
 40
1
 40
1
 10
235.181093
 20
3415.133835
 30
0.0
 10
235.181093
 20
3427.792852
 30
0.0
 10
228.427587
 20
3439.490267
 30
0.0
 10
217.464557
 20
3445.819775
 30
0.0
  0
SPLINE
  5
10e
100
AcDbEntity
  8
0
 62
7
100
AcDbSpline
 70
8
 71
3
 72
8
 73
4
 74
0
 40
0
 40
0
 40
0
 40
0
 40
1
 40
1
 40
1
 40
1
 10
217.464557
 20
3445.819775
 30
0.0
 10
206.501526
 20
3452.149284
 30
0.0
 10
192.994516
 20
3452.149284
 30
0.0
 10
182.031486
 20
3445.819775
 30
0.0
  0
SPLINE
  5
10f
100
AcDbEntity
  8
0
 62
7
100
AcDbSpline
 70
8
 71
3
 72
8
 73
4
 74
0
 40
0
 40
0
 40
0
 40
0
 40
1
 40
1
 40
1
 40
1
 10
182.031486
 20
3445.819775
 30
0.0
 10
171.068455
 20
3439.490267
 30
0.0
 10
164.314950
 20
3427.792852
 30
0.0
 10
164.314950
 20
3415.133835
 30
0.0
  0
SPLINE
  5
110
100
AcDbEntity
  8
0
 62
7
100
AcDbSpline
 70
8
 71
3
 72
8
 73
4
 74
0
 40
0
 40
0
 40
0
 40
0
 40
1
 40
1
 40
1
 40
1
 10
164.314950
 20
3415.133835
 30
0.0
 10
164.314950
 20
3402.474818
 30
0.0
 10
171.068455
 20
3390.777404
 30
0.0
 10
182.031486
 20
3384.447895
 30
0.0
  0
SPLINE
  5
111
100
AcDbEntity
  8
0
 62
7
100
AcDbSpline
 70
8
 71
3
 72
8
 73
4
 74
0
 40
0
 40
0
 40
0
 40
0
 40
1
 40
1
 40
1
 40
1
 10
182.031486
 20
3384.447895
 30
0.0
 10
192.994516
 20
3378.118387
 30
0.0
 10
206.501526
 20
3378.118387
 30
0.0
 10
217.464557
 20
3384.447895
 30
0.0
  0
SPLINE
  5
112
100
AcDbEntity
  8
0
 62
7
100
AcDbSpline
 70
8
 71
3
 72
8
 73
4
 74
0
 40
0
 40
0
 40
0
 40
0
 40
1
 40
1
 40
1
 40
1
 10
217.464557
 20
3384.447895
 30
0.0
 10
228.427587
 20
3390.777404
 30
0.0
 10
235.181093
 20
3402.474818
 30
0.0
 10
235.181093
 20
3415.133835
 30
0.0
  0
LWPOLYLINE
  5
113
100
AcDbEntity
  8
0
 62
7
100
AcDbPolyline
 90
1
 70
1
 10
504.472433
 20
3485.999985
 30
0.0
  0
SPLINE
  5
114
100
AcDbEntity
  8
0
 62
7
100
AcDbSpline
 70
8
 71
3
 72
8
 73
4
 74
0
 40
0
 40
0
 40
0
 40
0
 40
1
 40
1
 40
1
 40
1
 10
235.181093
 20
3556.866135
 30
0.0
 10
235.181093
 20
3569.525152
 30
0.0
 10
228.427587
 20
3581.222567
 30
0.0
 10
217.464557
 20
3587.552075
 30
0.0
  0
SPLINE
  5
115
100
AcDbEntity
  8
0
 62
7
100
AcDbSpline
 70
8
 71
3
 72
8
 73
4
 74
0
 40
0
 40
0
 40
0
 40
0
 40
1
 40
1
 40
1
 40
1
 10
217.464557
 20
3587.552075
 30
0.0
 10
206.501526
 20
3593.881584
 30
0.0
 10
192.994516
 20
3593.881584
 30
0.0
 10
182.031486
 20
3587.552075
 30
0.0
  0
SPLINE
  5
116
100
AcDbEntity
  8
0
 62
7
100
AcDbSpline
 70
8
 71
3
 72
8
 73
4
 74
0
 40
0
 40
0
 40
0
 40
0
 40
1
 40
1
 40
1
 40
1
 10
182.031486
 20
3587.552075
 30
0.0
 10
171.068455
 20
3581.222567
 30
0.0
 10
164.314950
 20
3569.525152
 30
0.0
 10
164.314950
 20
3556.866135
 30
0.0
  0
SPLINE
  5
117
100
AcDbEntity
  8
0
 62
7
100
AcDbSpline
 70
8
 71
3
 72
8
 73
4
 74
0
 40
0
 40
0
 40
0
 40
0
 40
1
 40
1
 40
1
 40
1
 10
164.314950
 20
3556.866135
 30
0.0
 10
164.314950
 20
3544.207118
 30
0.0
 10
171.068455
 20
3532.509704
 30
0.0
 10
182.031486
 20
3526.180195
 30
0.0
  0
SPLINE
  5
118
100
AcDbEntity
  8
0
 62
7
100
AcDbSpline
 70
8
 71
3
 72
8
 73
4
 74
0
 40
0
 40
0
 40
0
 40
0
 40
1
 40
1
 40
1
 40
1
 10
182.031486
 20
3526.180195
 30
0.0
 10
192.994516
 20
3519.850687
 30
0.0
 10
206.501526
 20
3519.850687
 30
0.0
 10
217.464557
 20
3526.180195
 30
0.0
  0
SPLINE
  5
119
100
AcDbEntity
  8
0
 62
7
100
AcDbSpline
 70
8
 71
3
 72
8
 73
4
 74
0
 40
0
 40
0
 40
0
 40
0
 40
1
 40
1
 40
1
 40
1
 10
217.464557
 20
3526.180195
 30
0.0
 10
228.427587
 20
3532.509704
 30
0.0
 10
235.181093
 20
3544.207118
 30
0.0
 10
235.181093
 20
3556.866135
 30
0.0
  0
LWPOLYLINE
  5
11a
100
AcDbEntity
  8
0
 62
7
100
AcDbPolyline
 90
1
 70
1
 10
235.181093
 20
3415.133835
 30
0.0
  0
LWPOLYLINE
  5
11b
100
AcDbEntity
  8
0
 62
7
100
AcDbPolyline
 90
1
 70
1
 10
235.181093
 20
3556.866135
 30
0.0
  0
SPLINE
  5
11c
100
AcDbEntity
  8
0
 62
7
100
AcDbSpline
 70
8
 71
3
 72
8
 73
4
 74
0
 40
0
 40
0
 40
0
 40
0
 40
1
 40
1
 40
1
 40
1
 10
412.346452
 20
3780.803160
 30
0.0
 10
421.731997
 20
3780.813955
 30
0.0
 10
429.334764
 20
3788.425472
 30
0.0
 10
429.334764
 20
3797.811023
 30
0.0
  0
SPLINE
  5
11d
100
AcDbEntity
  8
0
 62
7
100
AcDbSpline
 70
8
 71
3
 72
8
 73
4
 74
0
 40
0
 40
0
 40
0
 40
0
 40
1
 40
1
 40
1
 40
1
 10
429.334764
 20
3797.811023
 30
0.0
 10
429.334764
 20
3807.196574
 30
0.0
 10
421.731997
 20
3814.808090
 30
0.0
 10
412.346452
 20
3814.818885
 30
0.0
  0
SPLINE
  5
11e
100
AcDbEntity
  8
0
 62
7
100
AcDbSpline
 70
8
 71
3
 72
8
 73
4
 74
0
 40
0
 40
0
 40
0
 40
0
 40
1
 40
1
 40
1
 40
1
 10
412.346452
 20
3814.818885
 30
0.0
 10
412.346452
 20
3814.818885
 30
0.0
 10
355.653540
 20
3814.818885
 30
0.0
 10
355.653540
 20
3814.818885
 30
0.0
  0
SPLINE
  5
11f
100
AcDbEntity
  8
0
 62
7
100
AcDbSpline
 70
8
 71
3
 72
8
 73
4
 74
0
 40
0
 40
0
 40
0
 40
0
 40
1
 40
1
 40
1
 40
1
 10
355.653540
 20
3814.818885
 30
0.0
 10
346.267995
 20
3814.808090
 30
0.0
 10
338.665228
 20
3807.196574
 30
0.0
 10
338.665228
 20
3797.811023
 30
0.0
  0
SPLINE
  5
120
100
AcDbEntity
  8
0
 62
7
100
AcDbSpline
 70
8
 71
3
 72
8
 73
4
 74
0
 40
0
 40
0
 40
0
 40
0
 40
1
 40
1
 40
1
 40
1
 10
338.665228
 20
3797.811023
 30
0.0
 10
338.665228
 20
3788.425472
 30
0.0
 10
346.267995
 20
3780.813955
 30
0.0
 10
355.653540
 20
3780.803160
 30
0.0
  0
LWPOLYLINE
  5
121
100
AcDbEntity
  8
0
 62
7
100
AcDbPolyline
 90
2
 70
0
 10
355.653540
 20
3780.803160
 30
0.0
 10
412.346452
 20
3780.803160
 30
0.0
  0
LWPOLYLINE
  5
122
100
AcDbEntity
  8
0
 62
7
100
AcDbPolyline
 90
1
 70
1
 10
355.653540
 20
3780.803160
 30
0.0
  0
LWPOLYLINE
  5
123
100
AcDbEntity
  8
0
 62
7
100
AcDbPolyline
 90
2
 70
0
 10
412.346452
 20
3780.803160
 30
0.0
 10
397.339507
 20
3789.807285
 30
0.0
  0
SPLINE
  5
124
100
AcDbEntity
  8
0
 62
7
100
AcDbSpline
 70
8
 71
3
 72
8
 73
4
 74
0
 40
0
 40
0
 40
0
 40
0
 40
1
 40
1
 40
1
 40
1
 10
155.498715
 20
3674.413335
 30
0.0
 10
148.854116
 20
3667.786666
 30
0.0
 10
138.097862
 20
3667.793927
 30
0.0
 10
131.462217
 20
3674.429562
 30
0.0
  0
SPLINE
  5
125
100
AcDbEntity
  8
0
 62
7
100
AcDbSpline
 70
8
 71
3
 72
8
 73
4
 74
0
 40
0
 40
0
 40
0
 40
0
 40
1
 40
1
 40
1
 40
1
 10
131.462217
 20
3674.429562
 30
0.0
 10
124.826571
 20
3681.065197
 30
0.0
 10
124.819293
 20
3691.821451
 30
0.0
 10
131.445953
 20
3698.466060
 30
0.0
  0
SPLINE
  5
126
100
AcDbEntity
  8
0
 62
7
100
AcDbSpline
 70
8
 71
3
 72
8
 73
4
 74
0
 40
0
 40
0
 40
0
 40
0
 40
1
 40
1
 40
1
 40
1
 10
131.445953
 20
3698.466060
 30
0.0
 10
131.445953
 20
3698.466060
 30
0.0
 10
171.533895
 20
3738.554010
 30
0.0
 10
171.533895
 20
3738.554010
 30
0.0
  0
SPLINE
  5
127
100
AcDbEntity
  8
0
 62
7
100
AcDbSpline
 70
8
 71
3
 72
8
 73
4
 74
0
 40
0
 40
0
 40
0
 40
0
 40
1
 40
1
 40
1
 40
1
 10
171.533895
 20
3738.554010
 30
0.0
 10
178.178494
 20
3745.180680
 30
0.0
 10
188.934748
 20
3745.173419
 30
0.0
 10
195.570393
 20
3738.537784
 30
0.0
  0
SPLINE
  5
128
100
AcDbEntity
  8
0
 62
7
100
AcDbSpline
 70
8
 71
3
 72
8
 73
4
 74
0
 40
0
 40
0
 40
0
 40
0
 40
1
 40
1
 40
1
 40
1
 10
195.570393
 20
3738.537784
 30
0.0
 10
202.206039
 20
3731.902149
 30
0.0
 10
202.213317
 20
3721.145894
 30
0.0
 10
195.586658
 20
3714.501285
 30
0.0
  0
LWPOLYLINE
  5
129
100
AcDbEntity
  8
0
 62
7
100
AcDbPolyline
 90
2
 70
0
 10
397.339508
 20
3805.814685
 30
0.0
 10
412.346453
 20
3814.818885
 30
0.0
  0
SPLINE
  5
12a
100
AcDbEntity
  8
0
 62
7
100
AcDbSpline
 70
8
 71
3
 72
8
 73
4
 74
0
 40
0
 40
0
 40
0
 40
0
 40
1
 40
1
 40
1
 40
1
 10
89.196840
 20
3457.653510
 30
0.0
 10
89.193424
 20
3448.262737
 30
0.0
 10
81.579741
 20
3440.651823
 30
0.0
 10
72.188967
 20
3440.651823
 30
0.0
  0
SPLINE
  5
12b
100
AcDbEntity
  8
0
 62
7
100
AcDbSpline
 70
8
 71
3
 72
8
 73
4
 74
0
 40
0
 40
0
 40
0
 40
0
 40
1
 40
1
 40
1
 40
1
 10
72.188967
 20
3440.651823
 30
0.0
 10
62.798194
 20
3440.651823
 30
0.0
 10
55.184510
 20
3448.262737
 30
0.0
 10
55.181095
 20
3457.653510
 30
0.0
  0
SPLINE
  5
12c
100
AcDbEntity
  8
0
 62
7
100
AcDbSpline
 70
8
 71
3
 72
8
 73
4
 74
0
 40
0
 40
0
 40
0
 40
0
 40
1
 40
1
 40
1
 40
1
 10
55.181095
 20
3457.653510
 30
0.0
 10
55.181095
 20
3457.653510
 30
0.0
 10
55.181095
 20
3514.346460
 30
0.0
 10
55.181095
 20
3514.346460
 30
0.0
  0
SPLINE
  5
12d
100
AcDbEntity
  8
0
 62
7
100
AcDbSpline
 70
8
 71
3
 72
8
 73
4
 74
0
 40
0
 40
0
 40
0
 40
0
 40
1
 40
1
 40
1
 40
1
 10
55.181095
 20
3514.346460
 30
0.0
 10
55.184510
 20
3523.737233
 30
0.0
 10
62.798194
 20
3531.348148
 30
0.0
 10
72.188967
 20
3531.348148
 30
0.0
  0
SPLINE
  5
12e
100
AcDbEntity
  8
0
 62
7
100
AcDbSpline
 70
8
 71
3
 72
8
 73
4
 74
0
 40
0
 40
0
 40
0
 40
0
 40
1
 40
1
 40
1
 40
1
 10
72.188967
 20
3531.348148
 30
0.0
 10
81.579741
 20
3531.348148
 30
0.0
 10
89.193424
 20
3523.737233
 30
0.0
 10
89.196840
 20
3514.346460
 30
0.0
  0
LWPOLYLINE
  5
12f
100
AcDbEntity
  8
0
 62
7
100
AcDbPolyline
 90
2
 70
0
 10
195.586658
 20
3714.501285
 30
0.0
 10
155.498715
 20
3674.413335
 30
0.0
  0
SPLINE
  5
130
100
AcDbEntity
  8
0
 62
7
100
AcDbSpline
 70
8
 71
3
 72
8
 73
4
 74
0
 40
0
 40
0
 40
0
 40
0
 40
1
 40
1
 40
1
 40
1
 10
195.586658
 20
3257.498685
 30
0.0
 10
202.213317
 20
3250.854076
 30
0.0
 10
202.206039
 20
3240.097822
 30
0.0
 10
195.570393
 20
3233.462187
 30
0.0
  0
SPLINE
  5
131
100
AcDbEntity
  8
0
 62
7
100
AcDbSpline
 70
8
 71
3
 72
8
 73
4
 74
0
 40
0
 40
0
 40
0
 40
0
 40
1
 40
1
 40
1
 40
1
 10
195.570393
 20
3233.462187
 30
0.0
 10
188.934748
 20
3226.826552
 30
0.0
 10
178.178494
 20
3226.819291
 30
0.0
 10
171.533895
 20
3233.445960
 30
0.0
  0
SPLINE
  5
132
100
AcDbEntity
  8
0
 62
7
100
AcDbSpline
 70
8
 71
3
 72
8
 73
4
 74
0
 40
0
 40
0
 40
0
 40
0
 40
1
 40
1
 40
1
 40
1
 10
171.533895
 20
3233.445960
 30
0.0
 10
171.533895
 20
3233.445960
 30
0.0
 10
131.445953
 20
3273.533910
 30
0.0
 10
131.445952
 20
3273.533910
 30
0.0
  0
SPLINE
  5
133
100
AcDbEntity
  8
0
 62
7
100
AcDbSpline
 70
8
 71
3
 72
8
 73
4
 74
0
 40
0
 40
0
 40
0
 40
0
 40
1
 40
1
 40
1
 40
1
 10
131.445952
 20
3273.533910
 30
0.0
 10
124.819293
 20
3280.178519
 30
0.0
 10
124.826571
 20
3290.934774
 30
0.0
 10
131.462217
 20
3297.570409
 30
0.0
  0
SPLINE
  5
134
100
AcDbEntity
  8
0
 62
7
100
AcDbSpline
 70
8
 71
3
 72
8
 73
4
 74
0
 40
0
 40
0
 40
0
 40
0
 40
1
 40
1
 40
1
 40
1
 10
131.462217
 20
3297.570409
 30
0.0
 10
138.097862
 20
3304.206044
 30
0.0
 10
148.854116
 20
3304.213305
 30
0.0
 10
155.498715
 20
3297.586635
 30
0.0
  0
LWPOLYLINE
  5
135
100
AcDbEntity
  8
0
 62
7
100
AcDbPolyline
 90
2
 70
0
 10
89.196840
 20
3514.346460
 30
0.0
 10
89.196840
 20
3457.653510
 30
0.0
  0
SPLINE
  5
136
100
AcDbEntity
  8
0
 62
7
100
AcDbSpline
 70
8
 71
3
 72
8
 73
4
 74
0
 40
0
 40
0
 40
0
 40
0
 40
1
 40
1
 40
1
 40
1
 10
412.346452
 20
3191.196810
 30
0.0
 10
421.731997
 20
3191.186015
 30
0.0
 10
429.334764
 20
3183.574499
 30
0.0
 10
429.334764
 20
3174.188948
 30
0.0
  0
SPLINE
  5
137
100
AcDbEntity
  8
0
 62
7
100
AcDbSpline
 70
8
 71
3
 72
8
 73
4
 74
0
 40
0
 40
0
 40
0
 40
0
 40
1
 40
1
 40
1
 40
1
 10
429.334764
 20
3174.188948
 30
0.0
 10
429.334764
 20
3164.803397
 30
0.0
 10
421.731997
 20
3157.191880
 30
0.0
 10
412.346452
 20
3157.181085
 30
0.0
  0
LWPOLYLINE
  5
138
100
AcDbEntity
  8
0
 62
7
100
AcDbPolyline
 90
2
 70
0
 10
155.498715
 20
3297.586635
 30
0.0
 10
195.586658
 20
3257.498685
 30
0.0
  0
SPLINE
  5
139
100
AcDbEntity
  8
0
 62
7
100
AcDbSpline
 70
8
 71
3
 72
8
 73
4
 74
0
 40
0
 40
0
 40
0
 40
0
 40
1
 40
1
 40
1
 40
1
 10
355.653540
 20
3157.181085
 30
0.0
 10
346.267995
 20
3157.191880
 30
0.0
 10
338.665228
 20
3164.803397
 30
0.0
 10
338.665228
 20
3174.188948
 30
0.0
  0
SPLINE
  5
13a
100
AcDbEntity
  8
0
 62
7
100
AcDbSpline
 70
8
 71
3
 72
8
 73
4
 74
0
 40
0
 40
0
 40
0
 40
0
 40
1
 40
1
 40
1
 40
1
 10
338.665228
 20
3174.188948
 30
0.0
 10
338.665228
 20
3183.574499
 30
0.0
 10
346.267995
 20
3191.186015
 30
0.0
 10
355.653540
 20
3191.196810
 30
0.0
  0
LWPOLYLINE
  5
13b
100
AcDbEntity
  8
0
 62
7
100
AcDbPolyline
 90
2
 70
0
 10
412.346452
 20
3157.181085
 30
0.0
 10
355.653540
 20
3157.181085
 30
0.0
  0
SPLINE
  5
13c
100
AcDbEntity
  8
0
 62
7
100
AcDbSpline
 70
8
 71
3
 72
8
 73
4
 74
0
 40
0
 40
0
 40
0
 40
0
 40
1
 40
1
 40
1
 40
1
 10
612.501300
 20
3297.586635
 30
0.0
 10
619.146842
 20
3304.207764
 30
0.0
 10
629.898568
 20
3304.197872
 30
0.0
 10
636.531915
 20
3297.564525
 30
0.0
  0
SPLINE
  5
13d
100
AcDbEntity
  8
0
 62
7
100
AcDbSpline
 70
8
 71
3
 72
8
 73
4
 74
0
 40
0
 40
0
 40
0
 40
0
 40
1
 40
1
 40
1
 40
1
 10
636.531915
 20
3297.564525
 30
0.0
 10
643.165262
 20
3290.931178
 30
0.0
 10
643.175154
 20
3280.179453
 30
0.0
 10
636.554025
 20
3273.533910
 30
0.0
  0
LWPOLYLINE
  5
13e
100
AcDbEntity
  8
0
 62
7
100
AcDbPolyline
 90
2
 70
0
 10
355.653540
 20
3191.196810
 30
0.0
 10
412.346452
 20
3191.196810
 30
0.0
  0
SPLINE
  5
13f
100
AcDbEntity
  8
0
 62
7
100
AcDbSpline
 70
8
 71
3
 72
8
 73
4
 74
0
 40
0
 40
0
 40
0
 40
0
 40
1
 40
1
 40
1
 40
1
 10
596.466075
 20
3233.445960
 30
0.0
 10
589.820533
 20
3226.824831
 30
0.0
 10
579.068807
 20
3226.834724
 30
0.0
 10
572.435460
 20
3233.468071
 30
0.0
  0
SPLINE
  5
140
100
AcDbEntity
  8
0
 62
7
100
AcDbSpline
 70
8
 71
3
 72
8
 73
4
 74
0
 40
0
 40
0
 40
0
 40
0
 40
1
 40
1
 40
1
 40
1
 10
572.435460
 20
3233.468071
 30
0.0
 10
565.802113
 20
3240.101418
 30
0.0
 10
565.792221
 20
3250.853143
 30
0.0
 10
572.413350
 20
3257.498685
 30
0.0
  0
LWPOLYLINE
  5
141
100
AcDbEntity
  8
0
 62
7
100
AcDbPolyline
 90
2
 70
0
 10
636.554025
 20
3273.533910
 30
0.0
 10
596.466075
 20
3233.445960
 30
0.0
  0
SPLINE
  5
142
100
AcDbEntity
  8
0
 62
7
100
AcDbSpline
 70
8
 71
3
 72
8
 73
4
 74
0
 40
0
 40
0
 40
0
 40
0
 40
1
 40
1
 40
1
 40
1
 10
678.803175
 20
3514.346460
 30
0.0
 10
678.813970
 20
3523.732005
 30
0.0
 10
686.425487
 20
3531.334772
 30
0.0
 10
695.811037
 20
3531.334772
 30
0.0
  0
SPLINE
  5
143
100
AcDbEntity
  8
0
 62
7
100
AcDbSpline
 70
8
 71
3
 72
8
 73
4
 74
0
 40
0
 40
0
 40
0
 40
0
 40
1
 40
1
 40
1
 40
1
 10
695.811037
 20
3531.334772
 30
0.0
 10
705.196588
 20
3531.334772
 30
0.0
 10
712.808105
 20
3523.732005
 30
0.0
 10
712.818900
 20
3514.346460
 30
0.0
  0
SPLINE
  5
144
100
AcDbEntity
  8
0
 62
7
100
AcDbSpline
 70
8
 71
3
 72
8
 73
4
 74
0
 40
0
 40
0
 40
0
 40
0
 40
1
 40
1
 40
1
 40
1
 10
712.818900
 20
3514.346460
 30
0.0
 10
712.818900
 20
3514.346460
 30
0.0
 10
712.818900
 20
3457.653510
 30
0.0
 10
712.818900
 20
3457.653510
 30
0.0
  0
SPLINE
  5
145
100
AcDbEntity
  8
0
 62
7
100
AcDbSpline
 70
8
 71
3
 72
8
 73
4
 74
0
 40
0
 40
0
 40
0
 40
0
 40
1
 40
1
 40
1
 40
1
 10
712.818900
 20
3457.653510
 30
0.0
 10
712.808105
 20
3448.267966
 30
0.0
 10
705.196588
 20
3440.665199
 30
0.0
 10
695.811037
 20
3440.665199
 30
0.0
  0
SPLINE
  5
146
100
AcDbEntity
  8
0
 62
7
100
AcDbSpline
 70
8
 71
3
 72
8
 73
4
 74
0
 40
0
 40
0
 40
0
 40
0
 40
1
 40
1
 40
1
 40
1
 10
695.811037
 20
3440.665199
 30
0.0
 10
686.425487
 20
3440.665199
 30
0.0
 10
678.813970
 20
3448.267966
 30
0.0
 10
678.803175
 20
3457.653510
 30
0.0
  0
LWPOLYLINE
  5
147
100
AcDbEntity
  8
0
 62
7
100
AcDbPolyline
 90
2
 70
0
 10
572.413350
 20
3257.498685
 30
0.0
 10
612.501300
 20
3297.586635
 30
0.0
  0
SPLINE
  5
148
100
AcDbEntity
  8
0
 62
7
100
AcDbSpline
 70
8
 71
3
 72
8
 73
4
 74
0
 40
0
 40
0
 40
0
 40
0
 40
1
 40
1
 40
1
 40
1
 10
572.413350
 20
3714.501285
 30
0.0
 10
565.792221
 20
3721.146828
 30
0.0
 10
565.802113
 20
3731.898553
 30
0.0
 10
572.435460
 20
3738.531900
 30
0.0
  0
SPLINE
  5
149
100
AcDbEntity
  8
0
 62
7
100
AcDbSpline
 70
8
 71
3
 72
8
 73
4
 74
0
 40
0
 40
0
 40
0
 40
0
 40
1
 40
1
 40
1
 40
1
 10
572.435460
 20
3738.531900
 30
0.0
 10
579.068807
 20
3745.165247
 30
0.0
 10
589.820533
 20
3745.175139
 30
0.0
 10
596.466075
 20
3738.554010
 30
0.0
  0
LWPOLYLINE
  5
14a
100
AcDbEntity
  8
0
 62
7
100
AcDbPolyline
 90
2
 70
0
 10
678.803175
 20
3457.653510
 30
0.0
 10
678.803175
 20
3514.346460
 30
0.0
  0
SPLINE
  5
14b
100
AcDbEntity
  8
0
 62
7
100
AcDbSpline
 70
8
 71
3
 72
8
 73
4
 74
0
 40
0
 40
0
 40
0
 40
0
 40
1
 40
1
 40
1
 40
1
 10
636.554025
 20
3698.466060
 30
0.0
 10
643.175154
 20
3691.820518
 30
0.0
 10
643.165262
 20
3681.068793
 30
0.0
 10
636.531915
 20
3674.435446
 30
0.0
  0
SPLINE
  5
14c
100
AcDbEntity
  8
0
 62
7
100
AcDbSpline
 70
8
 71
3
 72
8
 73
4
 74
0
 40
0
 40
0
 40
0
 40
0
 40
1
 40
1
 40
1
 40
1
 10
636.531915
 20
3674.435446
 30
0.0
 10
629.898568
 20
3667.802099
 30
0.0
 10
619.146842
 20
3667.792206
 30
0.0
 10
612.501300
 20
3674.413335
 30
0.0
  0
LWPOLYLINE
  5
14d
100
AcDbEntity
  8
0
 62
7
100
AcDbPolyline
 90
2
 70
0
 10
596.466075
 20
3738.554010
 30
0.0
 10
636.554025
 20
3698.466060
 30
0.0
  0
LWPOLYLINE
  5
14e
100
AcDbEntity
  8
0
 62
7
100
AcDbPolyline
 90
2
 70
0
 10
612.501300
 20
3674.413335
 30
0.0
 10
572.413350
 20
3714.501285
 30
0.0
  0
SPLINE
  5
14f
100
AcDbEntity
  8
0
 62
7
100
AcDbSpline
 70
8
 71
3
 72
8
 73
4
 74
0
 40
0
 40
0
 40
0
 40
0
 40
1
 40
1
 40
1
 40
1
 10
568.150800
 20
1959.138285
 30
0.0
 10
561.514693
 20
1952.495282
 30
0.0
 10
561.517497
 20
1941.731294
 30
0.0
 10
568.157063
 20
1935.091748
 30
0.0
  0
SPLINE
  5
150
100
AcDbEntity
  8
0
 62
7
100
AcDbSpline
 70
8
 71
3
 72
8
 73
4
 74
0
 40
0
 40
0
 40
0
 40
0
 40
1
 40
1
 40
1
 40
1
 10
568.157063
 20
1935.091748
 30
0.0
 10
574.796630
 20
1928.452203
 30
0.0
 10
585.560617
 20
1928.449433
 30
0.0
 10
592.203600
 20
1935.085560
 30
0.0
  0
LWPOLYLINE
  5
151
100
AcDbEntity
  8
0
 62
7
100
AcDbPolyline
 90
2
 70
0
 10
608.238750
 20
1999.226235
 30
0.0
 10
568.150800
 20
1959.138285
 30
0.0
  0
SPLINE
  5
152
100
AcDbEntity
  8
0
 62
7
100
AcDbSpline
 70
8
 71
3
 72
8
 73
4
 74
0
 40
0
 40
0
 40
0
 40
0
 40
1
 40
1
 40
1
 40
1
 10
632.291550
 20
1975.173510
 30
0.0
 10
638.927657
 20
1981.816514
 30
0.0
 10
638.924853
 20
1992.580501
 30
0.0
 10
632.285287
 20
1999.220047
 30
0.0
  0
SPLINE
  5
153
100
AcDbEntity
  8
0
 62
7
100
AcDbSpline
 70
8
 71
3
 72
8
 73
4
 74
0
 40
0
 40
0
 40
0
 40
0
 40
1
 40
1
 40
1
 40
1
 10
632.285287
 20
1999.220047
 30
0.0
 10
625.645720
 20
2005.859593
 30
0.0
 10
614.881733
 20
2005.862363
 30
0.0
 10
608.238750
 20
1999.226235
 30
0.0
  0
LWPOLYLINE
  5
154
100
AcDbEntity
  8
0
 62
7
100
AcDbPolyline
 90
2
 70
0
 10
592.203600
 20
1935.085560
 30
0.0
 10
632.291550
 20
1975.173510
 30
0.0
  0
SPLINE
  5
155
100
AcDbEntity
  8
0
 62
7
100
AcDbSpline
 70
8
 71
3
 72
8
 73
4
 74
0
 40
0
 40
0
 40
0
 40
0
 40
1
 40
1
 40
1
 40
1
 10
167.271375
 20
2440.193640
 30
0.0
 10
167.271375
 20
2440.193640
 30
0.0
 10
127.183425
 20
2400.105698
 30
0.0
 10
127.183425
 20
2400.105698
 30
0.0
  0
SPLINE
  5
156
100
AcDbEntity
  8
0
 62
7
100
AcDbSpline
 70
8
 71
3
 72
8
 73
4
 74
0
 40
0
 40
0
 40
0
 40
0
 40
1
 40
1
 40
1
 40
1
 10
127.183425
 20
2400.105698
 30
0.0
 10
120.541436
 20
2393.463700
 30
0.0
 10
120.541443
 20
2382.694902
 30
0.0
 10
127.183440
 20
2376.052913
 30
0.0
  0
SPLINE
  5
157
100
AcDbEntity
  8
0
 62
7
100
AcDbSpline
 70
8
 71
3
 72
8
 73
4
 74
0
 40
0
 40
0
 40
0
 40
0
 40
1
 40
1
 40
1
 40
1
 10
127.183440
 20
2376.052913
 30
0.0
 10
133.825437
 20
2369.410924
 30
0.0
 10
144.594236
 20
2369.410931
 30
0.0
 10
151.236225
 20
2376.052928
 30
0.0
  0
LWPOLYLINE
  5
158
100
AcDbEntity
  8
0
 62
7
100
AcDbPolyline
 90
1
 70
1
 10
608.238750
 20
1999.226235
 30
0.0
  0
SPLINE
  5
159
100
AcDbEntity
  8
0
 62
7
100
AcDbSpline
 70
8
 71
3
 72
8
 73
4
 74
0
 40
0
 40
0
 40
0
 40
0
 40
1
 40
1
 40
1
 40
1
 10
191.324175
 20
2416.140878
 30
0.0
 10
197.964135
 20
2422.783223
 30
0.0
 10
197.963165
 20
2433.550362
 30
0.0
 10
191.322007
 20
2440.191510
 30
0.0
  0
SPLINE
  5
15a
100
AcDbEntity
  8
0
 62
7
100
AcDbSpline
 70
8
 71
3
 72
8
 73
4
 74
0
 40
0
 40
0
 40
0
 40
0
 40
1
 40
1
 40
1
 40
1
 10
191.322007
 20
2440.191510
 30
0.0
 10
184.680849
 20
2446.832657
 30
0.0
 10
173.913710
 20
2446.833611
 30
0.0
 10
167.271375
 20
2440.193640
 30
0.0
  0
LWPOLYLINE
  5
15b
100
AcDbEntity
  8
0
 62
7
100
AcDbPolyline
 90
2
 70
0
 10
151.236225
 20
2376.052928
 30
0.0
 10
191.324175
 20
2416.140878
 30
0.0
  0
SPLINE
  5
15c
100
AcDbEntity
  8
0
 62
7
100
AcDbSpline
 70
8
 71
3
 72
8
 73
4
 74
0
 40
0
 40
0
 40
0
 40
0
 40
1
 40
1
 40
1
 40
1
 10
608.238750
 20
2376.052928
 30
0.0
 10
614.880739
 20
2369.410931
 30
0.0
 10
625.649538
 20
2369.410924
 30
0.0
 10
632.291535
 20
2376.052913
 30
0.0
  0
SPLINE
  5
15d
100
AcDbEntity
  8
0
 62
7
100
AcDbSpline
 70
8
 71
3
 72
8
 73
4
 74
0
 40
0
 40
0
 40
0
 40
0
 40
1
 40
1
 40
1
 40
1
 10
632.291535
 20
2376.052913
 30
0.0
 10
638.933532
 20
2382.694902
 30
0.0
 10
638.933539
 20
2393.463700
 30
0.0
 10
632.291550
 20
2400.105698
 30
0.0
  0
SPLINE
  5
15e
100
AcDbEntity
  8
0
 62
7
100
AcDbSpline
 70
8
 71
3
 72
8
 73
4
 74
0
 40
0
 40
0
 40
0
 40
0
 40
1
 40
1
 40
1
 40
1
 10
408.083925
 20
2516.458493
 30
0.0
 10
414.160253
 20
2516.458493
 30
0.0
 10
419.775012
 20
2513.216810
 30
0.0
 10
422.813176
 20
2507.954556
 30
0.0
  0
SPLINE
  5
15f
100
AcDbEntity
  8
0
 62
7
100
AcDbSpline
 70
8
 71
3
 72
8
 73
4
 74
0
 40
0
 40
0
 40
0
 40
0
 40
1
 40
1
 40
1
 40
1
 10
422.813176
 20
2507.954556
 30
0.0
 10
425.851340
 20
2502.692301
 30
0.0
 10
425.851340
 20
2496.208937
 30
0.0
 10
422.813176
 20
2490.946682
 30
0.0
  0
SPLINE
  5
160
100
AcDbEntity
  8
0
 62
7
100
AcDbSpline
 70
8
 71
3
 72
8
 73
4
 74
0
 40
0
 40
0
 40
0
 40
0
 40
1
 40
1
 40
1
 40
1
 10
422.813176
 20
2490.946682
 30
0.0
 10
419.775012
 20
2485.684428
 30
0.0
 10
414.160253
 20
2482.442745
 30
0.0
 10
408.083925
 20
2482.442745
 30
0.0
  0
LWPOLYLINE
  5
161
100
AcDbEntity
  8
0
 62
7
100
AcDbPolyline
 90
1
 70
1
 10
167.271375
 20
2440.193640
 30
0.0
  0
SPLINE
  5
162
100
AcDbEntity
  8
0
 62
7
100
AcDbSpline
 70
8
 71
3
 72
8
 73
4
 74
0
 40
0
 40
0
 40
0
 40
0
 40
1
 40
1
 40
1
 40
1
 10
351.391050
 20
2482.442745
 30
0.0
 10
345.314722
 20
2482.442745
 30
0.0
 10
339.699963
 20
2485.684428
 30
0.0
 10
336.661799
 20
2490.946682
 30
0.0
  0
SPLINE
  5
163
100
AcDbEntity
  8
0
 62
7
100
AcDbSpline
 70
8
 71
3
 72
8
 73
4
 74
0
 40
0
 40
0
 40
0
 40
0
 40
1
 40
1
 40
1
 40
1
 10
336.661799
 20
2490.946682
 30
0.0
 10
333.623635
 20
2496.208937
 30
0.0
 10
333.623635
 20
2502.692301
 30
0.0
 10
336.661799
 20
2507.954556
 30
0.0
  0
SPLINE
  5
164
100
AcDbEntity
  8
0
 62
7
100
AcDbSpline
 70
8
 71
3
 72
8
 73
4
 74
0
 40
0
 40
0
 40
0
 40
0
 40
1
 40
1
 40
1
 40
1
 10
336.661799
 20
2507.954556
 30
0.0
 10
339.699963
 20
2513.216810
 30
0.0
 10
345.314722
 20
2516.458493
 30
0.0
 10
351.391050
 20
2516.458493
 30
0.0
  0
LWPOLYLINE
  5
165
100
AcDbEntity
  8
0
 62
7
100
AcDbPolyline
 90
2
 70
0
 10
408.083925
 20
2482.442745
 30
0.0
 10
351.391050
 20
2482.442745
 30
0.0
  0
SPLINE
  5
166
100
AcDbEntity
  8
0
 62
7
100
AcDbSpline
 70
8
 71
3
 72
8
 73
4
 74
0
 40
0
 40
0
 40
0
 40
0
 40
1
 40
1
 40
1
 40
1
 10
674.540625
 20
2215.986060
 30
0.0
 10
674.551420
 20
2225.371605
 30
0.0
 10
682.162937
 20
2232.974372
 30
0.0
 10
691.548487
 20
2232.974372
 30
0.0
  0
SPLINE
  5
167
100
AcDbEntity
  8
0
 62
7
100
AcDbSpline
 70
8
 71
3
 72
8
 73
4
 74
0
 40
0
 40
0
 40
0
 40
0
 40
1
 40
1
 40
1
 40
1
 10
691.548487
 20
2232.974372
 30
0.0
 10
700.934038
 20
2232.974372
 30
0.0
 10
708.545555
 20
2225.371605
 30
0.0
 10
708.556350
 20
2215.986060
 30
0.0
  0
LWPOLYLINE
  5
168
100
AcDbEntity
  8
0
 62
7
100
AcDbPolyline
 90
2
 70
0
 10
351.391050
 20
2516.458493
 30
0.0
 10
408.083925
 20
2516.458493
 30
0.0
  0
SPLINE
  5
169
100
AcDbEntity
  8
0
 62
7
100
AcDbSpline
 70
8
 71
3
 72
8
 73
4
 74
0
 40
0
 40
0
 40
0
 40
0
 40
1
 40
1
 40
1
 40
1
 10
708.556350
 20
2159.293110
 30
0.0
 10
708.545555
 20
2149.907566
 30
0.0
 10
700.934038
 20
2142.304799
 30
0.0
 10
691.548487
 20
2142.304799
 30
0.0
  0
SPLINE
  5
16a
100
AcDbEntity
  8
0
 62
7
100
AcDbSpline
 70
8
 71
3
 72
8
 73
4
 74
0
 40
0
 40
0
 40
0
 40
0
 40
1
 40
1
 40
1
 40
1
 10
691.548487
 20
2142.304799
 30
0.0
 10
682.162937
 20
2142.304799
 30
0.0
 10
674.551420
 20
2149.907566
 30
0.0
 10
674.540625
 20
2159.293110
 30
0.0
  0
LWPOLYLINE
  5
16b
100
AcDbEntity
  8
0
 62
7
100
AcDbPolyline
 90
2
 70
0
 10
708.556350
 20
2215.986060
 30
0.0
 10
708.556350
 20
2159.293110
 30
0.0
  0
SPLINE
  5
16c
100
AcDbEntity
  8
0
 62
7
100
AcDbSpline
 70
8
 71
3
 72
8
 73
4
 74
0
 40
0
 40
0
 40
0
 40
0
 40
1
 40
1
 40
1
 40
1
 10
408.083925
 20
1892.836410
 30
0.0
 10
417.469470
 20
1892.825615
 30
0.0
 10
425.072237
 20
1885.214099
 30
0.0
 10
425.072237
 20
1875.828548
 30
0.0
  0
SPLINE
  5
16d
100
AcDbEntity
  8
0
 62
7
100
AcDbSpline
 70
8
 71
3
 72
8
 73
4
 74
0
 40
0
 40
0
 40
0
 40
0
 40
1
 40
1
 40
1
 40
1
 10
425.072237
 20
1875.828548
 30
0.0
 10
425.072237
 20
1866.442997
 30
0.0
 10
417.469470
 20
1858.831480
 30
0.0
 10
408.083925
 20
1858.820685
 30
0.0
  0
LWPOLYLINE
  5
16e
100
AcDbEntity
  8
0
 62
7
100
AcDbPolyline
 90
2
 70
0
 10
674.540625
 20
2159.293110
 30
0.0
 10
674.540625
 20
2215.986060
 30
0.0
  0
SPLINE
  5
16f
100
AcDbEntity
  8
0
 62
7
100
AcDbSpline
 70
8
 71
3
 72
8
 73
4
 74
0
 40
0
 40
0
 40
0
 40
0
 40
1
 40
1
 40
1
 40
1
 10
351.391050
 20
1858.820685
 30
0.0
 10
342.005505
 20
1858.831480
 30
0.0
 10
334.402738
 20
1866.442997
 30
0.0
 10
334.402738
 20
1875.828548
 30
0.0
  0
SPLINE
  5
170
100
AcDbEntity
  8
0
 62
7
100
AcDbSpline
 70
8
 71
3
 72
8
 73
4
 74
0
 40
0
 40
0
 40
0
 40
0
 40
1
 40
1
 40
1
 40
1
 10
334.402738
 20
1875.828548
 30
0.0
 10
334.402738
 20
1885.214099
 30
0.0
 10
342.005505
 20
1892.825615
 30
0.0
 10
351.391050
 20
1892.836410
 30
0.0
  0
LWPOLYLINE
  5
171
100
AcDbEntity
  8
0
 62
7
100
AcDbPolyline
 90
2
 70
0
 10
408.083925
 20
1858.820685
 30
0.0
 10
351.391050
 20
1858.820685
 30
0.0
  0
SPLINE
  5
172
100
AcDbEntity
  8
0
 62
7
100
AcDbSpline
 70
8
 71
3
 72
8
 73
4
 74
0
 40
0
 40
0
 40
0
 40
0
 40
1
 40
1
 40
1
 40
1
 10
634.855575
 20
2187.639585
 30
0.0
 10
634.893865
 20
2278.810020
 30
0.0
 10
586.277008
 20
2363.071362
 30
0.0
 10
507.327472
 20
2408.667636
 30
0.0
  0
SPLINE
  5
173
100
AcDbEntity
  8
0
 62
7
100
AcDbSpline
 70
8
 71
3
 72
8
 73
4
 74
0
 40
0
 40
0
 40
0
 40
0
 40
1
 40
1
 40
1
 40
1
 10
507.327472
 20
2408.667636
 30
0.0
 10
428.377935
 20
2454.263910
 30
0.0
 10
331.097040
 20
2454.263910
 30
0.0
 10
252.147503
 20
2408.667636
 30
0.0
  0
SPLINE
  5
174
100
AcDbEntity
  8
0
 62
7
100
AcDbSpline
 70
8
 71
3
 72
8
 73
4
 74
0
 40
0
 40
0
 40
0
 40
0
 40
1
 40
1
 40
1
 40
1
 10
252.147503
 20
2408.667636
 30
0.0
 10
173.197967
 20
2363.071362
 30
0.0
 10
124.581110
 20
2278.810020
 30
0.0
 10
124.619400
 20
2187.639585
 30
0.0
  0
SPLINE
  5
175
100
AcDbEntity
  8
0
 62
7
100
AcDbSpline
 70
8
 71
3
 72
8
 73
4
 74
0
 40
0
 40
0
 40
0
 40
0
 40
1
 40
1
 40
1
 40
1
 10
124.619400
 20
2187.639585
 30
0.0
 10
124.581110
 20
2096.469151
 30
0.0
 10
173.197967
 20
2012.207809
 30
0.0
 10
252.147503
 20
1966.611535
 30
0.0
  0
SPLINE
  5
176
100
AcDbEntity
  8
0
 62
7
100
AcDbSpline
 70
8
 71
3
 72
8
 73
4
 74
0
 40
0
 40
0
 40
0
 40
0
 40
1
 40
1
 40
1
 40
1
 10
252.147503
 20
1966.611535
 30
0.0
 10
331.097040
 20
1921.015261
 30
0.0
 10
428.377935
 20
1921.015261
 30
0.0
 10
507.327472
 20
1966.611535
 30
0.0
  0
SPLINE
  5
177
100
AcDbEntity
  8
0
 62
7
100
AcDbSpline
 70
8
 71
3
 72
8
 73
4
 74
0
 40
0
 40
0
 40
0
 40
0
 40
1
 40
1
 40
1
 40
1
 10
507.327472
 20
1966.611535
 30
0.0
 10
586.277008
 20
2012.207809
 30
0.0
 10
634.893865
 20
2096.469151
 30
0.0
 10
634.855575
 20
2187.639585
 30
0.0
  0
LWPOLYLINE
  5
178
100
AcDbEntity
  8
0
 62
7
100
AcDbPolyline
 90
2
 70
0
 10
351.391050
 20
1892.836410
 30
0.0
 10
408.083925
 20
1892.836410
 30
0.0
  0
SPLINE
  5
179
100
AcDbEntity
  8
0
 62
7
100
AcDbSpline
 70
8
 71
3
 72
8
 73
4
 74
0
 40
0
 40
0
 40
0
 40
0
 40
1
 40
1
 40
1
 40
1
 10
127.183425
 20
1975.173510
 30
0.0
 10
127.183425
 20
1975.173510
 30
0.0
 10
167.271375
 20
1935.085560
 30
0.0
 10
167.271375
 20
1935.085560
 30
0.0
  0
SPLINE
  5
17a
100
AcDbEntity
  8
0
 62
7
100
AcDbSpline
 70
8
 71
3
 72
8
 73
4
 74
0
 40
0
 40
0
 40
0
 40
0
 40
1
 40
1
 40
1
 40
1
 10
167.271375
 20
1935.085560
 30
0.0
 10
173.914358
 20
1928.449433
 30
0.0
 10
184.678345
 20
1928.452203
 30
0.0
 10
191.317912
 20
1935.091748
 30
0.0
  0
SPLINE
  5
17b
100
AcDbEntity
  8
0
 62
7
100
AcDbSpline
 70
8
 71
3
 72
8
 73
4
 74
0
 40
0
 40
0
 40
0
 40
0
 40
1
 40
1
 40
1
 40
1
 10
191.317912
 20
1935.091748
 30
0.0
 10
197.957478
 20
1941.731294
 30
0.0
 10
197.960282
 20
1952.495282
 30
0.0
 10
191.324175
 20
1959.138285
 30
0.0
  0
LWPOLYLINE
  5
17c
100
AcDbEntity
  8
0
 62
7
100
AcDbPolyline
 90
1
 70
1
 10
634.855575
 20
2187.639585
 30
0.0
  0
SPLINE
  5
17d
100
AcDbEntity
  8
0
 62
7
100
AcDbSpline
 70
8
 71
3
 72
8
 73
4
 74
0
 40
0
 40
0
 40
0
 40
0
 40
1
 40
1
 40
1
 40
1
 10
151.236225
 20
1999.226235
 30
0.0
 10
144.593242
 20
2005.862363
 30
0.0
 10
133.829255
 20
2005.859593
 30
0.0
 10
127.189688
 20
1999.220047
 30
0.0
  0
SPLINE
  5
17e
100
AcDbEntity
  8
0
 62
7
100
AcDbSpline
 70
8
 71
3
 72
8
 73
4
 74
0
 40
0
 40
0
 40
0
 40
0
 40
1
 40
1
 40
1
 40
1
 10
127.189688
 20
1999.220047
 30
0.0
 10
120.550122
 20
1992.580501
 30
0.0
 10
120.547318
 20
1981.816514
 30
0.0
 10
127.183425
 20
1975.173510
 30
0.0
  0
LWPOLYLINE
  5
17f
100
AcDbEntity
  8
0
 62
7
100
AcDbPolyline
 90
2
 70
0
 10
191.324175
 20
1959.138285
 30
0.0
 10
151.236225
 20
1999.226235
 30
0.0
  0
LWPOLYLINE
  5
180
100
AcDbEntity
  8
0
 62
7
100
AcDbPolyline
 90
1
 70
1
 10
127.183425
 20
1975.173510
 30
0.0
  0
SPLINE
  5
181
100
AcDbEntity
  8
0
 62
7
100
AcDbSpline
 70
8
 71
3
 72
8
 73
4
 74
0
 40
0
 40
0
 40
0
 40
0
 40
1
 40
1
 40
1
 40
1
 10
592.203600
 20
2440.193640
 30
0.0
 10
587.907244
 20
2444.491539
 30
0.0
 10
581.644158
 20
2446.170533
 30
0.0
 10
575.774077
 20
2444.598030
 30
0.0
  0
SPLINE
  5
182
100
AcDbEntity
  8
0
 62
7
100
AcDbSpline
 70
8
 71
3
 72
8
 73
4
 74
0
 40
0
 40
0
 40
0
 40
0
 40
1
 40
1
 40
1
 40
1
 10
575.774077
 20
2444.598030
 30
0.0
 10
569.903997
 20
2443.025526
 30
0.0
 10
565.318949
 20
2438.440485
 30
0.0
 10
563.746436
 20
2432.570407
 30
0.0
  0
SPLINE
  5
183
100
AcDbEntity
  8
0
 62
7
100
AcDbSpline
 70
8
 71
3
 72
8
 73
4
 74
0
 40
0
 40
0
 40
0
 40
0
 40
1
 40
1
 40
1
 40
1
 10
563.746436
 20
2432.570407
 30
0.0
 10
562.173923
 20
2426.700329
 30
0.0
 10
563.852908
 20
2420.437241
 30
0.0
 10
568.150800
 20
2416.140878
 30
0.0
  0
SPLINE
  5
184
100
AcDbEntity
  8
0
 62
7
100
AcDbSpline
 70
8
 71
3
 72
8
 73
4
 74
0
 40
0
 40
0
 40
0
 40
0
 40
1
 40
1
 40
1
 40
1
 10
50.918625
 20
2215.986060
 30
0.0
 10
50.929420
 20
2225.371605
 30
0.0
 10
58.540937
 20
2232.974372
 30
0.0
 10
67.926488
 20
2232.974372
 30
0.0
  0
SPLINE
  5
185
100
AcDbEntity
  8
0
 62
7
100
AcDbSpline
 70
8
 71
3
 72
8
 73
4
 74
0
 40
0
 40
0
 40
0
 40
0
 40
1
 40
1
 40
1
 40
1
 10
67.926488
 20
2232.974372
 30
0.0
 10
77.312038
 20
2232.974372
 30
0.0
 10
84.923555
 20
2225.371605
 30
0.0
 10
84.934350
 20
2215.986060
 30
0.0
  0
LWPOLYLINE
  5
186
100
AcDbEntity
  8
0
 62
7
100
AcDbPolyline
 90
2
 70
0
 10
608.238750
 20
2376.052928
 30
0.0
 10
568.150800
 20
2416.140878
 30
0.0
  0
SPLINE
  5
187
100
AcDbEntity
  8
0
 62
7
100
AcDbSpline
 70
8
 71
3
 72
8
 73
4
 74
0
 40
0
 40
0
 40
0
 40
0
 40
1
 40
1
 40
1
 40
1
 10
84.934350
 20
2159.293110
 30
0.0
 10
84.923555
 20
2149.907566
 30
0.0
 10
77.312038
 20
2142.304799
 30
0.0
 10
67.926488
 20
2142.304799
 30
0.0
  0
SPLINE
  5
188
100
AcDbEntity
  8
0
 62
7
100
AcDbSpline
 70
8
 71
3
 72
8
 73
4
 74
0
 40
0
 40
0
 40
0
 40
0
 40
1
 40
1
 40
1
 40
1
 10
67.926488
 20
2142.304799
 30
0.0
 10
58.540937
 20
2142.304799
 30
0.0
 10
50.929420
 20
2149.907566
 30
0.0
 10
50.918625
 20
2159.293110
 30
0.0
  0
LWPOLYLINE
  5
189
100
AcDbEntity
  8
0
 62
7
100
AcDbPolyline
 90
2
 70
0
 10
84.934350
 20
2215.986060
 30
0.0
 10
84.934350
 20
2159.293110
 30
0.0
  0
SPLINE
  5
18a
100
AcDbEntity
  8
0
 62
7
100
AcDbSpline
 70
8
 71
3
 72
8
 73
4
 74
0
 40
0
 40
0
 40
0
 40
0
 40
1
 40
1
 40
1
 40
1
 10
734.068200
 20
2187.639585
 30
0.0
 10
734.068203
 20
2314.229758
 30
0.0
 10
666.533151
 20
2431.203903
 30
0.0
 10
556.902846
 20
2494.498990
 30
0.0
  0
SPLINE
  5
18b
100
AcDbEntity
  8
0
 62
7
100
AcDbSpline
 70
8
 71
3
 72
8
 73
4
 74
0
 40
0
 40
0
 40
0
 40
0
 40
1
 40
1
 40
1
 40
1
 10
556.902846
 20
2494.498990
 30
0.0
 10
447.272541
 20
2557.794077
 30
0.0
 10
312.202434
 20
2557.794077
 30
0.0
 10
202.572129
 20
2494.498990
 30
0.0
  0
SPLINE
  5
18c
100
AcDbEntity
  8
0
 62
7
100
AcDbSpline
 70
8
 71
3
 72
8
 73
4
 74
0
 40
0
 40
0
 40
0
 40
0
 40
1
 40
1
 40
1
 40
1
 10
202.572129
 20
2494.498990
 30
0.0
 10
92.941824
 20
2431.203903
 30
0.0
 10
25.406772
 20
2314.229758
 30
0.0
 10
25.406775
 20
2187.639585
 30
0.0
  0
SPLINE
  5
18d
100
AcDbEntity
  8
0
 62
7
100
AcDbSpline
 70
8
 71
3
 72
8
 73
4
 74
0
 40
0
 40
0
 40
0
 40
0
 40
1
 40
1
 40
1
 40
1
 10
25.406775
 20
2187.639585
 30
0.0
 10
25.406775
 20
2061.049414
 30
0.0
 10
92.941827
 20
1944.075272
 30
0.0
 10
202.572131
 20
1880.780187
 30
0.0
  0
SPLINE
  5
18e
100
AcDbEntity
  8
0
 62
7
100
AcDbSpline
 70
8
 71
3
 72
8
 73
4
 74
0
 40
0
 40
0
 40
0
 40
0
 40
1
 40
1
 40
1
 40
1
 10
202.572131
 20
1880.780187
 30
0.0
 10
312.202435
 20
1817.485101
 30
0.0
 10
447.272540
 20
1817.485101
 30
0.0
 10
556.902844
 20
1880.780187
 30
0.0
  0
SPLINE
  5
18f
100
AcDbEntity
  8
0
 62
7
100
AcDbSpline
 70
8
 71
3
 72
8
 73
4
 74
0
 40
0
 40
0
 40
0
 40
0
 40
1
 40
1
 40
1
 40
1
 10
556.902844
 20
1880.780187
 30
0.0
 10
666.533148
 20
1944.075272
 30
0.0
 10
734.068200
 20
2061.049414
 30
0.0
 10
734.068200
 20
2187.639585
 30
0.0
  0
LWPOLYLINE
  5
190
100
AcDbEntity
  8
0
 62
7
100
AcDbPolyline
 90
2
 70
0
 10
50.918625
 20
2159.293110
 30
0.0
 10
50.918625
 20
2215.986060
 30
0.0
  0
LWPOLYLINE
  5
191
100
AcDbEntity
  8
0
 62
7
100
AcDbPolyline
 90
1
 70
1
 10
734.068200
 20
2187.639585
 30
0.0
  0
LWPOLYLINE
  5
192
100
AcDbEntity
  8
0
 62
7
100
AcDbPolyline
 90
2
 70
0
 10
592.203600
 20
2440.193640
 30
0.0
 10
632.291550
 20
2400.105698
 30
0.0
  0
LWPOLYLINE
  5
193
100
AcDbEntity
  8
0
 62
7
100
AcDbPolyline
 90
2
 70
0
 10
624.472800
 20
2115.598710
 30
0.0
 10
719.647575
 20
2087.582760
 30
0.0
  0
LWPOLYLINE
  5
194
100
AcDbEntity
  8
0
 62
7
100
AcDbPolyline
 90
2
 70
0
 10
614.952825
 20
2088.851985
 30
0.0
 10
711.643050
 20
2060.389935
 30
0.0
  0
LWPOLYLINE
  5
195
100
AcDbEntity
  8
0
 62
7
100
AcDbPolyline
 90
2
 70
0
 10
710.553600
 20
2060.710635
 30
0.0
 10
719.647575
 20
2087.582760
 30
0.0
  0
LWPOLYLINE
  5
196
100
AcDbEntity
  8
0
 62
7
100
AcDbPolyline
 90
2
 70
0
 10
614.952825
 20
2088.851985
 30
0.0
 10
624.472800
 20
2115.598710
 30
0.0
  0
SPLINE
  5
197
100
AcDbEntity
  8
0
 62
7
100
AcDbSpline
 70
8
 71
3
 72
8
 73
4
 74
0
 40
0
 40
0
 40
0
 40
0
 40
1
 40
1
 40
1
 40
1
 10
772.978022
 20
2595.475242
 30
0.0
 10
767.417645
 20
2593.024918
 30
0.0
 10
763.586877
 20
2587.794300
 30
0.0
 10
762.928731
 20
2581.753710
 30
0.0
  0
SPLINE
  5
198
100
AcDbEntity
  8
0
 62
7
100
AcDbSpline
 70
8
 71
3
 72
8
 73
4
 74
0
 40
0
 40
0
 40
0
 40
0
 40
1
 40
1
 40
1
 40
1
 10
762.928731
 20
2581.753710
 30
0.0
 10
762.270585
 20
2575.713121
 30
0.0
 10
764.885049
 20
2569.780270
 30
0.0
 10
769.787280
 20
2566.190004
 30
0.0
  0
SPLINE
  5
199
100
AcDbEntity
  8
0
 62
7
100
AcDbSpline
 70
8
 71
3
 72
8
 73
4
 74
0
 40
0
 40
0
 40
0
 40
0
 40
1
 40
1
 40
1
 40
1
 10
769.787280
 20
2566.190004
 30
0.0
 10
774.689511
 20
2562.599738
 30
0.0
 10
781.134743
 20
2561.897505
 30
0.0
 10
786.695120
 20
2564.347828
 30
0.0
  0
SPLINE
  5
19a
100
AcDbEntity
  8
0
 62
7
100
AcDbSpline
 70
8
 71
3
 72
8
 73
4
 74
0
 40
0
 40
0
 40
0
 40
0
 40
1
 40
1
 40
1
 40
1
 10
786.695120
 20
2564.347828
 30
0.0
 10
786.695120
 20
2564.347828
 30
0.0
 10
838.574097
 20
2587.209638
 30
0.0
 10
838.574097
 20
2587.209638
 30
0.0
  0
SPLINE
  5
19b
100
AcDbEntity
  8
0
 62
7
100
AcDbSpline
 70
8
 71
3
 72
8
 73
4
 74
0
 40
0
 40
0
 40
0
 40
0
 40
1
 40
1
 40
1
 40
1
 10
838.574097
 20
2587.209638
 30
0.0
 10
844.134474
 20
2589.659962
 30
0.0
 10
847.965242
 20
2594.890580
 30
0.0
 10
848.623388
 20
2600.931169
 30
0.0
  0
SPLINE
  5
19c
100
AcDbEntity
  8
0
 62
7
100
AcDbSpline
 70
8
 71
3
 72
8
 73
4
 74
0
 40
0
 40
0
 40
0
 40
0
 40
1
 40
1
 40
1
 40
1
 10
848.623388
 20
2600.931169
 30
0.0
 10
849.281534
 20
2606.971759
 30
0.0
 10
846.667069
 20
2612.904610
 30
0.0
 10
841.764839
 20
2616.494876
 30
0.0
  0
SPLINE
  5
19d
100
AcDbEntity
  8
0
 62
7
100
AcDbSpline
 70
8
 71
3
 72
8
 73
4
 74
0
 40
0
 40
0
 40
0
 40
0
 40
1
 40
1
 40
1
 40
1
 10
841.764839
 20
2616.494876
 30
0.0
 10
836.862608
 20
2620.085142
 30
0.0
 10
830.417375
 20
2620.787375
 30
0.0
 10
824.856999
 20
2618.337052
 30
0.0
  0
LWPOLYLINE
  5
19e
100
AcDbEntity
  8
0
 62
7
100
AcDbPolyline
 90
2
 70
0
 10
824.856999
 20
2618.337052
 30
0.0
 10
772.978022
 20
2595.475242
 30
0.0
  0
LWPOLYLINE
  5
19f
100
AcDbEntity
  8
0
 62
7
100
AcDbPolyline
 90
1
 70
1
 10
824.856999
 20
2618.337052
 30
0.0
  0
SPLINE
  5
1a0
100
AcDbEntity
  8
0
 62
7
100
AcDbSpline
 70
8
 71
3
 72
8
 73
4
 74
0
 40
0
 40
0
 40
0
 40
0
 40
1
 40
1
 40
1
 40
1
 10
421.696542
 20
2731.855840
 30
0.0
 10
425.471447
 20
2723.262898
 30
0.0
 10
421.572114
 20
2713.236310
 30
0.0
 10
412.983519
 20
2709.451524
 30
0.0
  0
SPLINE
  5
1a1
100
AcDbEntity
  8
0
 62
7
100
AcDbSpline
 70
8
 71
3
 72
8
 73
4
 74
0
 40
0
 40
0
 40
0
 40
0
 40
1
 40
1
 40
1
 40
1
 10
412.983519
 20
2709.451524
 30
0.0
 10
404.394925
 20
2705.666738
 30
0.0
 10
394.363859
 20
2709.554536
 30
0.0
 10
390.569197
 20
2718.138772
 30
0.0
  0
LWPOLYLINE
  5
1a2
100
AcDbEntity
  8
0
 62
7
100
AcDbPolyline
 90
2
 70
0
 10
996.823439
 20
2784.095775
 30
0.0
 10
976.305214
 20
2731.246084
 30
0.0
  0
SPLINE
  5
1a3
100
AcDbEntity
  8
0
 62
7
100
AcDbSpline
 70
8
 71
3
 72
8
 73
4
 74
0
 40
0
 40
0
 40
0
 40
0
 40
1
 40
1
 40
1
 40
1
 10
367.707417
 20
2770.017680
 30
0.0
 10
363.932512
 20
2778.610622
 30
0.0
 10
367.831845
 20
2788.637210
 30
0.0
 10
376.420440
 20
2792.421996
 30
0.0
  0
SPLINE
  5
1a4
100
AcDbEntity
  8
0
 62
7
100
AcDbSpline
 70
8
 71
3
 72
8
 73
4
 74
0
 40
0
 40
0
 40
0
 40
0
 40
1
 40
1
 40
1
 40
1
 10
376.420440
 20
2792.421996
 30
0.0
 10
385.009034
 20
2796.206782
 30
0.0
 10
395.040100
 20
2792.318984
 30
0.0
 10
398.834762
 20
2783.734748
 30
0.0
  0
LWPOLYLINE
  5
1a5
100
AcDbEntity
  8
0
 62
7
100
AcDbPolyline
 90
2
 70
0
 10
390.569197
 20
2718.138772
 30
0.0
 10
367.707417
 20
2770.017680
 30
0.0
  0
SPLINE
  5
1a6
100
AcDbEntity
  8
0
 62
7
100
AcDbSpline
 70
8
 71
3
 72
8
 73
4
 74
0
 40
0
 40
0
 40
0
 40
0
 40
1
 40
1
 40
1
 40
1
 10
599.766246
 20
2591.599185
 30
0.0
 10
608.517707
 20
2588.196341
 30
0.0
 10
612.855822
 20
2578.345240
 30
0.0
 10
609.457510
 20
2569.592018
 30
0.0
  0
SPLINE
  5
1a7
100
AcDbEntity
  8
0
 62
7
100
AcDbSpline
 70
8
 71
3
 72
8
 73
4
 74
0
 40
0
 40
0
 40
0
 40
0
 40
1
 40
1
 40
1
 40
1
 10
609.457510
 20
2569.592018
 30
0.0
 10
606.059198
 20
2560.838797
 30
0.0
 10
596.210344
 20
2556.495582
 30
0.0
 10
587.455364
 20
2559.889361
 30
0.0
  0
LWPOLYLINE
  5
1a8
100
AcDbEntity
  8
0
 62
7
100
AcDbPolyline
 90
2
 70
0
 10
398.834762
 20
2783.734748
 30
0.0
 10
421.696542
 20
2731.855840
 30
0.0
  0
SPLINE
  5
1a9
100
AcDbEntity
  8
0
 62
7
100
AcDbSpline
 70
8
 71
3
 72
8
 73
4
 74
0
 40
0
 40
0
 40
0
 40
0
 40
1
 40
1
 40
1
 40
1
 10
534.605673
 20
2580.407586
 30
0.0
 10
525.854212
 20
2583.810430
 30
0.0
 10
521.516097
 20
2593.661531
 30
0.0
 10
524.914409
 20
2602.414753
 30
0.0
  0
SPLINE
  5
1aa
100
AcDbEntity
  8
0
 62
7
100
AcDbSpline
 70
8
 71
3
 72
8
 73
4
 74
0
 40
0
 40
0
 40
0
 40
0
 40
1
 40
1
 40
1
 40
1
 10
524.914409
 20
2602.414753
 30
0.0
 10
528.312721
 20
2611.167974
 30
0.0
 10
538.161575
 20
2615.511190
 30
0.0
 10
546.916554
 20
2612.117410
 30
0.0
  0
LWPOLYLINE
  5
1ab
100
AcDbEntity
  8
0
 62
7
100
AcDbPolyline
 90
2
 70
0
 10
587.455364
 20
2559.889361
 30
0.0
 10
534.605673
 20
2580.407586
 30
0.0
  0
LWPOLYLINE
  5
1ac
100
AcDbEntity
  8
0
 62
7
100
AcDbPolyline
 90
2
 70
0
 10
546.916554
 20
2612.117410
 30
0.0
 10
599.766246
 20
2591.599185
 30
0.0
  0
SPLINE
  5
1ad
100
AcDbEntity
  8
0
 62
7
100
AcDbSpline
 70
8
 71
3
 72
8
 73
4
 74
0
 40
0
 40
0
 40
0
 40
0
 40
1
 40
1
 40
1
 40
1
 10
969.503162
 20
3035.214508
 30
0.0
 10
965.708500
 20
3043.798744
 30
0.0
 10
955.677434
 20
3047.686541
 30
0.0
 10
947.088840
 20
3043.901755
 30
0.0
  0
SPLINE
  5
1ae
100
AcDbEntity
  8
0
 62
7
100
AcDbSpline
 70
8
 71
3
 72
8
 73
4
 74
0
 40
0
 40
0
 40
0
 40
0
 40
1
 40
1
 40
1
 40
1
 10
947.088840
 20
3043.901755
 30
0.0
 10
938.500245
 20
3040.116970
 30
0.0
 10
934.600912
 20
3030.090382
 30
0.0
 10
938.375817
 20
3021.497440
 30
0.0
  0
SPLINE
  5
1af
100
AcDbEntity
  8
0
 62
7
100
AcDbSpline
 70
8
 71
3
 72
8
 73
4
 74
0
 40
0
 40
0
 40
0
 40
0
 40
1
 40
1
 40
1
 40
1
 10
938.375817
 20
3021.497440
 30
0.0
 10
938.375817
 20
3021.497440
 30
0.0
 10
961.237597
 20
2969.618532
 30
0.0
 10
961.237597
 20
2969.618532
 30
0.0
  0
SPLINE
  5
1b0
100
AcDbEntity
  8
0
 62
7
100
AcDbSpline
 70
8
 71
3
 72
8
 73
4
 74
0
 40
0
 40
0
 40
0
 40
0
 40
1
 40
1
 40
1
 40
1
 10
961.237597
 20
2969.618532
 30
0.0
 10
965.032259
 20
2961.034296
 30
0.0
 10
975.063325
 20
2957.146498
 30
0.0
 10
983.651919
 20
2960.931284
 30
0.0
  0
SPLINE
  5
1b1
100
AcDbEntity
  8
0
 62
7
100
AcDbSpline
 70
8
 71
3
 72
8
 73
4
 74
0
 40
0
 40
0
 40
0
 40
0
 40
1
 40
1
 40
1
 40
1
 10
983.651919
 20
2960.931284
 30
0.0
 10
992.240514
 20
2964.716070
 30
0.0
 10
996.139847
 20
2974.742658
 30
0.0
 10
992.364942
 20
2983.335600
 30
0.0
  0
LWPOLYLINE
  5
1b2
100
AcDbEntity
  8
0
 62
7
100
AcDbPolyline
 90
2
 70
0
 10
992.364942
 20
2983.335600
 30
0.0
 10
969.503162
 20
3035.214508
 30
0.0
  0
SPLINE
  5
1b3
100
AcDbEntity
  8
0
 62
7
100
AcDbSpline
 70
8
 71
3
 72
8
 73
4
 74
0
 40
0
 40
0
 40
0
 40
0
 40
1
 40
1
 40
1
 40
1
 10
996.823439
 20
2784.095775
 30
0.0
 10
999.031584
 20
2789.762170
 30
0.0
 10
998.046215
 20
2796.176385
 30
0.0
 10
994.239057
 20
2800.918692
 30
0.0
  0
SPLINE
  5
1b4
100
AcDbEntity
  8
0
 62
7
100
AcDbSpline
 70
8
 71
3
 72
8
 73
4
 74
0
 40
0
 40
0
 40
0
 40
0
 40
1
 40
1
 40
1
 40
1
 10
994.239057
 20
2800.918692
 30
0.0
 10
990.431898
 20
2805.661000
 30
0.0
 10
984.382363
 20
2808.009666
 30
0.0
 10
978.372606
 20
2807.078670
 30
0.0
  0
SPLINE
  5
1b5
100
AcDbEntity
  8
0
 62
7
100
AcDbSpline
 70
8
 71
3
 72
8
 73
4
 74
0
 40
0
 40
0
 40
0
 40
0
 40
1
 40
1
 40
1
 40
1
 10
978.372606
 20
2807.078670
 30
0.0
 10
972.362849
 20
2806.147673
 30
0.0
 10
967.307497
 20
2802.078703
 30
0.0
 10
965.113653
 20
2796.406756
 30
0.0
  0
LWPOLYLINE
  5
1b6
100
AcDbEntity
  8
0
 62
7
100
AcDbPolyline
 90
1
 70
1
 10
992.364942
 20
2983.335600
 30
0.0
  0
SPLINE
  5
1b7
100
AcDbEntity
  8
0
 62
7
100
AcDbSpline
 70
8
 71
3
 72
8
 73
4
 74
0
 40
0
 40
0
 40
0
 40
0
 40
1
 40
1
 40
1
 40
1
 10
760.306113
 20
3161.754095
 30
0.0
 10
751.562798
 20
3165.162326
 30
0.0
 10
747.232040
 20
3175.008067
 30
0.0
 10
750.628317
 20
3183.756033
 30
0.0
  0
SPLINE
  5
1b8
100
AcDbEntity
  8
0
 62
7
100
AcDbSpline
 70
8
 71
3
 72
8
 73
4
 74
0
 40
0
 40
0
 40
0
 40
0
 40
1
 40
1
 40
1
 40
1
 10
750.628317
 20
3183.756033
 30
0.0
 10
754.024595
 20
3192.503998
 30
0.0
 10
763.864408
 20
3196.848209
 30
0.0
 10
772.617007
 20
3193.463891
 30
0.0
  0
LWPOLYLINE
  5
1b9
100
AcDbEntity
  8
0
 62
7
100
AcDbPolyline
 90
2
 70
0
 10
944.595428
 20
2743.557064
 30
0.0
 10
965.113653
 20
2796.406756
 30
0.0
  0
SPLINE
  5
1ba
100
AcDbEntity
  8
0
 62
7
100
AcDbSpline
 70
8
 71
3
 72
8
 73
4
 74
0
 40
0
 40
0
 40
0
 40
0
 40
1
 40
1
 40
1
 40
1
 10
825.466695
 20
3172.945673
 30
0.0
 10
834.211312
 20
3169.538302
 30
0.0
 10
838.543245
 20
3159.691704
 30
0.0
 10
835.146641
 20
3150.942900
 30
0.0
  0
SPLINE
  5
1bb
100
AcDbEntity
  8
0
 62
7
100
AcDbSpline
 70
8
 71
3
 72
8
 73
4
 74
0
 40
0
 40
0
 40
0
 40
0
 40
1
 40
1
 40
1
 40
1
 10
835.146641
 20
3150.942900
 30
0.0
 10
831.750038
 20
3142.194096
 30
0.0
 10
821.908780
 20
3137.850045
 30
0.0
 10
813.155801
 20
3141.235876
 30
0.0
  0
LWPOLYLINE
  5
1bc
100
AcDbEntity
  8
0
 62
7
100
AcDbPolyline
 90
2
 70
0
 10
772.617007
 20
3193.463891
 30
0.0
 10
825.466695
 20
3172.945673
 30
0.0
  0
SPLINE
  5
1bd
100
AcDbEntity
  8
0
 62
7
100
AcDbSpline
 70
8
 71
3
 72
8
 73
4
 74
0
 40
0
 40
0
 40
0
 40
0
 40
1
 40
1
 40
1
 40
1
 10
944.595428
 20
2743.557064
 30
0.0
 10
942.386563
 20
2737.890511
 30
0.0
 10
943.371575
 20
2731.475748
 30
0.0
 10
947.178830
 20
2726.732993
 30
0.0
  0
SPLINE
  5
1be
100
AcDbEntity
  8
0
 62
7
100
AcDbSpline
 70
8
 71
3
 72
8
 73
4
 74
0
 40
0
 40
0
 40
0
 40
0
 40
1
 40
1
 40
1
 40
1
 10
947.178830
 20
2726.732993
 30
0.0
 10
950.986086
 20
2721.990238
 30
0.0
 10
957.036075
 20
2719.641395
 30
0.0
 10
963.046206
 20
2720.572656
 30
0.0
  0
SPLINE
  5
1bf
100
AcDbEntity
  8
0
 62
7
100
AcDbSpline
 70
8
 71
3
 72
8
 73
4
 74
0
 40
0
 40
0
 40
0
 40
0
 40
1
 40
1
 40
1
 40
1
 10
963.046206
 20
2720.572656
 30
0.0
 10
969.056336
 20
2721.503917
 30
0.0
 10
974.111795
 20
2725.573533
 30
0.0
 10
976.305214
 20
2731.246084
 30
0.0
  0
SPLINE
  5
1c0
100
AcDbEntity
  8
0
 62
7
100
AcDbSpline
 70
8
 71
3
 72
8
 73
4
 74
0
 40
0
 40
0
 40
0
 40
0
 40
1
 40
1
 40
1
 40
1
 10
394.958702
 20
2956.946531
 30
0.0
 10
394.958702
 20
2956.946531
 30
0.0
 10
415.476931
 20
3009.796215
 30
0.0
 10
415.476931
 20
3009.796215
 30
0.0
  0
SPLINE
  5
1c1
100
AcDbEntity
  8
0
 62
7
100
AcDbSpline
 70
8
 71
3
 72
8
 73
4
 74
0
 40
0
 40
0
 40
0
 40
0
 40
1
 40
1
 40
1
 40
1
 10
415.476931
 20
3009.796215
 30
0.0
 10
418.862778
 20
3018.549188
 30
0.0
 10
414.518746
 20
3028.390454
 30
0.0
 10
405.769948
 20
3031.787074
 30
0.0
  0
SPLINE
  5
1c2
100
AcDbEntity
  8
0
 62
7
100
AcDbSpline
 70
8
 71
3
 72
8
 73
4
 74
0
 40
0
 40
0
 40
0
 40
0
 40
1
 40
1
 40
1
 40
1
 10
405.769948
 20
3031.787074
 30
0.0
 10
397.021150
 20
3035.183693
 30
0.0
 10
387.174544
 20
3030.851779
 30
0.0
 10
383.767157
 20
3022.107169
 30
0.0
  0
LWPOLYLINE
  5
1c3
100
AcDbEntity
  8
0
 62
7
100
AcDbPolyline
 90
2
 70
0
 10
813.155801
 20
3141.235876
 30
0.0
 10
760.306113
 20
3161.754095
 30
0.0
  0
SPLINE
  5
1c4
100
AcDbEntity
  8
0
 62
7
100
AcDbSpline
 70
8
 71
3
 72
8
 73
4
 74
0
 40
0
 40
0
 40
0
 40
0
 40
1
 40
1
 40
1
 40
1
 10
363.248929
 20
2969.257484
 30
0.0
 10
359.863081
 20
2960.504512
 30
0.0
 10
364.207114
 20
2950.663246
 30
0.0
 10
372.955912
 20
2947.266626
 30
0.0
  0
SPLINE
  5
1c5
100
AcDbEntity
  8
0
 62
7
100
AcDbSpline
 70
8
 71
3
 72
8
 73
4
 74
0
 40
0
 40
0
 40
0
 40
0
 40
1
 40
1
 40
1
 40
1
 10
372.955912
 20
2947.266626
 30
0.0
 10
381.704709
 20
2943.870006
 30
0.0
 10
391.551316
 20
2948.201921
 30
0.0
 10
394.958702
 20
2956.946531
 30
0.0
  0
LWPOLYLINE
  5
1c6
100
AcDbEntity
  8
0
 62
7
100
AcDbPolyline
 90
2
 70
0
 10
383.767157
 20
3022.107169
 30
0.0
 10
363.248929
 20
2969.257484
 30
0.0
  0
SPLINE
  5
1c7
100
AcDbEntity
  8
0
 62
7
100
AcDbSpline
 70
8
 71
3
 72
8
 73
4
 74
0
 40
0
 40
0
 40
0
 40
0
 40
1
 40
1
 40
1
 40
1
 10
717.183337
 20
3100.385086
 30
0.0
 10
816.110776
 20
3083.958004
 30
0.0
 10
892.503196
 20
3004.503573
 30
0.0
 10
905.028449
 20
2905.012796
 30
0.0
  0
SPLINE
  5
1c8
100
AcDbEntity
  8
0
 62
7
100
AcDbSpline
 70
8
 71
3
 72
8
 73
4
 74
0
 40
0
 40
0
 40
0
 40
0
 40
1
 40
1
 40
1
 40
1
 10
905.028449
 20
2905.012796
 30
0.0
 10
917.553596
 20
2805.522628
 30
0.0
 10
863.236789
 20
2709.627622
 30
0.0
 10
771.471095
 20
2669.188701
 30
0.0
  0
SPLINE
  5
1c9
100
AcDbEntity
  8
0
 62
7
100
AcDbSpline
 70
8
 71
3
 72
8
 73
4
 74
0
 40
0
 40
0
 40
0
 40
0
 40
1
 40
1
 40
1
 40
1
 10
771.471095
 20
2669.188701
 30
0.0
 10
679.705470
 20
2628.749809
 30
0.0
 10
572.280780
 20
2653.369249
 30
0.0
 10
507.305642
 20
2729.745975
 30
0.0
  0
SPLINE
  5
1ca
100
AcDbEntity
  8
0
 62
7
100
AcDbSpline
 70
8
 71
3
 72
8
 73
4
 74
0
 40
0
 40
0
 40
0
 40
0
 40
1
 40
1
 40
1
 40
1
 10
507.305642
 20
2729.745975
 30
0.0
 10
442.330124
 20
2806.123189
 30
0.0
 10
435.237556
 20
2916.116389
 30
0.0
 10
489.866963
 20
3000.212258
 30
0.0
  0
LWPOLYLINE
  5
1cb
100
AcDbEntity
  8
0
 62
7
100
AcDbPolyline
 90
1
 70
1
 10
394.958702
 20
2956.946531
 30
0.0
  0
SPLINE
  5
1cc
100
AcDbEntity
  8
0
 62
7
100
AcDbSpline
 70
8
 71
3
 72
8
 73
4
 74
0
 40
0
 40
0
 40
0
 40
0
 40
1
 40
1
 40
1
 40
1
 10
407.344504
 20
3102.703179
 30
0.0
 10
302.396587
 20
2976.207974
 30
0.0
 10
298.216791
 20
2794.143412
 30
0.0
 10
397.243312
 20
2662.980986
 30
0.0
  0
SPLINE
  5
1cd
100
AcDbEntity
  8
0
 62
7
100
AcDbSpline
 70
8
 71
3
 72
8
 73
4
 74
0
 40
0
 40
0
 40
0
 40
0
 40
1
 40
1
 40
1
 40
1
 10
397.243312
 20
2662.980986
 30
0.0
 10
496.268884
 20
2531.819780
 30
0.0
 10
672.492305
 20
2486.008333
 30
0.0
 10
822.895190
 20
2552.287246
 30
0.0
  0
SPLINE
  5
1ce
100
AcDbEntity
  8
0
 62
7
100
AcDbSpline
 70
8
 71
3
 72
8
 73
4
 74
0
 40
0
 40
0
 40
0
 40
0
 40
1
 40
1
 40
1
 40
1
 10
822.895190
 20
2552.287246
 30
0.0
 10
973.298074
 20
2618.566159
 30
0.0
 10
1058.397808
 20
2779.536399
 30
0.0
 10
1028.416229
 20
2941.123622
 30
0.0
  0
SPLINE
  5
1cf
100
AcDbEntity
  8
0
 62
7
100
AcDbSpline
 70
8
 71
3
 72
8
 73
4
 74
0
 40
0
 40
0
 40
0
 40
0
 40
1
 40
1
 40
1
 40
1
 10
1028.416229
 20
2941.123622
 30
0.0
 10
998.434389
 20
3102.712370
 30
0.0
 10
861.244993
 20
3222.478948
 30
0.0
 10
697.072185
 20
3230.379160
 30
0.0
  0
SPLINE
  5
1d0
100
AcDbEntity
  8
0
 62
7
100
AcDbSpline
 70
8
 71
3
 72
8
 73
4
 74
0
 40
0
 40
0
 40
0
 40
0
 40
1
 40
1
 40
1
 40
1
 10
697.072185
 20
3230.379160
 30
0.0
 10
697.564922
 20
3226.719895
 30
0.0
 10
717.188132
 20
3100.166458
 30
0.0
 10
717.188132
 20
3100.166458
 30
0.0
  0
SPLINE
  5
1d1
100
AcDbEntity
  8
0
 62
7
100
AcDbSpline
 70
8
 71
3
 72
8
 73
4
 74
0
 40
0
 40
0
 40
0
 40
0
 40
1
 40
1
 40
1
 40
1
 10
918.844366
 20
2966.431208
 30
0.0
 10
923.619844
 20
2968.379133
 30
0.0
 10
926.960256
 20
2972.767396
 30
0.0
 10
927.566319
 20
2977.889142
 30
0.0
  0
SPLINE
  5
1d2
100
AcDbEntity
  8
0
 62
7
100
AcDbSpline
 70
8
 71
3
 72
8
 73
4
 74
0
 40
0
 40
0
 40
0
 40
0
 40
1
 40
1
 40
1
 40
1
 10
927.566319
 20
2977.889142
 30
0.0
 10
928.172382
 20
2983.010888
 30
0.0
 10
925.948423
 20
2988.057591
 30
0.0
 10
921.759469
 20
2991.066289
 30
0.0
  0
SPLINE
  5
1d3
100
AcDbEntity
  8
0
 62
7
100
AcDbSpline
 70
8
 71
3
 72
8
 73
4
 74
0
 40
0
 40
0
 40
0
 40
0
 40
1
 40
1
 40
1
 40
1
 10
921.759469
 20
2991.066289
 30
0.0
 10
917.570516
 20
2994.074987
 30
0.0
 10
912.077844
 20
2994.570724
 30
0.0
 10
907.417877
 20
2992.360677
 30
0.0
  0
SPLINE
  5
1d4
100
AcDbEntity
  8
0
 62
7
100
AcDbSpline
 70
8
 71
3
 72
8
 73
4
 74
0
 40
0
 40
0
 40
0
 40
0
 40
1
 40
1
 40
1
 40
1
 10
907.417877
 20
2992.360677
 30
0.0
 10
869.182533
 20
3067.513824
 30
0.0
 10
796.282894
 20
3118.920075
 30
0.0
 10
712.654490
 20
3129.700940
 30
0.0
  0
SPLINE
  5
1d5
100
AcDbEntity
  8
0
 62
7
100
AcDbSpline
 70
8
 71
3
 72
8
 73
4
 74
0
 40
0
 40
0
 40
0
 40
0
 40
1
 40
1
 40
1
 40
1
 10
769.790797
 20
2637.868434
 30
0.0
 10
771.738722
 20
2633.092956
 30
0.0
 10
776.126985
 20
2629.752544
 30
0.0
 10
781.248731
 20
2629.146481
 30
0.0
  0
SPLINE
  5
1d6
100
AcDbEntity
  8
0
 62
7
100
AcDbSpline
 70
8
 71
3
 72
8
 73
4
 74
0
 40
0
 40
0
 40
0
 40
0
 40
1
 40
1
 40
1
 40
1
 10
781.248731
 20
2629.146481
 30
0.0
 10
786.370477
 20
2628.540418
 30
0.0
 10
791.417180
 20
2630.764378
 30
0.0
 10
794.425878
 20
2634.953331
 30
0.0
  0
SPLINE
  5
1d7
100
AcDbEntity
  8
0
 62
7
100
AcDbSpline
 70
8
 71
3
 72
8
 73
4
 74
0
 40
0
 40
0
 40
0
 40
0
 40
1
 40
1
 40
1
 40
1
 10
794.425878
 20
2634.953331
 30
0.0
 10
797.434576
 20
2639.142285
 30
0.0
 10
797.930313
 20
2644.634956
 30
0.0
 10
795.720266
 20
2649.294923
 30
0.0
  0
SPLINE
  5
1d8
100
AcDbEntity
  8
0
 62
7
100
AcDbSpline
 70
8
 71
3
 72
8
 73
4
 74
0
 40
0
 40
0
 40
0
 40
0
 40
1
 40
1
 40
1
 40
1
 10
795.720266
 20
2649.294923
 30
0.0
 10
911.541740
 20
2708.220971
 30
0.0
 10
964.562685
 20
2844.789404
 30
0.0
 10
918.844366
 20
2966.431208
 30
0.0
  0
SPLINE
  5
1d9
100
AcDbEntity
  8
0
 62
7
100
AcDbSpline
 70
8
 71
3
 72
8
 73
4
 74
0
 40
0
 40
0
 40
0
 40
0
 40
1
 40
1
 40
1
 40
1
 10
441.227993
 20
2786.922071
 30
0.0
 10
436.452515
 20
2784.974146
 30
0.0
 10
433.112103
 20
2780.585884
 30
0.0
 10
432.506040
 20
2775.464138
 30
0.0
  0
SPLINE
  5
1da
100
AcDbEntity
  8
0
 62
7
100
AcDbSpline
 70
8
 71
3
 72
8
 73
4
 74
0
 40
0
 40
0
 40
0
 40
0
 40
1
 40
1
 40
1
 40
1
 10
432.506040
 20
2775.464138
 30
0.0
 10
431.899977
 20
2770.342391
 30
0.0
 10
434.123936
 20
2765.295689
 30
0.0
 10
438.312890
 20
2762.286991
 30
0.0
  0
SPLINE
  5
1db
100
AcDbEntity
  8
0
 62
7
100
AcDbSpline
 70
8
 71
3
 72
8
 73
4
 74
0
 40
0
 40
0
 40
0
 40
0
 40
1
 40
1
 40
1
 40
1
 10
438.312890
 20
2762.286991
 30
0.0
 10
442.501843
 20
2759.278292
 30
0.0
 10
447.994515
 20
2758.782556
 30
0.0
 10
452.654482
 20
2760.992603
 30
0.0
  0
SPLINE
  5
1dc
100
AcDbEntity
  8
0
 62
7
100
AcDbSpline
 70
8
 71
3
 72
8
 73
4
 74
0
 40
0
 40
0
 40
0
 40
0
 40
1
 40
1
 40
1
 40
1
 10
471.286979
 20
3023.336117
 30
0.0
 10
422.813763
 20
2954.341283
 30
0.0
 10
411.562730
 20
2865.851863
 30
0.0
 10
441.227993
 20
2786.922071
 30
0.0
  0
SPLINE
  5
1dd
100
AcDbEntity
  8
0
 62
7
100
AcDbSpline
 70
8
 71
3
 72
8
 73
4
 74
0
 40
0
 40
0
 40
0
 40
0
 40
1
 40
1
 40
1
 40
1
 10
452.654482
 20
2760.992603
 30
0.0
 10
511.580508
 20
2645.171087
 30
0.0
 10
648.148967
 20
2592.150107
 30
0.0
 10
769.790797
 20
2637.868434
 30
0.0
  0
SPLINE
  5
1de
100
AcDbEntity
  8
0
 62
7
100
AcDbSpline
 70
8
 71
3
 72
8
 73
4
 74
0
 40
0
 40
0
 40
0
 40
0
 40
1
 40
1
 40
1
 40
1
 10
774.510891
 20
3757.587914
 30
0.0
 10
771.557937
 20
3762.898453
 30
0.0
 10
771.662433
 20
3769.380975
 30
0.0
 10
774.785017
 20
3774.593578
 30
0.0
  0
SPLINE
  5
1df
100
AcDbEntity
  8
0
 62
7
100
AcDbSpline
 70
8
 71
3
 72
8
 73
4
 74
0
 40
0
 40
0
 40
0
 40
0
 40
1
 40
1
 40
1
 40
1
 10
774.785017
 20
3774.593578
 30
0.0
 10
777.907601
 20
3779.806181
 30
0.0
 10
783.573879
 20
3782.956946
 30
0.0
 10
789.649418
 20
3782.859010
 30
0.0
  0
SPLINE
  5
1e0
100
AcDbEntity
  8
0
 62
7
100
AcDbSpline
 70
8
 71
3
 72
8
 73
4
 74
0
 40
0
 40
0
 40
0
 40
0
 40
1
 40
1
 40
1
 40
1
 10
789.649418
 20
3782.859010
 30
0.0
 10
795.724956
 20
3782.761075
 30
0.0
 10
801.286738
 20
3779.429317
 30
0.0
 10
804.239692
 20
3774.118778
 30
0.0
  0
SPLINE
  5
1e1
100
AcDbEntity
  8
0
 62
7
100
AcDbSpline
 70
8
 71
3
 72
8
 73
4
 74
0
 40
0
 40
0
 40
0
 40
0
 40
1
 40
1
 40
1
 40
1
 10
804.239692
 20
3774.118778
 30
0.0
 10
804.239692
 20
3774.118778
 30
0.0
 10
831.791151
 20
3724.570744
 30
0.0
 10
831.791151
 20
3724.570744
 30
0.0
  0
SPLINE
  5
1e2
100
AcDbEntity
  8
0
 62
7
100
AcDbSpline
 70
8
 71
3
 72
8
 73
4
 74
0
 40
0
 40
0
 40
0
 40
0
 40
1
 40
1
 40
1
 40
1
 10
831.791151
 20
3724.570744
 30
0.0
 10
834.744105
 20
3719.260205
 30
0.0
 10
834.639609
 20
3712.777682
 30
0.0
 10
831.517025
 20
3707.565079
 30
0.0
  0
SPLINE
  5
1e3
100
AcDbEntity
  8
0
 62
7
100
AcDbSpline
 70
8
 71
3
 72
8
 73
4
 74
0
 40
0
 40
0
 40
0
 40
0
 40
1
 40
1
 40
1
 40
1
 10
831.517025
 20
3707.565079
 30
0.0
 10
828.394441
 20
3702.352476
 30
0.0
 10
822.728163
 20
3699.201712
 30
0.0
 10
816.652625
 20
3699.299647
 30
0.0
  0
SPLINE
  5
1e4
100
AcDbEntity
  8
0
 62
7
100
AcDbSpline
 70
8
 71
3
 72
8
 73
4
 74
0
 40
0
 40
0
 40
0
 40
0
 40
1
 40
1
 40
1
 40
1
 10
816.652625
 20
3699.299647
 30
0.0
 10
810.577086
 20
3699.397583
 30
0.0
 10
805.015305
 20
3702.729341
 30
0.0
 10
802.062350
 20
3708.039880
 30
0.0
  0
LWPOLYLINE
  5
1e5
100
AcDbEntity
  8
0
 62
7
100
AcDbPolyline
 90
7
 70
0
 10
489.866963
 20
3000.212258
 30
0.0
 10
482.753264
 20
3009.065621
 30
0.0
 10
407.344504
 20
3102.703179
 30
0.0
 10
407.344504
 20
3102.703179
 30
0.0
 10
407.344504
 20
3102.703179
 30
0.0
 10
407.344504
 20
3102.703179
 30
0.0
 10
407.344504
 20
3102.703179
 30
0.0
  0
LWPOLYLINE
  5
1e6
100
AcDbEntity
  8
0
 62
7
100
AcDbPolyline
 90
2
 70
0
 10
802.062350
 20
3708.039880
 30
0.0
 10
774.510891
 20
3757.587914
 30
0.0
  0
SPLINE
  5
1e7
100
AcDbEntity
  8
0
 62
7
100
AcDbSpline
 70
8
 71
3
 72
8
 73
4
 74
0
 40
0
 40
0
 40
0
 40
0
 40
1
 40
1
 40
1
 40
1
 10
693.552433
 20
3747.292863
 30
0.0
 10
721.242722
 20
3718.695231
 30
0.0
 10
740.917460
 20
3683.312546
 30
0.0
 10
750.599137
 20
3644.701126
 30
0.0
  0
LWPOLYLINE
  5
1e8
100
AcDbEntity
  8
0
 62
7
100
AcDbPolyline
 90
2
 70
0
 10
785.192370
 20
3836.025237
 30
0.0
 10
693.552433
 20
3747.292863
 30
0.0
  0
SPLINE
  5
1e9
100
AcDbEntity
  8
0
 62
7
100
AcDbSpline
 70
8
 71
3
 72
8
 73
4
 74
0
 40
0
 40
0
 40
0
 40
0
 40
1
 40
1
 40
1
 40
1
 10
874.327830
 20
3675.725673
 30
0.0
 10
859.200211
 20
3736.056006
 30
0.0
 10
828.458437
 20
3791.341443
 30
0.0
 10
785.192370
 20
3836.025237
 30
0.0
  0
LWPOLYLINE
  5
1ea
100
AcDbEntity
  8
0
 62
7
100
AcDbPolyline
 90
2
 70
0
 10
750.599137
 20
3644.701126
 30
0.0
 10
874.327830
 20
3675.725673
 30
0.0
  0
SPLINE
  5
1eb
100
AcDbEntity
  8
0
 62
7
100
AcDbSpline
 70
8
 71
3
 72
8
 73
4
 74
0
 40
0
 40
0
 40
0
 40
0
 40
1
 40
1
 40
1
 40
1
 10
760.144158
 20
3700.954302
 30
0.0
 10
764.719514
 20
3703.334579
 30
0.0
 10
767.640742
 20
3708.012359
 30
0.0
 10
767.771605
 20
3713.168178
 30
0.0
  0
SPLINE
  5
1ec
100
AcDbEntity
  8
0
 62
7
100
AcDbSpline
 70
8
 71
3
 72
8
 73
4
 74
0
 40
0
 40
0
 40
0
 40
0
 40
1
 40
1
 40
1
 40
1
 10
767.771605
 20
3713.168178
 30
0.0
 10
767.902467
 20
3718.323997
 30
0.0
 10
765.222306
 20
3723.143949
 30
0.0
 10
760.773594
 20
3725.753271
 30
0.0
  0
SPLINE
  5
1ed
100
AcDbEntity
  8
0
 62
7
100
AcDbSpline
 70
8
 71
3
 72
8
 73
4
 74
0
 40
0
 40
0
 40
0
 40
0
 40
1
 40
1
 40
1
 40
1
 10
760.773594
 20
3725.753271
 30
0.0
 10
756.324882
 20
3728.362592
 30
0.0
 10
750.809900
 20
3728.349371
 30
0.0
 10
746.373750
 20
3725.718749
 30
0.0
  0
SPLINE
  5
1ee
100
AcDbEntity
  8
0
 62
7
100
AcDbSpline
 70
8
 71
3
 72
8
 73
4
 74
0
 40
0
 40
0
 40
0
 40
0
 40
1
 40
1
 40
1
 40
1
 10
778.094394
 20
3651.595494
 30
0.0
 10
773.825019
 20
3668.622161
 30
0.0
 10
767.809738
 20
3685.162727
 30
0.0
 10
760.144158
 20
3700.954302
 30
0.0
  0
SPLINE
  5
1ef
100
AcDbEntity
  8
0
 62
7
100
AcDbSpline
 70
8
 71
3
 72
8
 73
4
 74
0
 40
0
 40
0
 40
0
 40
0
 40
1
 40
1
 40
1
 40
1
 10
746.373750
 20
3725.718749
 30
0.0
 10
737.004199
 20
3740.562850
 30
0.0
 10
726.127619
 20
3754.400293
 30
0.0
 10
713.916880
 20
3767.011149
 30
0.0
  0
LWPOLYLINE
  5
1f0
100
AcDbEntity
  8
0
 62
7
100
AcDbPolyline
 90
1
 70
1
 10
785.192370
 20
3836.025237
 30
0.0
  0
ENDSEC
  0
SECTION
  2
OBJECTS
  0
DICTIONARY
  5
C
330
0
100
AcDbDictionary
  3
ACAD_GROUP
350
D
  3
ACAD_MLINESTYLE
350
17
  0
DICTIONARY
  5
D
330
C
100
AcDbDictionary
  0
DICTIONARY
  5
1A
330
C
100
AcDbDictionary
  0
DICTIONARY
  5
17
330
C
100
AcDbDictionary
  3
STANDARD
350
18
  0
DICTIONARY
  5
19
330
C
100
AcDbDictionary
  0
ENDSEC
  0
EOF
