  0
SECTION
  2
HEADER
  9
$ACADVER
  1
AC1027
  9
$ACADMAINTVER
 70
   125
  9
$DWGCODEPAGE
  3
ANSI_1252
  9
$REQUIREDVERSIONS
160
                 0
  9
$INSBASE
 10
0.0
 20
0.0
 30
0.0
  9
$EXTMIN
 10
1.000000000000000E+20
 20
1.000000000000000E+20
 30
1.000000000000000E+20
  9
$EXTMAX
 10
-1.000000000000000E+20
 20
-1.000000000000000E+20
 30
-1.000000000000000E+20
  9
$LIMMIN
 10
0.0
 20
0.0
  9
$LIMMAX
 10
12.0
 20
9.0
  9
$ORTHOMODE
 70
     0
  9
$REGENMODE
 70
     1
  9
$FILLMODE
 70
     1
  9
$QTEXTMODE
 70
     0
  9
$MIRRTEXT
 70
     0
  9
$LTSCALE
 40
1.0
  9
$ATTMODE
 70
     1
  9
$TEXTSIZE
 40
0.2
  9
$TRACEWID
 40
0.05
  9
$TEXTSTYLE
  7
Standard
  9
$CLAYER
  8
0
  9
$CELTYPE
  6
ByLayer
  9
$CECOLOR
 62
   256
  9
$CELTSCALE
 40
1.0
  9
$DISPSILH
 70
     0
  9
$DIMSCALE
 40
1.0
  9
$DIMASZ
 40
0.18
  9
$DIMEXO
 40
0.0625
  9
$DIMDLI
 40
0.38
  9
$DIMRND
 40
0.0
  9
$DIMDLE
 40
0.0
  9
$DIMEXE
 40
0.18
  9
$DIMTP
 40
0.0
  9
$DIMTM
 40
0.0
  9
$DIMTXT
 40
0.18
  9
$DIMCEN
 40
0.09
  9
$DIMTSZ
 40
0.0
  9
$DIMTOL
 70
     0
  9
$DIMLIM
 70
     0
  9
$DIMTIH
 70
     1
  9
$DIMTOH
 70
     1
  9
$DIMSE1
 70
     0
  9
$DIMSE2
 70
     0
  9
$DIMTAD
 70
     0
  9
$DIMZIN
 70
     0
  9
$DIMBLK
  1

  9
$DIMASO
 70
     1
  9
$DIMSHO
 70
     1
  9
$DIMPOST
  1

  9
$DIMAPOST
  1

  9
$DIMALT
 70
     0
  9
$DIMALTD
 70
     2
  9
$DIMALTF
 40
25.4
  9
$DIMLFAC
 40
1.0
  9
$DIMTOFL
 70
     0
  9
$DIMTVP
 40
0.0
  9
$DIMTIX
 70
     0
  9
$DIMSOXD
 70
     0
  9
$DIMSAH
 70
     0
  9
$DIMBLK1
  1

  9
$DIMBLK2
  1

  9
$DIMSTYLE
  2
Standard
  9
$DIMCLRD
 70
     0
  9
$DIMCLRE
 70
     0
  9
$DIMCLRT
 70
     0
  9
$DIMTFAC
 40
1.0
  9
$DIMGAP
 40
0.09
  9
$DIMJUST
 70
     0
  9
$DIMSD1
 70
     0
  9
$DIMSD2
 70
     0
  9
$DIMTOLJ
 70
     1
  9
$DIMTZIN
 70
     0
  9
$DIMALTZ
 70
     0
  9
$DIMALTTZ
 70
     0
  9
$DIMUPT
 70
     0
  9
$DIMDEC
 70
     4
  9
$DIMTDEC
 70
     4
  9
$DIMALTU
 70
     2
  9
$DIMALTTD
 70
     2
  9
$DIMTXSTY
  7
Standard
  9
$DIMAUNIT
 70
     0
  9
$DIMADEC
 70
     0
  9
$DIMALTRND
 40
0.0
  9
$DIMAZIN
 70
     0
  9
$DIMDSEP
 70
    46
  9
$DIMATFIT
 70
     3
  9
$DIMFRAC
 70
     0
  9
$DIMLDRBLK
  1

  9
$DIMLUNIT
 70
     2
  9
$DIMLWD
 70
    -2
  9
$DIMLWE
 70
    -2
  9
$DIMTMOVE
 70
     0
  9
$DIMFXL
 40
1.0
  9
$DIMFXLON
 70
     0
  9
$DIMJOGANG
 40
0.7853981633974483
  9
$DIMTFILL
 70
     0
  9
$DIMTFILLCLR
 70
     0
  9
$DIMARCSYM
 70
     0
  9
$DIMLTYPE
  6

  9
$DIMLTEX1
  6

  9
$DIMLTEX2
  6

  9
$DIMTXTDIRECTION
 70
     0
  9
$LUNITS
 70
     2
  9
$LUPREC
 70
     4
  9
$SKETCHINC
 40
0.1
  9
$FILLETRAD
 40
0.0
  9
$AUNITS
 70
     0
  9
$AUPREC
 70
     0
  9
$MENU
  1
.
  9
$ELEVATION
 40
0.0
  9
$PELEVATION
 40
0.0
  9
$THICKNESS
 40
0.0
  9
$LIMCHECK
 70
     0
  9
$CHAMFERA
 40
0.0
  9
$CHAMFERB
 40
0.0
  9
$CHAMFERC
 40
0.0
  9
$CHAMFERD
 40
0.0
  9
$SKPOLY
 70
     0
  9
$TDCREATE
 40
2458534.921655092
  9
$TDUCREATE
 40
2458534.921655092
  9
$TDUPDATE
 40
2458534.921655092
  9
$TDUUPDATE
 40
2458534.921655092
  9
$TDINDWG
 40
0.0000000000
  9
$TDUSRTIMER
 40
0.0000000000
  9
$USRTIMER
 70
     1
  9
$ANGBASE
 50
0.0
  9
$ANGDIR
 70
     0
  9
$PDMODE
 70
     0
  9
$PDSIZE
 40
0.0
  9
$PLINEWID
 40
0.0
  9
$SPLFRAME
 70
     0
  9
$SPLINETYPE
 70
     6
  9
$SPLINESEGS
 70
     8
  9
$HANDSEED
  5
161
  9
$SURFTAB1
 70
     6
  9
$SURFTAB2
 70
     6
  9
$SURFTYPE
 70
     6
  9
$SURFU
 70
     6
  9
$SURFV
 70
     6
  9
$UCSBASE
  2

  9
$UCSNAME
  2

  9
$UCSORG
 10
0.0
 20
0.0
 30
0.0
  9
$UCSXDIR
 10
1.0
 20
0.0
 30
0.0
  9
$UCSYDIR
 10
0.0
 20
1.0
 30
0.0
  9
$UCSORTHOREF
  2

  9
$UCSORTHOVIEW
 70
     0
  9
$UCSORGTOP
 10
0.0
 20
0.0
 30
0.0
  9
$UCSORGBOTTOM
 10
0.0
 20
0.0
 30
0.0
  9
$UCSORGLEFT
 10
0.0
 20
0.0
 30
0.0
  9
$UCSORGRIGHT
 10
0.0
 20
0.0
 30
0.0
  9
$UCSORGFRONT
 10
0.0
 20
0.0
 30
0.0
  9
$UCSORGBACK
 10
0.0
 20
0.0
 30
0.0
  9
$PUCSBASE
  2

  9
$PUCSNAME
  2

  9
$PUCSORG
 10
0.0
 20
0.0
 30
0.0
  9
$PUCSXDIR
 10
1.0
 20
0.0
 30
0.0
  9
$PUCSYDIR
 10
0.0
 20
1.0
 30
0.0
  9
$PUCSORTHOREF
  2

  9
$PUCSORTHOVIEW
 70
     0
  9
$PUCSORGTOP
 10
0.0
 20
0.0
 30
0.0
  9
$PUCSORGBOTTOM
 10
0.0
 20
0.0
 30
0.0
  9
$PUCSORGLEFT
 10
0.0
 20
0.0
 30
0.0
  9
$PUCSORGRIGHT
 10
0.0
 20
0.0
 30
0.0
  9
$PUCSORGFRONT
 10
0.0
 20
0.0
 30
0.0
  9
$PUCSORGBACK
 10
0.0
 20
0.0
 30
0.0
  9
$USERI1
 70
     0
  9
$USERI2
 70
     0
  9
$USERI3
 70
     0
  9
$USERI4
 70
     0
  9
$USERI5
 70
     0
  9
$USERR1
 40
0.0
  9
$USERR2
 40
0.0
  9
$USERR3
 40
0.0
  9
$USERR4
 40
0.0
  9
$USERR5
 40
0.0
  9
$WORLDVIEW
 70
     1
  9
$SHADEDGE
 70
     3
  9
$SHADEDIF
 70
    70
  9
$TILEMODE
 70
     1
  9
$MAXACTVP
 70
    64
  9
$PINSBASE
 10
0.0
 20
0.0
 30
0.0
  9
$PLIMCHECK
 70
     0
  9
$PEXTMIN
 10
1.000000000000000E+20
 20
1.000000000000000E+20
 30
1.000000000000000E+20
  9
$PEXTMAX
 10
-1.000000000000000E+20
 20
-1.000000000000000E+20
 30
-1.000000000000000E+20
  9
$PLIMMIN
 10
0.0
 20
0.0
  9
$PLIMMAX
 10
12.0
 20
9.0
  9
$UNITMODE
 70
     0
  9
$VISRETAIN
 70
     1
  9
$PLINEGEN
 70
     0
  9
$PSLTSCALE
 70
     1
  9
$TREEDEPTH
 70
  3020
  9
$CMLSTYLE
  2
Standard
  9
$CMLJUST
 70
     0
  9
$CMLSCALE
 40
1.0
  9
$PROXYGRAPHICS
 70
     1
  9
$MEASUREMENT
 70
     0
  9
$CELWEIGHT
370
    -1
  9
$ENDCAPS
280
     0
  9
$JOINSTYLE
280
     0
  9
$LWDISPLAY
290
     0
  9
$INSUNITS
 70
     5
  9
$HYPERLINKBASE
  1

  9
$STYLESHEET
  1

  9
$XEDIT
290
     1
  9
$CEPSNTYPE
380
     0
  9
$PSTYLEMODE
290
     1
  9
$FINGERPRINTGUID
  2
{D2E1A6D6-BC5F-8B42-9FCB-4CCBEAD35F71}
  9
$VERSIONGUID
  2
{8B54A8FE-8B2C-9046-928A-89DF5BF407C8}
  9
$EXTNAMES
290
     1
  9
$PSVPSCALE
 40
0.0
  9
$OLESTARTUP
290
     0
  9
$SORTENTS
280
   127
  9
$INDEXCTL
280
     0
  9
$HIDETEXT
280
     1
  9
$XCLIPFRAME
280
     2
  9
$HALOGAP
280
     0
  9
$OBSCOLOR
 70
   257
  9
$OBSLTYPE
280
     0
  9
$INTERSECTIONDISPLAY
280
     0
  9
$INTERSECTIONCOLOR
 70
   257
  9
$DIMASSOC
280
     2
  9
$PROJECTNAME
  1

  9
$CAMERADISPLAY
290
     0
  9
$LENSLENGTH
 40
50.0
  9
$CAMERAHEIGHT
 40
0.0
  9
$STEPSPERSEC
 40
2.0
  9
$STEPSIZE
 40
6.0
  9
$3DDWFPREC
 40
2.0
  9
$PSOLWIDTH
 40
0.25
  9
$PSOLHEIGHT
 40
4.0
  9
$LOFTANG1
 40
1.570796326794896
  9
$LOFTANG2
 40
1.570796326794896
  9
$LOFTMAG1
 40
0.0
  9
$LOFTMAG2
 40
0.0
  9
$LOFTPARAM
 70
     7
  9
$LOFTNORMALS
280
     1
  9
$LATITUDE
 40
37.795
  9
$LONGITUDE
 40
-122.394
  9
$NORTHDIRECTION
 40
0.0
  9
$TIMEZONE
 70
 -8000
  9
$LIGHTGLYPHDISPLAY
280
     1
  9
$TILEMODELIGHTSYNCH
280
     1
  9
$CMATERIAL
347
11
  9
$SOLIDHIST
280
     0
  9
$SHOWHIST
280
     1
  9
$DWFFRAME
280
     2
  9
$DGNFRAME
280
     0
  9
$REALWORLDSCALE
290
     1
  9
$INTERFERECOLOR
 62
     1
  9
$INTERFEREOBJVS
345
33
  9
$INTERFEREVPVS
346
30
  9
$CSHADOW
280
     0
  9
$SHADOWPLANELOCATION
 40
0.0
  0
ENDSEC
  0
SECTION
  2
CLASSES
  0
CLASS
  1
ACDBDICTIONARYWDFLT
  2
AcDbDictionaryWithDefault
  3
ObjectDBX Classes
 90
        0
 91
        1
280
     0
281
     0
  0
CLASS
  1
MATERIAL
  2
AcDbMaterial
  3
ObjectDBX Classes
 90
     1153
 91
        3
280
     0
281
     0
  0
CLASS
  1
VISUALSTYLE
  2
AcDbVisualStyle
  3
ObjectDBX Classes
 90
     4095
 91
       24
280
     0
281
     0
  0
CLASS
  1
SCALE
  2
AcDbScale
  3
ObjectDBX Classes
 90
     1153
 91
       17
280
     0
281
     0
  0
CLASS
  1
TABLESTYLE
  2
AcDbTableStyle
  3
ObjectDBX Classes
 90
     4095
 91
        1
280
     0
281
     0
  0
CLASS
  1
MLEADERSTYLE
  2
AcDbMLeaderStyle
  3
ACDB_MLEADERSTYLE_CLASS
 90
     4095
 91
        1
280
     0
281
     0
  0
CLASS
  1
ACDBSECTIONVIEWSTYLE
  2
AcDbSectionViewStyle
  3
ObjectDBX Classes
 90
     1025
 91
        1
280
     0
281
     0
  0
CLASS
  1
ACDBDETAILVIEWSTYLE
  2
AcDbDetailViewStyle
  3
ObjectDBX Classes
 90
     1025
 91
        1
280
     0
281
     0
  0
CLASS
  1
DICTIONARYVAR
  2
AcDbDictionaryVar
  3
ObjectDBX Classes
 90
        0
 91
        5
280
     0
281
     0
  0
CLASS
  1
CELLSTYLEMAP
  2
AcDbCellStyleMap
  3
ObjectDBX Classes
 90
     1152
 91
        1
280
     0
281
     0
  0
ENDSEC
  0
SECTION
  2
TABLES
  0
TABLE
  2
VPORT
  5
8
330
0
100
AcDbSymbolTable
 70
     1
1001
ACAD
1000
DbSaveVer
1071
      102
  0
VPORT
  5
57
330
8
100
AcDbSymbolTableRecord
100
AcDbViewportTableRecord
  2
*Active
 70
     0
 10
0.0
 20
0.0
 11
1.0
 21
1.0
 12
500.0
 22
500.0
 13
0.0
 23
0.0
 14
1.0
 24
1.0
 15
0.0
 25
0.0
 16
0.0
 26
0.0
 36
1.0
 17
0.0
 27
0.0
 37
0.0
 40
12.0
 41
1.0
 42
50.0
 43
0.0
 44
0.0
 50
0.0
 51
0.0
 71
     0
 72
   100
 73
     1
 74
     0
 75
     1
 76
     0
 77
     0
 78
     0
281
     0
 65
     1
110
0.0
120
0.0
130
0.0
111
1.0
121
0.0
131
0.0
112
0.0
122
1.0
132
0.0
 79
     0
146
0.0
 60
     3
 61
     5
292
     1
282
     1
141
0.0
142
0.0
 63
   250
421
  3355443
  0
ENDTAB
  0
TABLE
  2
LTYPE
  5
5
330
0
100
AcDbSymbolTable
 70
     1
  0
LTYPE
  5
5B
330
5
100
AcDbSymbolTableRecord
100
AcDbLinetypeTableRecord
  2
ByBlock
 70
     0
  3

 72
    65
 73
     0
 40
0.0
  0
LTYPE
  5
5C
330
5
100
AcDbSymbolTableRecord
100
AcDbLinetypeTableRecord
  2
ByLayer
 70
     0
  3

 72
    65
 73
     0
 40
0.0
  0
LTYPE
  5
5D
330
5
100
AcDbSymbolTableRecord
100
AcDbLinetypeTableRecord
  2
Continuous
 70
     0
  3
Solid line
 72
    65
 73
     0
 40
0.0
  0
ENDTAB
  0
TABLE
  2
LAYER
  5
2
330
0
100
AcDbSymbolTable
 70
     7
  0
LAYER
  5
54
330
2
100
AcDbSymbolTableRecord
100
AcDbLayerTableRecord
  2
0
 70
     0
 62
     7
  6
Continuous
370
    -3
390
F
347
21
348
0
  0
LAYER
  5
7A
330
2
100
AcDbSymbolTableRecord
100
AcDbLayerTableRecord
  2
leaf v25_Sketch1
 70
     0
 62
     7
  6
Continuous
370
    -3
390
F
347
21
348
0
1001
NFusion_SketchTransform
1000
1.000000;0.000000;0.000000;0.000000;0.000000;1.000000;0.000000;0.000000;0.000000;0.000000;1.000000;0.000000;0.000000;0.000000;0.000000;1.000000
  0
LAYER
  5
84
330
2
100
AcDbSymbolTableRecord
100
AcDbLayerTableRecord
  2
leaf v25_Sketch2
 70
     0
 62
     7
  6
Continuous
370
    -3
390
F
347
21
348
0
1001
NFusion_SketchTransform
1000
1.000000;0.000000;0.000000;0.000000;0.000000;1.000000;0.000000;0.000000;0.000000;0.000000;1.000000;0.000000;0.000000;0.000000;0.000000;1.000000
  0
LAYER
  5
C7
330
2
100
AcDbSymbolTableRecord
100
AcDbLayerTableRecord
  2
leaf v25_Sketch4
 70
     0
 62
     7
  6
Continuous
370
    -3
390
F
347
21
348
0
1001
NFusion_SketchTransform
1000
1.000000;0.000000;0.000000;0.000000;0.000000;0.000000;1.000000;0.000000;0.000000;-1.000000;0.000000;0.000000;0.000000;0.000000;0.000000;1.000000
  0
LAYER
  5
F8
330
2
100
AcDbSymbolTableRecord
100
AcDbLayerTableRecord
  2
leaf v25_Sketch6
 70
     0
 62
     7
  6
Continuous
370
    -3
390
F
347
21
348
0
1001
NFusion_SketchTransform
1000
1.000000;0.000000;0.000000;0.000000;0.000000;0.000000;1.000000;0.000000;0.000000;-1.000000;0.000000;0.000000;0.000000;0.000000;0.000000;1.000000
  0
LAYER
  5
122
330
2
100
AcDbSymbolTableRecord
100
AcDbLayerTableRecord
  2
leaf v25_Sketch7
 70
     0
 62
     7
  6
Continuous
370
    -3
390
F
347
21
348
0
1001
NFusion_SketchTransform
1000
-1.000000;0.000000;0.000000;0.000000;0.000000;0.000000;1.000000;0.000000;0.000000;1.000000;0.000000;0.000000;0.000000;0.000000;0.000000;1.000000
  0
LAYER
  5
13F
330
2
100
AcDbSymbolTableRecord
100
AcDbLayerTableRecord
  2
leaf v25_Sketch8
 70
     0
 62
     7
  6
Continuous
370
    -3
390
F
347
21
348
0
1001
NFusion_SketchTransform
1000
-1.000000;0.000000;0.000000;0.000000;0.000000;0.000000;1.000000;0.000000;0.000000;1.000000;0.000000;0.000000;0.000000;0.000000;0.000000;1.000000
  0
ENDTAB
  0
TABLE
  2
STYLE
  5
3
330
0
100
AcDbSymbolTable
 70
     2
  0
STYLE
  5
55
330
3
100
AcDbSymbolTableRecord
100
AcDbTextStyleTableRecord
  2
Standard
 70
     0
 40
0.0
 41
1.0
 50
0.0
 71
     0
 42
0.2
  3
txt
  4

  0
STYLE
  5
5A
330
3
100
AcDbSymbolTableRecord
100
AcDbTextStyleTableRecord
  2
Annotative
 70
     0
 40
0.0
 41
1.0
 50
0.0
 71
     0
 42
0.2
  3
txt
  4

1001
AcadAnnotative
1000
AnnotativeData
1002
{
1070
     1
1070
     1
1002
}
  0
ENDTAB
  0
TABLE
  2
VIEW
  5
6
330
0
100
AcDbSymbolTable
 70
     0
  0
ENDTAB
  0
TABLE
  2
UCS
  5
7
330
0
100
AcDbSymbolTable
 70
     0
  0
ENDTAB
  0
TABLE
  2
APPID
  5
9
330
0
100
AcDbSymbolTable
 70
     4
  0
APPID
  5
56
330
9
100
AcDbSymbolTableRecord
100
AcDbRegAppTableRecord
  2
ACAD
 70
     0
  0
APPID
  5
5E
330
9
100
AcDbSymbolTableRecord
100
AcDbRegAppTableRecord
  2
AcadAnnotative
 70
     0
  0
APPID
  5
78
330
9
100
AcDbSymbolTableRecord
100
AcDbRegAppTableRecord
  2
EDIT_IN_FUSION_ACAD_ADDIN
 70
     0
  0
APPID
  5
79
330
9
100
AcDbSymbolTableRecord
100
AcDbRegAppTableRecord
  2
NFusion_SketchTransform
 70
     0
  0
ENDTAB
  0
TABLE
  2
DIMSTYLE
  5
A
330
0
100
AcDbSymbolTable
 70
     2
100
AcDbDimStyleTable
 71
     0
  0
DIMSTYLE
105
58
330
A
100
AcDbSymbolTableRecord
100
AcDbDimStyleTableRecord
  2
Standard
 70
     0
340
55
  0
DIMSTYLE
105
59
330
A
100
AcDbSymbolTableRecord
100
AcDbDimStyleTableRecord
  2
Annotative
 70
     0
340
55
1001
AcadAnnotative
1000
AnnotativeData
1002
{
1070
     1
1070
     1
1002
}
  0
ENDTAB
  0
TABLE
  2
BLOCK_RECORD
  5
1
330
0
100
AcDbSymbolTable
 70
     1
  0
BLOCK_RECORD
  5
70
330
1
100
AcDbSymbolTableRecord
100
AcDbBlockTableRecord
  2
*Model_Space
340
73
 70
     0
280
     1
281
     0
  0
BLOCK_RECORD
  5
6C
330
1
100
AcDbSymbolTableRecord
100
AcDbBlockTableRecord
  2
*Paper_Space
340
6F
 70
     0
280
     1
281
     0
  0
BLOCK_RECORD
  5
74
330
1
100
AcDbSymbolTableRecord
100
AcDbBlockTableRecord
  2
*Paper_Space0
340
77
 70
     0
280
     1
281
     0
  0
ENDTAB
  0
ENDSEC
  0
SECTION
  2
BLOCKS
  0
BLOCK
  5
71
330
70
100
AcDbEntity
  8
0
100
AcDbBlockBegin
  2
*Model_Space
 70
     0
 10
0.0
 20
0.0
 30
0.0
  3
*Model_Space
  1

  0
ENDBLK
  5
72
330
70
100
AcDbEntity
  8
0
100
AcDbBlockEnd
  0
BLOCK
  5
6D
330
6C
100
AcDbEntity
 67
     1
  8
0
100
AcDbBlockBegin
  2
*Paper_Space
 70
     0
 10
0.0
 20
0.0
 30
0.0
  3
*Paper_Space
  1

  0
ENDBLK
  5
6E
330
6C
100
AcDbEntity
 67
     1
  8
0
100
AcDbBlockEnd
  0
BLOCK
  5
75
330
74
100
AcDbEntity
 67
     1
  8
0
100
AcDbBlockBegin
  2
*Paper_Space0
 70
     0
 10
0.0
 20
0.0
 30
0.0
  3
*Paper_Space0
  1

  0
ENDBLK
  5
76
330
74
100
AcDbEntity
 67
     1
  8
0
100
AcDbBlockEnd
  0
ENDSEC
  0
SECTION
  2
ENTITIES
  0
POINT
  5
7B
330
70
100
AcDbEntity
  8
leaf v25_Sketch1
100
AcDbPoint
 10
0.0
 20
0.0
 30
0.0
  0
SPLINE
  5
7C
330
70
100
AcDbEntity
  8
leaf v25_Sketch1
100
AcDbSpline
210
0.0
220
0.0
230
1.0
 70
    15
 71
     5
 72
    56
 73
    50
 74
     0
 42
0.000000001
 43
0.0000000001
 40
0.0
 40
0.0
 40
0.0
 40
0.0
 40
0.0
 40
0.0
 40
0.0222222222222222
 40
0.0444444444444445
 40
0.0666666666666667
 40
0.0888888888888889
 40
0.1111111111111111
 40
0.1333333333333333
 40
0.1555555555555556
 40
0.1777777777777778
 40
0.2
 40
0.2222222222222222
 40
0.2444444444444445
 40
0.2666666666666666
 40
0.2888888888888888
 40
0.3111111111111111
 40
0.3333333333333333
 40
0.3555555555555554
 40
0.3777777777777777
 40
0.3999999999999999
 40
0.4222222222222221
 40
0.4444444444444443
 40
0.4666666666666665
 40
0.4888888888888887
 40
0.5111111111111109
 40
0.5333333333333332
 40
0.5555555555555554
 40
0.5777777777777776
 40
0.5999999999999999
 40
0.6222222222222222
 40
0.6444444444444444
 40
0.6666666666666666
 40
0.688888888888889
 40
0.7111111111111112
 40
0.7333333333333334
 40
0.7555555555555557
 40
0.7777777777777779
 40
0.8000000000000001
 40
0.8222222222222224
 40
0.8444444444444446
 40
0.8666666666666669
 40
0.8888888888888891
 40
0.9111111111111114
 40
0.9333333333333337
 40
0.9555555555555558
 40
0.9777777777777782
 40
1.0
 40
1.0
 40
1.0
 40
1.0
 40
1.0
 40
1.0
 10
-0.7416781308998468
 20
-0.2782742454408052
 30
0.0
 41
1.0
 10
-0.7417965144663238
 20
-0.2774923540660503
 30
0.0
 41
1.0
 10
-0.7412758059792865
 20
-0.2756558952714712
 30
0.0
 41
1.0
 10
-0.7383237063833804
 20
-0.2718801945486732
 30
0.0
 41
1.0
 10
-0.7306231926499231
 20
-0.2640293960230224
 30
0.0
 41
1.0
 10
-0.7160553509872144
 20
-0.2499267078455353
 30
0.0
 41
1.0
 10
-0.6979410467302353
 20
-0.2327200413435045
 30
0.0
 41
1.0
 10
-0.6774958645836741
 20
-0.2142127235317553
 30
0.0
 41
1.0
 10
-0.6556767051366835
 20
-0.1960322375408174
 30
0.0
 41
1.0
 10
-0.6330689074033265
 20
-0.1792345227585906
 30
0.0
 41
1.0
 10
-0.6099934565486996
 20
-0.1644304414390357
 30
0.0
 41
1.0
 10
-0.5865724750173215
 20
-0.1518672586975107
 30
0.0
 41
1.0
 10
-0.5628104163381126
 20
-0.1415238051515579
 30
0.0
 41
1.0
 10
-0.5386690944274605
 20
-0.1332001689701932
 30
0.0
 41
1.0
 10
-0.5141427539431258
 20
-0.1266056845509369
 30
0.0
 41
1.0
 10
-0.4893393747017011
 20
-0.1214556780091574
 30
0.0
 41
1.0
 10
-0.4645143920116898
 20
-0.117496232844437
 30
0.0
 41
1.0
 10
-0.440097196610432
 20
-0.1145093578619788
 30
0.0
 41
1.0
 10
-0.4167131967917829
 20
-0.1123289077685677
 30
0.0
 41
1.0
 10
-0.3952250521435017
 20
-0.1108432335496855
 30
0.0
 41
1.0
 10
-0.3767276550513629
 20
-0.1100242231148757
 30
0.0
 41
1.0
 10
-0.3626590849716318
 20
-0.1098965616525316
 30
0.0
 41
1.0
 10
-0.3541525042462476
 20
-0.1107332533795031
 30
0.0
 41
1.0
 10
-0.3516954615753761
 20
-0.1129863848959944
 30
0.0
 41
1.0
 10
-0.3539206014678205
 20
-0.1178799109893156
 30
0.0
 41
1.0
 10
-0.3591987294793734
 20
-0.1258843957450973
 30
0.0
 41
1.0
 10
-0.3665156229127802
 20
-0.1365866436396641
 30
0.0
 41
1.0
 10
-0.3752649081066575
 20
-0.1492818566690849
 30
0.0
 41
1.0
 10
-0.3855447369927661
 20
-0.1633175765287552
 30
0.0
 41
1.0
 10
-0.3978381651868499
 20
-0.1781622236640871
 30
0.0
 41
1.0
 10
-0.4126803024851311
 20
-0.1933146316386428
 30
0.0
 41
1.0
 10
-0.4302910514442658
 20
-0.2082652295992845
 30
0.0
 41
1.0
 10
-0.450293616466606
 20
-0.222452460135032
 30
0.0
 41
1.0
 10
-0.471213854273794
 20
-0.2351780291106376
 30
0.0
 41
1.0
 10
-0.4909885306550841
 20
-0.2457561266501334
 30
0.0
 41
1.0
 10
-0.5078937044449178
 20
-0.2537569072199194
 30
0.0
 41
1.0
 10
-0.5214555909208935
 20
-0.2592601878244229
 30
0.0
 41
1.0
 10
-0.5331126194293096
 20
-0.263016715928401
 30
0.0
 41
1.0
 10
-0.5477473829901776
 20
-0.2669212827742565
 30
0.0
 41
1.0
 10
-0.5673007505314026
 20
-0.2714054073839788
 30
0.0
 41
1.0
 10
-0.5920113785380755
 20
-0.2761722325343772
 30
0.0
 41
1.0
 10
-0.6206277036117623
 20
-0.280450391971369
 30
0.0
 41
1.0
 10
-0.650995203686095
 20
-0.283434841688552
 30
0.0
 41
1.0
 10
-0.6804680442676164
 20
-0.2846227026890546
 30
0.0
 41
1.0
 10
-0.7064264740697964
 20
-0.2842651810149675
 30
0.0
 41
1.0
 10
-0.7265656880766455
 20
-0.2830502967801316
 30
0.0
 41
1.0
 10
-0.7367003235963341
 20
-0.2816688598371453
 30
0.0
 41
1.0
 10
-0.7405655045804169
 20
-0.2803472435199974
 30
0.0
 41
1.0
 10
-0.7415597473333698
 20
-0.27905613681556
 30
0.0
 41
1.0
 10
-0.7416781308998468
 20
-0.2782742454408052
 30
0.0
 41
1.0
  0
LINE
  5
7D
330
70
100
AcDbEntity
  8
leaf v25_Sketch1
100
AcDbLine
 10
-0.3578529593254538
 20
-0.0997162368580566
 30
0.0
 11
-0.348143299539186
 21
-0.1262510294614696
 31
0.0
  0
LINE
  5
7E
330
70
100
AcDbEntity
  8
leaf v25_Sketch1
100
AcDbLine
 10
-0.4962122208067843
 20
-0.2508060800373619
 30
0.0
 11
-0.5581090739397281
 21
-0.2711457493808624
 31
0.0
  0
LINE
  5
7F
330
70
100
AcDbEntity
  8
leaf v25_Sketch1
100
AcDbLine
 10
-0.7402143826918257
 20
-0.2879419056805059
 30
0.0
 11
-0.7431418791078677
 21
-0.2686065852011041
 31
0.0
  0
LINE
  5
80
330
70
100
AcDbEntity
  8
leaf v25_Sketch1
100
AcDbLine
 10
-0.6784032008520296
 20
-0.2842190430156373
 30
0.0
 11
-0.6060973474353474
 21
-0.2372592336731841
 31
0.0
  0
LINE
  5
81
330
70
100
AcDbEntity
  8
leaf v25_Sketch1
100
AcDbLine
 10
-0.6060973474353474
 20
-0.2372592336731841
 30
0.0
 11
-0.6001319768242231
 21
-0.2464443479022193
 31
0.0
  0
LINE
  5
82
330
70
100
AcDbEntity
  8
leaf v25_Sketch1
100
AcDbLine
 10
-0.6001319768242231
 20
-0.2464443479022193
 30
0.0
 11
-0.6570234547418171
 21
-0.2833931263202638
 31
0.0
  0
LINE
  5
83
330
70
100
AcDbEntity
  8
leaf v25_Sketch1
100
AcDbLine
 10
-0.7416781308998467
 20
-0.2782742454408051
 30
0.0
 11
-0.3529981294323199
 21
-0.1129836331597631
 31
0.0
  0
POINT
  5
85
330
70
100
AcDbEntity
  8
leaf v25_Sketch2
100
AcDbPoint
 10
0.0
 20
0.0
 30
0.0
  0
POINT
  5
86
330
70
100
AcDbEntity
  8
leaf v25_Sketch2
100
AcDbPoint
 10
-12.28187140240462
 20
-2.129265181041649
 30
0.0
  0
POINT
  5
87
330
70
100
AcDbEntity
  8
leaf v25_Sketch2
100
AcDbPoint
 10
-11.73989793757106
 20
5.334213284439525
 30
0.0
  0
POINT
  5
88
330
70
100
AcDbEntity
  8
leaf v25_Sketch2
100
AcDbPoint
 10
-8.518660951000633
 20
1.200240564412006
 30
0.0
  0
POINT
  5
89
330
70
100
AcDbEntity
  8
leaf v25_Sketch2
100
AcDbPoint
 10
-8.779697667469827
 20
-0.0272927473865772
 30
0.0
  0
POINT
  5
8A
330
70
100
AcDbEntity
  8
leaf v25_Sketch2
100
AcDbPoint
 10
-13.06356421471554
 20
1.200240564411992
 30
0.0
  0
POINT
  5
8B
330
70
100
AcDbEntity
  8
leaf v25_Sketch2
100
AcDbPoint
 10
-6.443941958721422
 20
4.7848745346698
 30
0.0
  0
POINT
  5
8C
330
70
100
AcDbEntity
  8
leaf v25_Sketch2
100
AcDbPoint
 10
-9.619263354303823
 20
5.548606622239157
 30
0.0
  0
POINT
  5
8D
330
70
100
AcDbEntity
  8
leaf v25_Sketch2
100
AcDbPoint
 10
-9.424010575667409
 20
1.200240564412003
 30
0.0
  0
POINT
  5
8E
330
70
100
AcDbEntity
  8
leaf v25_Sketch2
100
AcDbPoint
 10
-9.356697741713876
 20
-2.740653617172155
 30
0.0
  0
POINT
  5
8F
330
70
100
AcDbEntity
  8
leaf v25_Sketch2
100
AcDbPoint
 10
-9.872805675213035
 20
0.2253161251967496
 30
0.0
  0
POINT
  5
90
330
70
100
AcDbEntity
  8
leaf v25_Sketch2
100
AcDbPoint
 10
-11.51034966264998
 20
-2.29052038316797
 30
0.0
  0
POINT
  5
91
330
70
100
AcDbEntity
  8
leaf v25_Sketch2
100
AcDbPoint
 10
-9.968875018688105
 20
5.513261347644252
 30
0.0
  0
LINE
  5
92
330
70
100
AcDbEntity
  8
leaf v25_Sketch2
100
AcDbLine
 10
-7.148043512391714
 20
-6.924085916033093
 30
0.0
 11
-7.852145066062006
 21
-3.55532851479214
 31
0.0
  0
LINE
  5
93
330
70
100
AcDbEntity
  8
leaf v25_Sketch2
100
AcDbLine
 10
-7.852145066062006
 20
-3.55532851479214
 30
0.0
 11
-7.852145066062005
 21
4.7848745346698
 31
0.0
  0
LINE
  5
94
330
70
100
AcDbEntity
  8
leaf v25_Sketch2
100
AcDbLine
 10
-7.852145066062005
 20
4.7848745346698
 30
0.0
 11
-7.148043512391714
 21
11.74937315281659
 31
0.0
  0
SPLINE
  5
95
330
70
100
AcDbEntity
  8
leaf v25_Sketch2
100
AcDbSpline
210
0.0
220
0.0
230
1.0
 70
    12
 71
     3
 72
     8
 73
     4
 74
     0
 42
0.000000001
 43
0.0000000001
 40
0.0
 40
0.0
 40
0.0
 40
0.0
 40
1.0
 40
1.0
 40
1.0
 40
1.0
 10
-7.148043512391714
 20
-6.924085916033093
 30
0.0
 41
1.0
 10
-7.852145066062006
 20
-3.55532851479214
 30
0.0
 41
1.0
 10
-7.852145066062005
 20
4.7848745346698
 30
0.0
 41
1.0
 10
-7.148043512391714
 20
11.74937315281659
 30
0.0
 41
1.0
  0
LINE
  5
96
330
70
100
AcDbEntity
  8
leaf v25_Sketch2
100
AcDbLine
 10
-7.568421849453752
 20
5.84094335486495
 30
0.0
 11
-2.556189087212365
 21
5.334213284439525
 31
0.0
  0
LINE
  5
97
330
70
100
AcDbEntity
  8
leaf v25_Sketch2
100
AcDbLine
 10
-7.676024833956726
 20
1.200240564412012
 30
0.0
 11
-1.232522810067885
 21
1.200240564411992
 31
0.0
  0
LINE
  5
98
330
70
100
AcDbEntity
  8
leaf v25_Sketch2
100
AcDbLine
 10
-7.561130806804066
 20
-3.288621921302155
 30
0.0
 11
-2.014215622378809
 21
-2.129265181041649
 31
0.0
  0
LINE
  5
99
330
70
100
AcDbEntity
  8
leaf v25_Sketch2
100
AcDbLine
 10
-7.148043512391714
 20
-6.924085916033093
 30
0.0
 11
-2.014215622378809
 21
-2.12926518104165
 31
0.0
  0
LINE
  5
9A
330
70
100
AcDbEntity
  8
leaf v25_Sketch2
100
AcDbLine
 10
-2.014215622378809
 20
-2.129265181041649
 30
0.0
 11
-1.232522810067885
 21
1.200240564411992
 31
0.0
  0
LINE
  5
9B
330
70
100
AcDbEntity
  8
leaf v25_Sketch2
100
AcDbLine
 10
-1.232522810067885
 20
1.200240564411992
 30
0.0
 11
-2.556189087212365
 21
5.334213284439524
 31
0.0
  0
LINE
  5
9C
330
70
100
AcDbEntity
  8
leaf v25_Sketch2
100
AcDbLine
 10
-2.556189087212365
 20
5.334213284439525
 30
0.0
 11
-7.148043512391714
 21
11.74937315281659
 31
0.0
  0
SPLINE
  5
9D
330
70
100
AcDbEntity
  8
leaf v25_Sketch2
100
AcDbSpline
210
0.0
220
0.0
230
1.0
 70
    12
 71
     4
 72
    10
 73
     5
 74
     0
 42
0.000000001
 43
0.0000000001
 40
0.0
 40
0.0
 40
0.0
 40
0.0
 40
0.0
 40
1.0
 40
1.0
 40
1.0
 40
1.0
 40
1.0
 10
-7.148043512391714
 20
-6.924085916033093
 30
0.0
 41
1.0
 10
-2.014215622378809
 20
-2.129265181041649
 30
0.0
 41
1.0
 10
-1.232522810067885
 20
1.200240564411992
 30
0.0
 41
1.0
 10
-2.556189087212365
 20
5.334213284439525
 30
0.0
 41
1.0
 10
-7.148043512391714
 20
11.74937315281659
 30
0.0
 41
1.0
  0
LINE
  5
9E
330
70
100
AcDbEntity
  8
leaf v25_Sketch2
100
AcDbLine
 10
-7.148043512391714
 20
-6.924085916033093
 30
0.0
 11
-2.785737362133447
 21
-2.29052038316797
 31
0.0
  0
LINE
  5
9F
330
70
100
AcDbEntity
  8
leaf v25_Sketch2
100
AcDbLine
 10
-2.785737362133447
 20
-2.29052038316797
 30
0.0
 11
-4.872076449116019
 21
1.200240564412003
 31
0.0
  0
LINE
  5
A0
330
70
100
AcDbEntity
  8
leaf v25_Sketch2
100
AcDbLine
 10
-4.872076449116019
 20
1.200240564412003
 30
0.0
 11
-4.327212006095322
 21
5.513261347644252
 31
0.0
  0
LINE
  5
A1
330
70
100
AcDbEntity
  8
leaf v25_Sketch2
100
AcDbLine
 10
-4.327212006095322
 20
5.513261347644252
 30
0.0
 11
-7.148043512391714
 21
11.74937315281659
 31
0.0
  0
SPLINE
  5
A2
330
70
100
AcDbEntity
  8
leaf v25_Sketch2
100
AcDbSpline
210
0.0
220
0.0
230
1.0
 70
    12
 71
     4
 72
    10
 73
     5
 74
     0
 42
0.000000001
 43
0.0000000001
 40
0.0
 40
0.0
 40
0.0
 40
0.0
 40
0.0
 40
1.0
 40
1.0
 40
1.0
 40
1.0
 40
1.0
 10
-7.148043512391714
 20
-6.924085916033093
 30
0.0
 41
1.0
 10
-2.785737362133447
 20
-2.29052038316797
 30
0.0
 41
1.0
 10
-4.872076449116019
 20
1.200240564412003
 30
0.0
 41
1.0
 10
-4.327212006095322
 20
5.513261347644252
 30
0.0
 41
1.0
 10
-7.148043512391714
 20
11.74937315281659
 30
0.0
 41
1.0
  0
LINE
  5
A3
330
70
100
AcDbEntity
  8
leaf v25_Sketch2
100
AcDbLine
 10
-7.148043512391714
 20
-6.924085916033093
 30
0.0
 11
-4.939389283069552
 21
-2.740653617172155
 31
0.0
  0
LINE
  5
A4
330
70
100
AcDbEntity
  8
leaf v25_Sketch2
100
AcDbLine
 10
-4.939389283069552
 20
-2.740653617172155
 30
0.0
 11
-5.777426073782796
 21
1.200240564412006
 31
0.0
  0
LINE
  5
A5
330
70
100
AcDbEntity
  8
leaf v25_Sketch2
100
AcDbLine
 10
-5.777426073782796
 20
1.200240564412006
 30
0.0
 11
-4.676823670479605
 21
5.548606622239157
 31
0.0
  0
LINE
  5
A6
330
70
100
AcDbEntity
  8
leaf v25_Sketch2
100
AcDbLine
 10
-4.676823670479605
 20
5.548606622239157
 30
0.0
 11
-7.148043512391714
 21
11.74937315281659
 31
0.0
  0
SPLINE
  5
A7
330
70
100
AcDbEntity
  8
leaf v25_Sketch2
100
AcDbSpline
210
0.0
220
0.0
230
1.0
 70
    12
 71
     4
 72
    10
 73
     5
 74
     0
 42
0.000000001
 43
0.0000000001
 40
0.0
 40
0.0
 40
0.0
 40
0.0
 40
0.0
 40
1.0
 40
1.0
 40
1.0
 40
1.0
 40
1.0
 10
-7.148043512391714
 20
-6.924085916033093
 30
0.0
 41
1.0
 10
-4.939389283069552
 20
-2.740653617172155
 30
0.0
 41
1.0
 10
-5.777426073782796
 20
1.200240564412006
 30
0.0
 41
1.0
 10
-4.676823670479605
 20
5.548606622239157
 30
0.0
 41
1.0
 10
-7.148043512391714
 20
11.74937315281659
 30
0.0
 41
1.0
  0
LINE
  5
A8
330
70
100
AcDbEntity
  8
leaf v25_Sketch2
100
AcDbLine
 10
-7.676098032101057
 20
0.9994400607196427
 30
0.0
 11
-5.516389357313601
 21
-0.0272927473865772
 31
0.0
  0
LINE
  5
A9
330
70
100
AcDbEntity
  8
leaf v25_Sketch2
100
AcDbLine
 10
-5.516389357313601
 20
-0.0272927473865772
 30
0.0
 11
-4.423281349570393
 21
0.2253161251967496
 31
0.0
  0
LINE
  5
AA
330
70
100
AcDbEntity
  8
leaf v25_Sketch2
100
AcDbLine
 10
-4.423281349570393
 20
0.2253161251967496
 30
0.0
 11
-2.494785638327784
 21
1.200240564411996
 31
0.0
  0
SPLINE
  5
AB
330
70
100
AcDbEntity
  8
leaf v25_Sketch2
100
AcDbSpline
210
0.0
220
0.0
230
1.0
 70
    12
 71
     3
 72
     8
 73
     4
 74
     0
 42
0.000000001
 43
0.0000000001
 40
0.0
 40
0.0
 40
0.0
 40
0.0
 40
1.0
 40
1.0
 40
1.0
 40
1.0
 10
-7.676098032101057
 20
0.9994400607196427
 30
0.0
 41
1.0
 10
-5.516389357313601
 20
-0.0272927473865772
 30
0.0
 41
1.0
 10
-4.423281349570391
 20
0.2253161251967501
 30
0.0
 41
1.0
 10
-2.494785638327784
 20
1.200240564411996
 30
0.0
 41
1.0
  0
LINE
  5
AC
330
70
100
AcDbEntity
  8
leaf v25_Sketch2
100
AcDbLine
 10
-7.148043512391714
 20
7.437026218494941
 30
0.0
 11
-7.148043512391714
 21
-0.963110681505058
 31
0.0
  0
SPLINE
  5
AD
330
70
100
AcDbEntity
  8
leaf v25_Sketch2
100
AcDbSpline
210
0.0
220
0.0
230
1.0
 70
    12
 71
     4
 72
    10
 73
     5
 74
     0
 42
0.000000001
 43
0.0000000001
 40
0.0
 40
0.0
 40
0.0
 40
0.0
 40
0.0
 40
1.0
 40
1.0
 40
1.0
 40
1.0
 40
1.0
 10
-7.148043512391714
 20
-6.924085916033093
 30
0.0
 41
1.0
 10
-12.28187140240462
 20
-2.129265181041649
 30
0.0
 41
1.0
 10
-13.06356421471554
 20
1.200240564411992
 30
0.0
 41
1.0
 10
-11.73989793757106
 20
5.334213284439525
 30
0.0
 41
1.0
 10
-7.148043512391714
 20
11.74937315281659
 30
0.0
 41
1.0
  0
LINE
  5
AE
330
70
100
AcDbEntity
  8
leaf v25_Sketch2
100
AcDbLine
 10
-7.148043512391714
 20
-6.924085916033093
 30
0.0
 11
-12.28187140240462
 21
-2.12926518104165
 31
0.0
  0
LINE
  5
AF
330
70
100
AcDbEntity
  8
leaf v25_Sketch2
100
AcDbLine
 10
-12.28187140240462
 20
-2.129265181041649
 30
0.0
 11
-13.06356421471554
 21
1.200240564411992
 31
0.0
  0
LINE
  5
B0
330
70
100
AcDbEntity
  8
leaf v25_Sketch2
100
AcDbLine
 10
-13.06356421471554
 20
1.200240564411992
 30
0.0
 11
-11.73989793757106
 21
5.334213284439524
 31
0.0
  0
LINE
  5
B1
330
70
100
AcDbEntity
  8
leaf v25_Sketch2
100
AcDbLine
 10
-11.73989793757106
 20
5.334213284439525
 30
0.0
 11
-7.148043512391714
 21
11.74937315281659
 31
0.0
  0
SPLINE
  5
B2
330
70
100
AcDbEntity
  8
leaf v25_Sketch2
100
AcDbSpline
210
0.0
220
0.0
230
1.0
 70
    12
 71
     4
 72
    10
 73
     5
 74
     0
 42
0.000000001
 43
0.0000000001
 40
0.0
 40
0.0
 40
0.0
 40
0.0
 40
0.0
 40
1.0
 40
1.0
 40
1.0
 40
1.0
 40
1.0
 10
-7.148043512391714
 20
-6.924085916033093
 30
0.0
 41
1.0
 10
-9.356697741713876
 20
-2.740653617172155
 30
0.0
 41
1.0
 10
-8.518660951000633
 20
1.200240564412006
 30
0.0
 41
1.0
 10
-9.619263354303823
 20
5.548606622239157
 30
0.0
 41
1.0
 10
-7.148043512391714
 20
11.74937315281659
 30
0.0
 41
1.0
  0
LINE
  5
B3
330
70
100
AcDbEntity
  8
leaf v25_Sketch2
100
AcDbLine
 10
-7.148043512391714
 20
-6.924085916033093
 30
0.0
 11
-9.356697741713876
 21
-2.740653617172155
 31
0.0
  0
LINE
  5
B4
330
70
100
AcDbEntity
  8
leaf v25_Sketch2
100
AcDbLine
 10
-9.356697741713876
 20
-2.740653617172155
 30
0.0
 11
-8.518660951000633
 21
1.200240564412006
 31
0.0
  0
LINE
  5
B5
330
70
100
AcDbEntity
  8
leaf v25_Sketch2
100
AcDbLine
 10
-8.518660951000633
 20
1.200240564412006
 30
0.0
 11
-9.619263354303823
 21
5.548606622239157
 31
0.0
  0
LINE
  5
B6
330
70
100
AcDbEntity
  8
leaf v25_Sketch2
100
AcDbLine
 10
-9.619263354303823
 20
5.548606622239157
 30
0.0
 11
-7.148043512391714
 21
11.74937315281659
 31
0.0
  0
SPLINE
  5
B7
330
70
100
AcDbEntity
  8
leaf v25_Sketch2
100
AcDbSpline
210
0.0
220
0.0
230
1.0
 70
    12
 71
     3
 72
     8
 73
     4
 74
     0
 42
0.000000001
 43
0.0000000001
 40
0.0
 40
0.0
 40
0.0
 40
0.0
 40
1.0
 40
1.0
 40
1.0
 40
1.0
 10
-7.148043512391714
 20
-6.924085916033093
 30
0.0
 41
1.0
 10
-6.443941958721421
 20
-3.55532851479214
 30
0.0
 41
1.0
 10
-6.443941958721422
 20
4.7848745346698
 30
0.0
 41
1.0
 10
-7.148043512391714
 20
11.74937315281659
 30
0.0
 41
1.0
  0
LINE
  5
B8
330
70
100
AcDbEntity
  8
leaf v25_Sketch2
100
AcDbLine
 10
-7.148043512391714
 20
-6.924085916033093
 30
0.0
 11
-6.443941958721421
 21
-3.55532851479214
 31
0.0
  0
LINE
  5
B9
330
70
100
AcDbEntity
  8
leaf v25_Sketch2
100
AcDbLine
 10
-6.443941958721421
 20
-3.55532851479214
 30
0.0
 11
-6.443941958721422
 21
4.7848745346698
 31
0.0
  0
LINE
  5
BA
330
70
100
AcDbEntity
  8
leaf v25_Sketch2
100
AcDbLine
 10
-6.443941958721422
 20
4.7848745346698
 30
0.0
 11
-7.148043512391714
 21
11.74937315281659
 31
0.0
  0
SPLINE
  5
BB
330
70
100
AcDbEntity
  8
leaf v25_Sketch2
100
AcDbSpline
210
0.0
220
0.0
230
1.0
 70
    12
 71
     4
 72
    10
 73
     5
 74
     0
 42
0.000000001
 43
0.0000000001
 40
0.0
 40
0.0
 40
0.0
 40
0.0
 40
0.0
 40
1.0
 40
1.0
 40
1.0
 40
1.0
 40
1.0
 10
-7.148043512391714
 20
-6.924085916033093
 30
0.0
 41
1.0
 10
-11.51034966264998
 20
-2.29052038316797
 30
0.0
 41
1.0
 10
-9.424010575667407
 20
1.200240564412003
 30
0.0
 41
1.0
 10
-9.968875018688104
 20
5.513261347644252
 30
0.0
 41
1.0
 10
-7.148043512391714
 20
11.74937315281659
 30
0.0
 41
1.0
  0
LINE
  5
BC
330
70
100
AcDbEntity
  8
leaf v25_Sketch2
100
AcDbLine
 10
-7.148043512391714
 20
-6.924085916033093
 30
0.0
 11
-11.51034966264998
 21
-2.29052038316797
 31
0.0
  0
LINE
  5
BD
330
70
100
AcDbEntity
  8
leaf v25_Sketch2
100
AcDbLine
 10
-11.51034966264998
 20
-2.29052038316797
 30
0.0
 11
-9.424010575667407
 21
1.200240564412003
 31
0.0
  0
LINE
  5
BE
330
70
100
AcDbEntity
  8
leaf v25_Sketch2
100
AcDbLine
 10
-9.424010575667407
 20
1.200240564412003
 30
0.0
 11
-9.968875018688104
 21
5.513261347644252
 31
0.0
  0
LINE
  5
BF
330
70
100
AcDbEntity
  8
leaf v25_Sketch2
100
AcDbLine
 10
-9.968875018688104
 20
5.513261347644252
 30
0.0
 11
-7.148043512391714
 21
11.74937315281659
 31
0.0
  0
SPLINE
  5
C0
330
70
100
AcDbEntity
  8
leaf v25_Sketch2
100
AcDbSpline
210
0.0
220
0.0
230
1.0
 70
    12
 71
     3
 72
     8
 73
     4
 74
     0
 42
0.000000001
 43
0.0000000001
 40
0.0
 40
0.0
 40
0.0
 40
0.0
 40
1.0
 40
1.0
 40
1.0
 40
1.0
 10
-6.619988992682371
 20
0.9994400607196427
 30
0.0
 41
1.0
 10
-8.779697667469823
 20
-0.0272927473865752
 30
0.0
 41
1.0
 10
-9.872805675213035
 20
0.2253161251967497
 30
0.0
 41
1.0
 10
-11.80130138645564
 20
1.200240564411996
 30
0.0
 41
1.0
  0
LINE
  5
C1
330
70
100
AcDbEntity
  8
leaf v25_Sketch2
100
AcDbLine
 10
-6.619988992682371
 20
0.9994400607196427
 30
0.0
 11
-8.779697667469827
 21
-0.0272927473865772
 31
0.0
  0
LINE
  5
C2
330
70
100
AcDbEntity
  8
leaf v25_Sketch2
100
AcDbLine
 10
-8.779697667469827
 20
-0.0272927473865772
 30
0.0
 11
-9.872805675213035
 21
0.2253161251967496
 31
0.0
  0
LINE
  5
C3
330
70
100
AcDbEntity
  8
leaf v25_Sketch2
100
AcDbLine
 10
-9.872805675213035
 20
0.2253161251967496
 30
0.0
 11
-11.80130138645564
 21
1.200240564411996
 31
0.0
  0
LINE
  5
C4
330
70
100
AcDbEntity
  8
leaf v25_Sketch2
100
AcDbLine
 10
-6.727665175329681
 20
5.840943354865096
 30
0.0
 11
-11.73989793757106
 21
5.334213284439525
 31
0.0
  0
LINE
  5
C5
330
70
100
AcDbEntity
  8
leaf v25_Sketch2
100
AcDbLine
 10
-6.620062190826701
 20
1.200240564412012
 30
0.0
 11
-13.06356421471554
 21
1.200240564411992
 31
0.0
  0
LINE
  5
C6
330
70
100
AcDbEntity
  8
leaf v25_Sketch2
100
AcDbLine
 10
-6.734956217979362
 20
-3.288621921302155
 30
0.0
 11
-12.28187140240462
 21
-2.129265181041649
 31
0.0
  0
POINT
  5
C8
330
70
100
AcDbEntity
  8
leaf v25_Sketch4
100
AcDbPoint
 10
0.0
 20
0.0
 30
0.0
  0
POINT
  5
C9
330
70
100
AcDbEntity
  8
leaf v25_Sketch4
100
AcDbPoint
 10
0.0
 20
0.0
 30
0.0
  0
POINT
  5
CA
330
70
100
AcDbEntity
  8
leaf v25_Sketch4
100
AcDbPoint
 10
0.386288777170166
 20
0.0
 30
2.122923030005308
  0
POINT
  5
CB
330
70
100
AcDbEntity
  8
leaf v25_Sketch4
100
AcDbPoint
 10
0.4017548252621358
 20
0.0
 30
4.956214151498862
  0
POINT
  5
CC
330
70
100
AcDbEntity
  8
leaf v25_Sketch4
100
AcDbPoint
 10
-2.637419651421996
 20
0.0
 30
1.5765132178962
  0
POINT
  5
CD
330
70
100
AcDbEntity
  8
leaf v25_Sketch4
100
AcDbPoint
 10
-1.207535689861676
 20
0.0
 30
5.764825661659433
  0
POINT
  5
CE
330
70
100
AcDbEntity
  8
leaf v25_Sketch4
100
AcDbPoint
 10
-2.439269320277402
 20
0.0
 30
3.555034638844071
  0
LINE
  5
CF
330
70
100
AcDbEntity
  8
leaf v25_Sketch4
100
AcDbLine
 10
0.0
 20
0.0
 30
0.0
 11
-0.3746948234157249
 21
0.0
 31
2.125
  0
LINE
  5
D0
330
70
100
AcDbEntity
  8
leaf v25_Sketch4
100
AcDbLine
 10
-0.3746948234157249
 20
0.0
 30
2.125
 11
-0.3746948234157249
 21
0.0
 31
4.958333333333333
  0
LINE
  5
D1
330
70
100
AcDbEntity
  8
leaf v25_Sketch4
100
AcDbLine
 10
-0.3746948234157249
 20
0.0
 30
4.958333333333333
 11
0.0193327041271402
 21
0.0
 31
7.083333333333333
  0
SPLINE
  5
D2
330
70
100
AcDbEntity
  8
leaf v25_Sketch4
100
AcDbSpline
210
0.0
220
1.0
230
0.0
 70
    12
 71
     3
 72
     8
 73
     4
 74
     0
 42
0.000000001
 43
0.0000000001
 40
0.0
 40
0.0
 40
0.0
 40
0.0
 40
1.0
 40
1.0
 40
1.0
 40
1.0
 10
0.0
 20
0.0
 30
0.0
 41
1.0
 10
-0.3746948234157249
 20
0.0
 30
2.125
 41
1.0
 10
-0.3746948234157249
 20
0.0
 30
4.958333333333333
 41
1.0
 10
0.0193327041271402
 20
0.0
 30
7.083333333333333
 41
1.0
  0
LINE
  5
D3
330
70
100
AcDbEntity
  8
leaf v25_Sketch4
100
AcDbLine
 10
-0.1776810596442925
 20
0.0
 30
6.020833333333333
 11
1.238985607022374
 21
0.0
 31
5.758148314971422
  0
LINE
  5
D4
330
70
100
AcDbEntity
  8
leaf v25_Sketch4
100
AcDbLine
 10
-0.1873474117078626
 20
0.0
 30
1.0625
 11
2.645985921625473
 21
0.0
 31
1.562093097887624
  0
LINE
  5
D5
330
70
100
AcDbEntity
  8
leaf v25_Sketch4
100
AcDbLine
 10
-0.3746948234157249
 20
0.0
 30
3.541666666666666
 11
2.458638509917608
 21
0.0
 31
3.541666666666683
  0
LINE
  5
D6
330
70
100
AcDbEntity
  8
leaf v25_Sketch4
100
AcDbLine
 10
0.0
 20
0.0
 30
0.0
 11
2.645985921625473
 21
0.0
 31
1.562093097887624
  0
LINE
  5
D7
330
70
100
AcDbEntity
  8
leaf v25_Sketch4
100
AcDbLine
 10
2.645985921625473
 20
0.0
 30
1.562093097887624
 11
2.458638509917608
 21
0.0
 31
3.541666666666683
  0
LINE
  5
D8
330
70
100
AcDbEntity
  8
leaf v25_Sketch4
100
AcDbLine
 10
2.458638509917608
 20
0.0
 30
3.541666666666683
 11
1.238985607022374
 21
0.0
 31
5.758148314971422
  0
LINE
  5
D9
330
70
100
AcDbEntity
  8
leaf v25_Sketch4
100
AcDbLine
 10
1.238985607022374
 20
0.0
 30
5.758148314971422
 11
0.0193327041271401
 21
0.0
 31
7.083333333333333
  0
SPLINE
  5
DA
330
70
100
AcDbEntity
  8
leaf v25_Sketch4
100
AcDbSpline
210
0.0
220
1.0
230
0.0
 70
    12
 71
     4
 72
    10
 73
     5
 74
     0
 42
0.000000001
 43
0.0000000001
 40
0.0
 40
0.0
 40
0.0
 40
0.0
 40
0.0
 40
1.0
 40
1.0
 40
1.0
 40
1.0
 40
1.0
 10
0.0
 20
0.0
 30
0.0
 41
1.0
 10
2.645985921625473
 20
0.0
 30
1.562093097887624
 41
1.0
 10
2.458638509917608
 20
0.0
 30
3.541666666666683
 41
1.0
 10
1.238985607022374
 20
0.0
 30
5.758148314971422
 41
1.0
 10
0.0193327041271402
 20
0.0
 30
7.083333333333333
 41
1.0
  0
LINE
  5
DB
330
70
100
AcDbEntity
  8
leaf v25_Sketch4
100
AcDbLine
 10
0.0
 20
0.0
 30
0.0
 11
0.0193327041271402
 21
0.0
 31
7.083333333333333
  0
LINE
  5
DC
330
70
100
AcDbEntity
  8
leaf v25_Sketch4
100
AcDbLine
 10
0.6291591555747575
 20
0.0
 30
6.420740824152379
 11
0.8571503084537335
 21
0.0
 31
6.418732290131071
  0
LINE
  5
DD
330
70
100
AcDbEntity
  8
leaf v25_Sketch4
100
AcDbLine
 10
0.8571503084537335
 20
0.0
 30
6.418732290131071
 11
0.8456981407882977
 21
0.0
 31
5.118782734242162
  0
LINE
  5
DE
330
70
100
AcDbEntity
  8
leaf v25_Sketch4
100
AcDbLine
 10
0.8456981407882977
 20
0.0
 30
5.118782734242162
 11
0.6177069879093203
 21
0.0
 31
5.120791268263474
  0
LINE
  5
DF
330
70
100
AcDbEntity
  8
leaf v25_Sketch4
100
AcDbLine
 10
0.6177069879093203
 20
0.0
 30
5.120791268263474
 11
0.6291591555747575
 21
0.0
 31
6.420740824152379
  0
LINE
  5
E0
330
70
100
AcDbEntity
  8
leaf v25_Sketch4
100
AcDbLine
 10
0.8584359025747353
 20
0.0
 30
2.016429380150902
 11
1.519331122962504
 21
0.0
 31
0.8969574029810413
  0
LINE
  5
E1
330
70
100
AcDbEntity
  8
leaf v25_Sketch4
100
AcDbLine
 10
0.6620977404249447
 20
0.0
 30
1.900518526113661
 11
0.8584359025747353
 21
0.0
 31
2.016429380150902
  0
LINE
  5
E2
330
70
100
AcDbEntity
  8
leaf v25_Sketch4
100
AcDbLine
 10
1.322992960812737
 20
0.0
 30
0.7810465489438126
 11
0.6620977404249447
 21
0.0
 31
1.900518526113661
  0
LINE
  5
E3
330
70
100
AcDbEntity
  8
leaf v25_Sketch4
100
AcDbLine
 10
1.519331122962504
 20
0.0
 30
0.8969574029810415
 11
1.322992960812737
 21
0.0
 31
0.7810465489438126
  0
LINE
  5
E4
330
70
100
AcDbEntity
  8
leaf v25_Sketch4
100
AcDbLine
 10
0.1931443885850832
 20
0.0
 30
1.061461515002655
 11
-2.637419651421996
 21
0.0
 31
1.5765132178962
  0
LINE
  5
E5
330
70
100
AcDbEntity
  8
leaf v25_Sketch4
100
AcDbLine
 10
-1.318709825710998
 20
0.0
 30
0.7882566089481003
 11
-0.6517136959702539
 21
0.0
 31
1.904104341800064
  0
LINE
  5
E6
330
70
100
AcDbEntity
  8
leaf v25_Sketch4
100
AcDbLine
 10
-1.514412351165007
 20
0.0
 30
0.9052374686256889
 11
-1.318709825710998
 21
0.0
 31
0.7882566089481003
  0
LINE
  5
E7
330
70
100
AcDbEntity
  8
leaf v25_Sketch4
100
AcDbLine
 10
-0.6517136959702539
 20
0.0
 30
1.904104341800064
 11
-0.8474162214242923
 21
0.0
 31
2.021085201477668
  0
LINE
  5
E8
330
70
100
AcDbEntity
  8
leaf v25_Sketch4
100
AcDbLine
 10
-0.8474162214242923
 20
0.0
 30
2.021085201477668
 11
-1.514412351165007
 21
0.0
 31
0.9052374686256889
  0
LINE
  5
E9
330
70
100
AcDbEntity
  8
leaf v25_Sketch4
100
AcDbLine
 10
0.2105437646946382
 20
0.0
 30
6.019773742416098
 11
-1.207535689861676
 21
0.0
 31
5.764825661659433
  0
LINE
  5
EA
330
70
100
AcDbEntity
  8
leaf v25_Sketch4
100
AcDbLine
 10
-0.5941014928672635
 20
0.0
 30
6.424079497496381
 11
-0.8221002128607452
 21
0.0
 31
6.423315507093506
  0
LINE
  5
EB
330
70
100
AcDbEntity
  8
leaf v25_Sketch4
100
AcDbLine
 10
-0.8221002128607452
 20
0.0
 30
6.423315507093506
 11
-0.8177441272302266
 21
0.0
 31
5.123322805376305
  0
LINE
  5
EC
330
70
100
AcDbEntity
  8
leaf v25_Sketch4
100
AcDbLine
 10
-0.8177441272302266
 20
0.0
 30
5.123322805376305
 11
-0.5897454072367435
 21
0.0
 31
5.124086795779185
  0
LINE
  5
ED
330
70
100
AcDbEntity
  8
leaf v25_Sketch4
100
AcDbLine
 10
-0.5897454072367435
 20
0.0
 30
5.124086795779185
 11
-0.5941014928672635
 21
0.0
 31
6.424079497496381
  0
SPLINE
  5
EE
330
70
100
AcDbEntity
  8
leaf v25_Sketch4
100
AcDbSpline
210
0.0
220
1.0
230
0.0
 70
    12
 71
     3
 72
     8
 73
     4
 74
     0
 42
0.000000001
 43
0.0000000001
 40
0.0
 40
0.0
 40
0.0
 40
0.0
 40
1.0
 40
1.0
 40
1.0
 40
1.0
 10
0.0
 20
0.0
 30
0.0000000000000016
 41
1.0
 10
0.386288777170166
 20
0.0
 30
2.122923030005308
 41
1.0
 10
0.4017548252621358
 20
0.0
 30
4.956214151498862
 41
1.0
 10
0.0193327041271404
 20
0.0
 30
7.083333333333333
 41
1.0
  0
LINE
  5
EF
330
70
100
AcDbEntity
  8
leaf v25_Sketch4
100
AcDbLine
 10
0.0
 20
0.0
 30
0.0
 11
0.386288777170166
 21
0.0
 31
2.122923030005308
  0
LINE
  5
F0
330
70
100
AcDbEntity
  8
leaf v25_Sketch4
100
AcDbLine
 10
0.386288777170166
 20
0.0
 30
2.122923030005308
 11
0.4017548252621358
 21
0.0
 31
4.956214151498862
  0
LINE
  5
F1
330
70
100
AcDbEntity
  8
leaf v25_Sketch4
100
AcDbLine
 10
0.4017548252621358
 20
0.0
 30
4.956214151498862
 11
0.0193327041271404
 21
0.0
 31
7.083333333333333
  0
SPLINE
  5
F2
330
70
100
AcDbEntity
  8
leaf v25_Sketch4
100
AcDbSpline
210
0.0
220
1.0
230
0.0
 70
    12
 71
     4
 72
    10
 73
     5
 74
     0
 42
0.000000001
 43
0.0000000001
 40
0.0
 40
0.0
 40
0.0
 40
0.0
 40
0.0
 40
1.0
 40
1.0
 40
1.0
 40
1.0
 40
1.0
 10
0.0
 20
0.0
 30
0.0000000000000016
 41
1.0
 10
-2.63741965142199
 20
0.0
 30
1.5765132178962
 41
1.0
 10
-2.439269320277401
 20
0.0
 30
3.555034638844071
 41
1.0
 10
-1.207535689861677
 20
0.0
 30
5.764825661659433
 41
1.0
 10
0.0193327041271404
 20
0.0
 30
7.083333333333333
 41
1.0
  0
LINE
  5
F3
330
70
100
AcDbEntity
  8
leaf v25_Sketch4
100
AcDbLine
 10
0.0
 20
0.0
 30
0.0
 11
-2.63741965142199
 21
0.0
 31
1.5765132178962
  0
LINE
  5
F4
330
70
100
AcDbEntity
  8
leaf v25_Sketch4
100
AcDbLine
 10
-2.63741965142199
 20
0.0
 30
1.5765132178962
 11
-2.439269320277401
 21
0.0
 31
3.555034638844071
  0
LINE
  5
F5
330
70
100
AcDbEntity
  8
leaf v25_Sketch4
100
AcDbLine
 10
-2.439269320277401
 20
0.0
 30
3.555034638844071
 11
-1.207535689861677
 21
0.0
 31
5.764825661659433
  0
LINE
  5
F6
330
70
100
AcDbEntity
  8
leaf v25_Sketch4
100
AcDbLine
 10
-1.207535689861677
 20
0.0
 30
5.764825661659433
 11
0.0193327041271403
 21
0.0
 31
7.083333333333333
  0
LINE
  5
F7
330
70
100
AcDbEntity
  8
leaf v25_Sketch4
100
AcDbLine
 10
0.3940218012161509
 20
0.0
 30
3.539568590752085
 11
-2.439269320277402
 21
0.0
 31
3.555034638844071
  0
POINT
  5
F9
330
70
100
AcDbEntity
  8
leaf v25_Sketch6
100
AcDbPoint
 10
0.0
 20
0.0
 30
0.0
  0
POINT
  5
FA
330
70
100
AcDbEntity
  8
leaf v25_Sketch6
100
AcDbPoint
 10
-1.216635909170999
 20
0.0
 30
3.312176287800592
  0
POINT
  5
FB
330
70
100
AcDbEntity
  8
leaf v25_Sketch6
100
AcDbPoint
 10
1.035615772878315
 20
0.0
 30
7.291892114640886
  0
POINT
  5
FC
330
70
100
AcDbEntity
  8
leaf v25_Sketch6
100
AcDbPoint
 10
3.382978316114689
 20
0.0
 30
5.16477873899934
  0
POINT
  5
FD
330
70
100
AcDbEntity
  8
leaf v25_Sketch6
100
AcDbPoint
 10
-1.216635909170999
 20
0.0
 30
3.312176287800593
  0
POINT
  5
FE
330
70
100
AcDbEntity
  8
leaf v25_Sketch6
100
AcDbPoint
 10
0.7423425983069045
 20
0.0
 30
4.137734054666885
  0
POINT
  5
FF
330
70
100
AcDbEntity
  8
leaf v25_Sketch6
100
AcDbPoint
 10
-1.337890344587093
 20
0.0
 30
6.336926514537617
  0
POINT
  5
100
330
70
100
AcDbEntity
  8
leaf v25_Sketch6
100
AcDbPoint
 10
0.0186431124134795
 20
0.0
 30
7.943902470362441
  0
LINE
  5
101
330
70
100
AcDbEntity
  8
leaf v25_Sketch6
100
AcDbLine
 10
-1.997279755495019
 20
0.0
 30
6.418878301180774
 11
-2.247279755495019
 21
0.0
 31
6.418878301180774
  0
LINE
  5
102
330
70
100
AcDbEntity
  8
leaf v25_Sketch6
100
AcDbLine
 10
-2.247279755495019
 20
0.0
 30
6.418878301180774
 11
-2.247279755495018
 21
0.0
 31
3.418878301180774
  0
SPLINE
  5
103
330
70
100
AcDbEntity
  8
leaf v25_Sketch6
100
AcDbSpline
210
0.0
220
1.0
230
0.0
 70
    12
 71
     4
 72
    10
 73
     5
 74
     0
 42
0.000000001
 43
0.0000000001
 40
0.0
 40
0.0
 40
0.0
 40
0.0
 40
0.0
 40
1.0
 40
1.0
 40
1.0
 40
1.0
 40
1.0
 10
-1.216635909170999
 20
0.0
 30
3.312176287800592
 41
1.0
 10
-1.337890344587093
 20
0.0
 30
6.336926514537617
 41
1.0
 10
1.035615772878316
 20
0.0
 30
7.291892114640886
 41
1.0
 10
0.0186431124134799
 20
0.0
 30
7.943902470362441
 41
1.0
 10
3.628615751558414
 20
0.0
 30
10.39550962113392
 41
1.0
  0
LINE
  5
104
330
70
100
AcDbEntity
  8
leaf v25_Sketch6
100
AcDbLine
 10
-1.216635909170999
 20
0.0
 30
3.312176287800592
 11
-1.337890344587093
 21
0.0
 31
6.336926514537617
  0
LINE
  5
105
330
70
100
AcDbEntity
  8
leaf v25_Sketch6
100
AcDbLine
 10
-1.337890344587093
 20
0.0
 30
6.336926514537617
 11
1.035615772878316
 21
0.0
 31
7.291892114640886
  0
LINE
  5
106
330
70
100
AcDbEntity
  8
leaf v25_Sketch6
100
AcDbLine
 10
1.035615772878316
 20
0.0
 30
7.291892114640886
 11
0.0186431124134801
 21
0.0
 31
7.943902470362441
  0
LINE
  5
107
330
70
100
AcDbEntity
  8
leaf v25_Sketch6
100
AcDbLine
 10
0.0186431124134799
 20
0.0
 30
7.943902470362441
 11
3.628615751558414
 21
0.0
 31
10.39550962113392
  0
SPLINE
  5
108
330
70
100
AcDbEntity
  8
leaf v25_Sketch6
100
AcDbSpline
210
0.0
220
1.0
230
0.0
 70
    12
 71
     3
 72
     8
 73
     4
 74
     0
 42
0.000000001
 43
0.0000000001
 40
0.0
 40
0.0
 40
0.0
 40
0.0
 40
1.0
 40
1.0
 40
1.0
 40
1.0
 10
-1.216635909170999
 20
0.0
 30
3.312176287800592
 41
1.0
 10
0.7423425983069047
 20
0.0
 30
4.137734054666886
 41
1.0
 10
3.382978316114687
 20
0.0
 30
5.164778738999338
 41
1.0
 10
3.628615751558414
 20
0.0
 30
10.39550962113392
 41
1.0
  0
LINE
  5
109
330
70
100
AcDbEntity
  8
leaf v25_Sketch6
100
AcDbLine
 10
-1.216635909170999
 20
0.0
 30
3.312176287800592
 11
0.7423425983069048
 21
0.0
 31
4.137734054666886
  0
LINE
  5
10A
330
70
100
AcDbEntity
  8
leaf v25_Sketch6
100
AcDbLine
 10
0.7423425983069047
 20
0.0
 30
4.137734054666886
 11
3.382978316114687
 21
0.0
 31
5.164778738999338
  0
LINE
  5
10B
330
70
100
AcDbEntity
  8
leaf v25_Sketch6
100
AcDbLine
 10
3.382978316114687
 20
0.0
 30
5.164778738999338
 11
3.628615751558414
 21
0.0
 31
10.39550962113392
  0
SPLINE
  5
10C
330
70
100
AcDbEntity
  8
leaf v25_Sketch6
100
AcDbSpline
210
0.0
220
1.0
230
0.0
 70
    12
 71
     4
 72
    10
 73
     5
 74
     0
 42
0.000000001
 43
0.0000000001
 40
0.0
 40
0.0
 40
0.0
 40
0.0
 40
0.0
 40
1.0
 40
1.0
 40
1.0
 40
1.0
 40
1.0
 10
-1.216635909170999
 20
0.0
 30
3.312176287800592
 41
1.0
 10
1.646351341245993
 20
0.0
 30
4.295599175577518
 41
1.0
 10
1.676005258329649
 20
0.0
 30
6.85384295446723
 41
1.0
 10
2.652310504944029
 20
0.0
 30
6.142380403425847
 41
1.0
 10
3.62861575155841
 20
0.0
 30
10.39550962113392
 41
1.0
  0
LINE
  5
10D
330
70
100
AcDbEntity
  8
leaf v25_Sketch6
100
AcDbLine
 10
-1.216635909170999
 20
0.0
 30
3.312176287800592
 11
1.646351341245993
 21
0.0
 31
4.295599175577518
  0
LINE
  5
10E
330
70
100
AcDbEntity
  8
leaf v25_Sketch6
100
AcDbLine
 10
1.646351341245993
 20
0.0
 30
4.295599175577518
 11
1.676005258329649
 21
0.0
 31
6.85384295446723
  0
LINE
  5
10F
330
70
100
AcDbEntity
  8
leaf v25_Sketch6
100
AcDbLine
 10
1.676005258329649
 20
0.0
 30
6.85384295446723
 11
2.652310504944029
 21
0.0
 31
6.142380403425847
  0
LINE
  5
110
330
70
100
AcDbEntity
  8
leaf v25_Sketch6
100
AcDbLine
 10
2.652310504944029
 20
0.0
 30
6.142380403425847
 11
3.62861575155841
 21
0.0
 31
10.39550962113392
  0
SPLINE
  5
111
330
70
100
AcDbEntity
  8
leaf v25_Sketch6
100
AcDbSpline
210
0.0
220
1.0
230
0.0
 70
    12
 71
     3
 72
     8
 73
     4
 74
     0
 42
0.000000001
 43
0.0000000001
 40
0.0
 40
0.0
 40
0.0
 40
0.0
 40
1.0
 40
1.0
 40
1.0
 40
1.0
 10
-1.216635909170999
 20
0.0
 30
3.312176287800592
 41
1.0
 10
-1.157328075003684
 20
0.0
 30
5.437176287800592
 41
1.0
 10
-1.157328075003684
 20
0.0
 30
8.270509621133925
 41
1.0
 10
3.62861575155841
 20
0.0
 30
10.39550962113392
 41
1.0
  0
LINE
  5
112
330
70
100
AcDbEntity
  8
leaf v25_Sketch6
100
AcDbLine
 10
-1.216635909170999
 20
0.0
 30
3.312176287800592
 11
-1.157328075003684
 21
0.0
 31
5.437176287800592
  0
LINE
  5
113
330
70
100
AcDbEntity
  8
leaf v25_Sketch6
100
AcDbLine
 10
-1.157328075003684
 20
0.0
 30
5.437176287800592
 11
-1.157328075003684
 21
0.0
 31
8.270509621133925
  0
LINE
  5
114
330
70
100
AcDbEntity
  8
leaf v25_Sketch6
100
AcDbLine
 10
-1.157328075003684
 20
0.0
 30
8.270509621133925
 11
3.62861575155841
 21
0.0
 31
10.39550962113392
  0
LINE
  5
115
330
70
100
AcDbEntity
  8
leaf v25_Sketch6
100
AcDbLine
 10
-1.216635909170999
 20
0.0
 30
3.312176287800592
 11
3.62861575155841
 21
0.0
 31
10.39550962113392
  0
LINE
  5
116
330
70
100
AcDbEntity
  8
leaf v25_Sketch6
100
AcDbLine
 10
-1.18698199208734
 20
0.0
 30
4.374676287800592
 11
1.646351341245993
 21
0.0
 31
4.295599175577518
  0
LINE
  5
117
330
70
100
AcDbEntity
  8
leaf v25_Sketch6
100
AcDbLine
 10
1.035128576690312
 20
0.0
 30
5.476575306834793
 11
1.753833645562492
 21
0.0
 31
3.38424709832366
  0
LINE
  5
118
330
70
100
AcDbEntity
  8
leaf v25_Sketch6
100
AcDbLine
 10
0.8250236659908864
 20
0.0
 30
5.388031947400071
 11
1.035128576690312
 21
0.0
 31
5.476575306834793
  0
LINE
  5
119
330
70
100
AcDbEntity
  8
leaf v25_Sketch6
100
AcDbLine
 10
1.247347381854085
 20
0.0
 30
4.158543159724684
 11
0.8250236659908864
 21
0.0
 31
5.388031947400071
  0
LINE
  5
11A
330
70
100
AcDbEntity
  8
leaf v25_Sketch6
100
AcDbLine
 10
1.753833645562492
 20
0.0
 30
3.38424709832366
 11
1.247347381854085
 21
0.0
 31
4.158543159724684
  0
LINE
  5
11B
330
70
100
AcDbEntity
  8
leaf v25_Sketch6
100
AcDbLine
 10
-0.2371466554320496
 20
0.0
 30
3.72495517123374
 11
-1.337890344587092
 21
0.0
 31
6.336926514537617
  0
LINE
  5
11C
330
70
100
AcDbEntity
  8
leaf v25_Sketch6
100
AcDbLine
 10
-1.997279755495038
 20
0.0
 30
3.418878301180774
 11
-1.997279755495019
 21
0.0
 31
6.418878301180774
  0
LINE
  5
11D
330
70
100
AcDbEntity
  8
leaf v25_Sketch6
100
AcDbLine
 10
-2.247279755495018
 20
0.0
 30
3.418878301180774
 11
-1.997279755495038
 21
0.0
 31
3.418878301180774
  0
LINE
  5
11E
330
70
100
AcDbEntity
  8
leaf v25_Sketch6
100
AcDbLine
 10
-1.157328075003684
 20
0.0
 30
6.853842954467259
 11
1.676005258329649
 21
0.0
 31
6.85384295446723
  0
LINE
  5
11F
330
70
100
AcDbEntity
  8
leaf v25_Sketch6
100
AcDbLine
 10
2.062660457210796
 20
0.0
 30
4.651256396833111
 11
1.035615772878315
 21
0.0
 31
7.291892114640884
  0
LINE
  5
120
330
70
100
AcDbEntity
  8
leaf v25_Sketch6
100
AcDbLine
 10
1.235643838277362
 20
0.0
 30
9.333009621133925
 11
2.652310504944029
 21
0.0
 31
6.142380403425847
  0
LINE
  5
121
330
70
100
AcDbEntity
  8
leaf v25_Sketch6
100
AcDbLine
 10
3.505797033836551
 20
0.0
 30
7.780144180066633
 11
0.0186431124134803
 21
0.0
 31
7.943902470362442
  0
POINT
  5
123
330
70
100
AcDbEntity
  8
leaf v25_Sketch7
100
AcDbPoint
 10
0.0
 20
0.0
 30
0.0
  0
LINE
  5
124
330
70
100
AcDbEntity
  8
leaf v25_Sketch7
100
AcDbLine
 10
0.072414675164258
 20
0.0
 30
-0.1839071186384482
 11
-0.1836411732592465
 21
0.0
 31
-11.85313694154433
  0
LINE
  5
125
330
70
100
AcDbEntity
  8
leaf v25_Sketch7
100
AcDbLine
 10
-1.475603706644829
 20
0.0
 30
-10.68052753989163
 11
-1.456769741672515
 21
0.0
 31
-9.380663977142281
  0
LINE
  5
126
330
70
100
AcDbEntity
  8
leaf v25_Sketch7
100
AcDbLine
 10
-1.456769741672515
 20
0.0
 30
-9.380663977142281
 11
-1.228793670667245
 21
0.0
 31
-9.383967164845117
  0
LINE
  5
127
330
70
100
AcDbEntity
  8
leaf v25_Sketch7
100
AcDbLine
 10
-1.247627635639559
 20
0.0
 30
-10.68383072759446
 11
-1.475603706644829
 21
0.0
 31
-10.68052753989163
  0
LINE
  5
128
330
70
100
AcDbEntity
  8
leaf v25_Sketch7
100
AcDbLine
 10
-1.228793670667245
 20
0.0
 30
-9.383967164845117
 11
-1.247627635639559
 21
0.0
 31
-10.68383072759446
  0
LINE
  5
129
330
70
100
AcDbEntity
  8
leaf v25_Sketch7
100
AcDbLine
 10
1.158513787366175
 20
0.0
 30
-10.73832751469821
 11
1.196715849923055
 21
0.0
 31
-9.438888942692434
  0
LINE
  5
12A
330
70
100
AcDbEntity
  8
leaf v25_Sketch7
100
AcDbLine
 10
1.196715849923055
 20
0.0
 30
-9.438888942692434
 11
0.9688143157558892
 21
0.0
 31
-9.432188888643999
  0
LINE
  5
12B
330
70
100
AcDbEntity
  8
leaf v25_Sketch7
100
AcDbLine
 10
0.93061225319901
 20
0.0
 30
-10.73162746064977
 11
1.158513787366175
 21
0.0
 31
-10.73832751469821
  0
LINE
  5
12C
330
70
100
AcDbEntity
  8
leaf v25_Sketch7
100
AcDbLine
 10
0.9688143157558892
 20
0.0
 30
-9.432188888643999
 11
0.93061225319901
 21
0.0
 31
-10.73162746064977
  0
LINE
  5
12D
330
70
100
AcDbEntity
  8
leaf v25_Sketch7
100
AcDbLine
 10
2.708232459483951
 20
0.0
 30
-2.771807529543129
 11
2.652604865818055
 21
0.0
 31
-1.472998239915531
  0
LINE
  5
12E
330
70
100
AcDbEntity
  8
leaf v25_Sketch7
100
AcDbLine
 10
2.652604865818055
 20
0.0
 30
-1.472998239915531
 11
2.424813698098753
 21
0.0
 31
-1.482754464035396
  0
LINE
  5
12F
330
70
100
AcDbEntity
  8
leaf v25_Sketch7
100
AcDbLine
 10
2.480441291764649
 20
0.0
 30
-2.781563753662992
 11
2.708232459483951
 21
0.0
 31
-2.771807529543129
  0
LINE
  5
130
330
70
100
AcDbEntity
  8
leaf v25_Sketch7
100
AcDbLine
 10
2.424813698098753
 20
0.0
 30
-1.482754464035396
 11
2.480441291764649
 21
0.0
 31
-2.781563753662992
  0
LINE
  5
131
330
70
100
AcDbEntity
  8
leaf v25_Sketch7
100
AcDbLine
 10
-2.334693460257771
 20
0.0
 30
-1.378317439312608
 11
-2.447239166151096
 21
0.0
 31
-2.673436531938832
  0
LINE
  5
132
330
70
100
AcDbEntity
  8
leaf v25_Sketch7
100
AcDbLine
 10
-2.447239166151096
 20
0.0
 30
-2.673436531938832
 11
-2.674383130088619
 21
0.0
 31
-2.653697746597541
  0
LINE
  5
133
330
70
100
AcDbEntity
  8
leaf v25_Sketch7
100
AcDbLine
 10
-2.561837424195294
 20
0.0
 30
-1.358578653971317
 11
-2.334693460257771
 21
0.0
 31
-1.378317439312608
  0
LINE
  5
134
330
70
100
AcDbEntity
  8
leaf v25_Sketch7
100
AcDbLine
 10
-2.674383130088619
 20
0.0
 30
-2.653697746597541
 11
-2.561837424195294
 21
0.0
 31
-1.358578653971317
  0
SPLINE
  5
135
330
70
100
AcDbEntity
  8
leaf v25_Sketch7
100
AcDbSpline
210
0.0
220
1.0
230
0.0
 70
    12
 71
     4
 72
    10
 73
     5
 74
     0
 42
0.000000001
 43
0.0000000001
 40
0.0
 40
0.0
 40
0.0
 40
0.0
 40
0.0
 40
1.0
 40
1.0
 40
1.0
 40
1.0
 40
1.0
 10
0.072414675164258
 20
0.0
 30
-0.1839071186384482
 41
1.0
 10
-4.7418015956798
 20
0.0
 30
-2.572727759986769
 41
1.0
 10
-4.350522436829438
 20
0.0
 30
-6.116352089635396
 41
1.0
 10
-2.311614098019871
 20
0.0
 30
-9.514524513644595
 41
1.0
 10
-0.1836411732592465
 20
0.0
 30
-11.85313694154433
 41
1.0
  0
LINE
  5
136
330
70
100
AcDbEntity
  8
leaf v25_Sketch7
100
AcDbLine
 10
0.072414675164258
 20
0.0
 30
-0.1839071186384482
 11
-4.7418015956798
 21
0.0
 31
-2.572727759986769
  0
LINE
  5
137
330
70
100
AcDbEntity
  8
leaf v25_Sketch7
100
AcDbLine
 10
-4.7418015956798
 20
0.0
 30
-2.572727759986769
 11
-4.350522436829438
 21
0.0
 31
-6.116352089635396
  0
LINE
  5
138
330
70
100
AcDbEntity
  8
leaf v25_Sketch7
100
AcDbLine
 10
-4.350522436829438
 20
0.0
 30
-6.116352089635396
 11
-2.311614098019871
 21
0.0
 31
-9.514524513644595
  0
LINE
  5
139
330
70
100
AcDbEntity
  8
leaf v25_Sketch7
100
AcDbLine
 10
-2.311614098019871
 20
0.0
 30
-9.514524513644595
 11
-0.1836411732592467
 21
0.0
 31
-11.85313694154433
  0
SPLINE
  5
13A
330
70
100
AcDbEntity
  8
leaf v25_Sketch7
100
AcDbSpline
210
0.0
220
1.0
230
0.0
 70
    12
 71
     4
 72
    10
 73
     5
 74
     0
 42
0.000000001
 43
0.0000000001
 40
0.0
 40
0.0
 40
0.0
 40
0.0
 40
0.0
 40
1.0
 40
1.0
 40
1.0
 40
1.0
 40
1.0
 10
0.072414675164258
 20
0.0
 30
-0.1839071186384482
 41
1.0
 10
4.777212721033247
 20
0.0
 30
-2.781601809432346
 41
1.0
 10
4.230870769782883
 20
0.0
 30
-6.30465208470976
 41
1.0
 10
2.044865679657263
 20
0.0
 30
-9.610117979755209
 41
1.0
 10
-0.1836411732592465
 20
0.0
 30
-11.85313694154433
 41
1.0
  0
LINE
  5
13B
330
70
100
AcDbEntity
  8
leaf v25_Sketch7
100
AcDbLine
 10
0.072414675164258
 20
0.0
 30
-0.1839071186384482
 11
4.777212721033247
 21
0.0
 31
-2.781601809432346
  0
LINE
  5
13C
330
70
100
AcDbEntity
  8
leaf v25_Sketch7
100
AcDbLine
 10
4.777212721033247
 20
0.0
 30
-2.781601809432346
 11
4.230870769782883
 21
0.0
 31
-6.30465208470976
  0
LINE
  5
13D
330
70
100
AcDbEntity
  8
leaf v25_Sketch7
100
AcDbLine
 10
4.230870769782883
 20
0.0
 30
-6.30465208470976
 11
2.044865679657263
 21
0.0
 31
-9.610117979755209
  0
LINE
  5
13E
330
70
100
AcDbEntity
  8
leaf v25_Sketch7
100
AcDbLine
 10
2.044865679657263
 20
0.0
 30
-9.610117979755209
 11
-0.1836411732592467
 21
0.0
 31
-11.85313694154433
  0
POINT
  5
140
330
70
100
AcDbEntity
  8
leaf v25_Sketch8
100
AcDbPoint
 10
0.0
 20
0.0
 30
0.0
  0
LINE
  5
141
330
70
100
AcDbEntity
  8
leaf v25_Sketch8
100
AcDbLine
 10
-0.6620977404249447
 20
0.0
 30
-1.900518526113661
 11
-1.322992960812737
 21
0.0
 31
-0.7810465489438123
  0
LINE
  5
142
330
70
100
AcDbEntity
  8
leaf v25_Sketch8
100
AcDbLine
 10
-1.322992960812737
 20
0.0
 30
-0.7810465489438123
 11
-1.126654798662946
 21
0.0
 31
-0.6651356949065717
  0
LINE
  5
143
330
70
100
AcDbEntity
  8
leaf v25_Sketch8
100
AcDbLine
 10
-1.126654798662946
 20
0.0
 30
-0.6651356949065717
 11
-0.4657595782751769
 21
0.0
 31
-1.784607672076432
  0
LINE
  5
144
330
70
100
AcDbEntity
  8
leaf v25_Sketch8
100
AcDbLine
 10
-0.4657595782751769
 20
0.0
 30
-1.784607672076432
 11
-0.6620977404249447
 21
0.0
 31
-1.900518526113661
  0
LINE
  5
145
330
70
100
AcDbEntity
  8
leaf v25_Sketch8
100
AcDbLine
 10
-2.832506922661974
 20
0.0
 30
-0.6604798735798059
 11
-3.499503052402689
 21
0.0
 31
-1.776327606431785
  0
LINE
  5
146
330
70
100
AcDbEntity
  8
leaf v25_Sketch8
100
AcDbLine
 10
-3.499503052402689
 20
0.0
 30
-1.776327606431785
 11
-3.30380052694868
 21
0.0
 31
-1.893308466109374
  0
LINE
  5
147
330
70
100
AcDbEntity
  8
leaf v25_Sketch8
100
AcDbLine
 10
-2.636804397207935
 20
0.0
 30
-0.77746073325741
 11
-2.832506922661974
 21
0.0
 31
-0.6604798735798059
  0
LINE
  5
148
330
70
100
AcDbEntity
  8
leaf v25_Sketch8
100
AcDbLine
 10
-3.30380052694868
 20
0.0
 30
-1.893308466109374
 11
-2.636804397207935
 21
0.0
 31
-0.77746073325741
  0
LINE
  5
149
330
70
100
AcDbEntity
  8
leaf v25_Sketch8
100
AcDbLine
 10
-1.985090701237681
 20
0.0
 30
-2.681565075057473
 11
-1.965757997110542
 21
0.0
 31
4.401768258275859
  0
SPLINE
  5
14A
330
70
100
AcDbEntity
  8
leaf v25_Sketch8
100
AcDbSpline
210
0.0
220
1.0
230
0.0
 70
    12
 71
     4
 72
    10
 73
     5
 74
     0
 42
0.000000001
 43
0.0000000001
 40
0.0
 40
0.0
 40
0.0
 40
0.0
 40
0.0
 40
1.0
 40
1.0
 40
1.0
 40
1.0
 40
1.0
 10
-1.985090701237683
 20
0.0
 30
-2.681565075057516
 41
1.0
 10
0.6608952203878058
 20
0.0
 30
-1.119471977169827
 41
1.0
 10
0.0052597722352332
 20
0.0
 30
1.711123908234222
 41
1.0
 10
-0.7461050942153094
 20
0.0
 30
3.07658323991395
 41
1.0
 10
-1.965757997110543
 20
0.0
 30
4.401768258275859
 41
1.0
  0
LINE
  5
14B
330
70
100
AcDbEntity
  8
leaf v25_Sketch8
100
AcDbLine
 10
-1.985090701237681
 20
0.0
 30
-2.681565075057473
 11
0.6608952203877916
 21
0.0
 31
-1.119471977169849
  0
LINE
  5
14C
330
70
100
AcDbEntity
  8
leaf v25_Sketch8
100
AcDbLine
 10
0.6608952203877916
 20
0.0
 30
-1.119471977169849
 11
0.0052597722352332
 21
0.0
 31
1.711123908234222
  0
LINE
  5
14D
330
70
100
AcDbEntity
  8
leaf v25_Sketch8
100
AcDbLine
 10
0.0052597722352332
 20
0.0
 30
1.711123908234222
 11
-0.7461050942153083
 21
0.0
 31
3.076583239913948
  0
LINE
  5
14E
330
70
100
AcDbEntity
  8
leaf v25_Sketch8
100
AcDbLine
 10
-0.7461050942153083
 20
0.0
 30
3.076583239913948
 11
-1.965757997110542
 21
0.0
 31
4.401768258275859
  0
SPLINE
  5
14F
330
70
100
AcDbEntity
  8
leaf v25_Sketch8
100
AcDbSpline
210
0.0
220
1.0
230
0.0
 70
    12
 71
     4
 72
    10
 73
     5
 74
     0
 42
0.000000001
 43
0.0000000001
 40
0.0
 40
0.0
 40
0.0
 40
0.0
 40
0.0
 40
1.0
 40
1.0
 40
1.0
 40
1.0
 40
1.0
 10
-1.985090701237683
 20
0.0
 30
-2.681565075057516
 41
1.0
 10
-4.622510352659697
 20
0.0
 30
-1.105051857161245
 41
1.0
 10
-3.951433566913912
 20
0.0
 30
1.721923002113877
 41
1.0
 10
-3.192626391099359
 20
0.0
 30
3.083260586601959
 41
1.0
 10
-1.965757997110542
 20
0.0
 30
4.401768258275859
 41
1.0
  0
LINE
  5
150
330
70
100
AcDbEntity
  8
leaf v25_Sketch8
100
AcDbLine
 10
-1.985090701237681
 20
0.0
 30
-2.681565075057473
 11
-4.622510352659672
 21
0.0
 31
-1.105051857161273
  0
LINE
  5
151
330
70
100
AcDbEntity
  8
leaf v25_Sketch8
100
AcDbLine
 10
-4.622510352659672
 20
0.0
 30
-1.105051857161273
 11
-3.951433566913912
 21
0.0
 31
1.721923002113877
  0
LINE
  5
152
330
70
100
AcDbEntity
  8
leaf v25_Sketch8
100
AcDbLine
 10
-3.951433566913912
 20
0.0
 30
1.721923002113877
 11
-3.192626391099359
 21
0.0
 31
3.083260586601959
  0
LINE
  5
153
330
70
100
AcDbEntity
  8
leaf v25_Sketch8
100
AcDbLine
 10
-3.192626391099359
 20
0.0
 30
3.083260586601959
 11
-1.965757997110542
 21
0.0
 31
4.401768258275859
  0
ENDSEC
  0
SECTION
  2
OBJECTS
  0
DICTIONARY
  5
C
330
0
100
AcDbDictionary
281
     1
  3
ACAD_COLOR
350
63
  3
ACAD_DETAILVIEWSTYLE
350
6A
  3
ACAD_GROUP
350
D
  3
ACAD_LAYOUT
350
62
  3
ACAD_MATERIAL
350
10
  3
ACAD_MLEADERSTYLE
350
66
  3
ACAD_MLINESTYLE
350
5F
  3
ACAD_PLOTSETTINGS
350
61
  3
ACAD_PLOTSTYLENAME
350
E
  3
ACAD_SCALELIST
350
42
  3
ACAD_SECTIONVIEWSTYLE
350
68
  3
ACAD_TABLESTYLE
350
64
  3
ACAD_VISUALSTYLE
350
29
  3
ACDB_RECOMPOSE_DATA
350
15C
  3
AcDbVariableDictionary
350
154
  0
DICTIONARY
  5
63
102
{ACAD_REACTORS
330
C
102
}
330
C
100
AcDbDictionary
281
     1
  0
DICTIONARY
  5
6A
102
{ACAD_REACTORS
330
C
102
}
330
C
100
AcDbDictionary
281
     1
  3
Imperial24
350
6B
  0
DICTIONARY
  5
D
102
{ACAD_REACTORS
330
C
102
}
330
C
100
AcDbDictionary
281
     1
  0
DICTIONARY
  5
62
102
{ACAD_REACTORS
330
C
102
}
330
C
100
AcDbDictionary
281
     1
  3
Layout1
350
6F
  3
Layout2
350
77
  3
Model
350
73
  0
DICTIONARY
  5
10
102
{ACAD_REACTORS
330
C
102
}
330
C
100
AcDbDictionary
281
     1
  3
ByBlock
350
19
  3
ByLayer
350
11
  3
Global
350
21
  0
DICTIONARY
  5
66
102
{ACAD_REACTORS
330
C
102
}
330
C
100
AcDbDictionary
281
     1
  3
Standard
350
67
  0
DICTIONARY
  5
5F
102
{ACAD_REACTORS
330
C
102
}
330
C
100
AcDbDictionary
281
     1
  3
Standard
350
60
  0
DICTIONARY
  5
61
102
{ACAD_REACTORS
330
C
102
}
330
C
100
AcDbDictionary
281
     1
  0
ACDBDICTIONARYWDFLT
  5
E
102
{ACAD_REACTORS
330
C
102
}
330
C
100
AcDbDictionary
281
     1
  3
Normal
350
F
100
AcDbDictionaryWithDefault
340
F
  0
DICTIONARY
  5
42
102
{ACAD_REACTORS
330
C
102
}
330
C
100
AcDbDictionary
281
     1
  3
A0
350
43
  3
A1
350
44
  3
A2
350
45
  3
A3
350
46
  3
A4
350
47
  3
A5
350
48
  3
A6
350
49
  3
A7
350
4A
  3
A8
350
4B
  3
A9
350
4C
  3
B0
350
4D
  3
B1
350
4E
  3
B2
350
4F
  3
B3
350
50
  3
B4
350
51
  3
B5
350
52
  3
B6
350
53
  0
DICTIONARY
  5
68
102
{ACAD_REACTORS
330
C
102
}
330
C
100
AcDbDictionary
281
     1
  3
Imperial24
350
69
  0
DICTIONARY
  5
64
102
{ACAD_REACTORS
330
C
102
}
330
C
100
AcDbDictionary
281
     1
  3
Standard
350
65
  0
DICTIONARY
  5
29
102
{ACAD_REACTORS
330
C
102
}
330
C
100
AcDbDictionary
281
     1
  3
2dWireframe
350
2F
  3
Basic
350
2E
  3
Brighten
350
35
  3
ColorChange
350
39
  3
Conceptual
350
32
  3
Dim
350
34
  3
EdgeColorOff
350
41
  3
Facepattern
350
38
  3
Flat
350
2A
  3
FlatWithEdges
350
2B
  3
Gouraud
350
2C
  3
GouraudWithEdges
350
2D
  3
Hidden
350
31
  3
JitterOff
350
3F
  3
Linepattern
350
37
  3
OverhangOff
350
40
  3
Realistic
350
33
  3
Shaded
350
3E
  3
Shaded with edges
350
3D
  3
Shades of Gray
350
3A
  3
Sketchy
350
3B
  3
Thicken
350
36
  3
Wireframe
350
30
  3
X-Ray
350
3C
  0
XRECORD
  5
15C
102
{ACAD_REACTORS
330
C
102
}
330
C
100
AcDbXrecord
280
     1
 90
        1
330
65
  0
DICTIONARY
  5
154
102
{ACAD_REACTORS
330
C
102
}
330
C
100
AcDbDictionary
281
     1
  3
CANNOSCALE
350
159
  3
CMLEADERSTYLE
350
156
  3
CTABLESTYLE
350
155
  3
CVIEWDETAILSTYLE
350
157
  3
CVIEWSECTIONSTYLE
350
158
  0
ACDBDETAILVIEWSTYLE
  5
6B
102
{ACAD_XDICTIONARY
360
15F
102
}
102
{ACAD_REACTORS
330
6A
102
}
330
6A
100
AcDbModelDocViewStyle
 70
     0
  3
Imperial24
290
     0
100
AcDbDetailViewStyle
 70
     0
 71
     0
 90
        3
 71
     1
340
55
 62
   256
 40
0.24
340
0
 62
   256
 40
0.24
300

 40
0.36
280
     3
 71
     2
340
5D
 90
       25
 62
   256
 71
     3
340
55
 62
   256
 40
0.24
 90
        1
 40
0.75
 90
        1
300
%<\AcVar ViewType \f "%tc1">% %<\AcVar ViewDetailId>%\PSCALE %<\AcVar ViewScale \f "%sn">%
 71
     4
340
5D
 90
       25
 62
   256
340
5D
 90
       25
 62
   256
280
     0
  0
LAYOUT
  5
6F
102
{ACAD_REACTORS
330
62
102
}
330
62
100
AcDbPlotSettings
  1

  2

  4

  6

 40
0.0
 41
0.0
 42
0.0
 43
0.0
 44
0.0
 45
0.0
 46
0.0
 47
0.0
 48
0.0
 49
0.0
140
0.0
141
0.0
142
1.0
143
1.0
 70
   688
 72
     0
 73
     0
 74
     5
  7

 75
    16
147
1.0
 76
     0
 77
     2
 78
   300
148
0.0
149
0.0
100
AcDbLayout
  1
Layout1
 70
     1
 71
     1
 10
0.0
 20
0.0
 11
12.0
 21
9.0
 12
0.0
 22
0.0
 32
0.0
 14
0.0
 24
0.0
 34
0.0
 15
0.0
 25
0.0
 35
0.0
146
0.0
 13
0.0
 23
0.0
 33
0.0
 16
1.0
 26
0.0
 36
0.0
 17
0.0
 27
1.0
 37
0.0
 76
     0
330
6C
  0
LAYOUT
  5
77
102
{ACAD_REACTORS
330
62
102
}
330
62
100
AcDbPlotSettings
  1

  2

  4

  6

 40
0.0
 41
0.0
 42
0.0
 43
0.0
 44
0.0
 45
0.0
 46
0.0
 47
0.0
 48
0.0
 49
0.0
140
0.0
141
0.0
142
1.0
143
1.0
 70
   688
 72
     0
 73
     0
 74
     5
  7

 75
    16
147
1.0
 76
     0
 77
     2
 78
   300
148
0.0
149
0.0
100
AcDbLayout
  1
Layout2
 70
     1
 71
     2
 10
0.0
 20
0.0
 11
12.0
 21
9.0
 12
0.0
 22
0.0
 32
0.0
 14
0.0
 24
0.0
 34
0.0
 15
0.0
 25
0.0
 35
0.0
146
0.0
 13
0.0
 23
0.0
 33
0.0
 16
1.0
 26
0.0
 36
0.0
 17
0.0
 27
1.0
 37
0.0
 76
     0
330
74
  0
LAYOUT
  5
73
102
{ACAD_REACTORS
330
62
102
}
330
62
100
AcDbPlotSettings
  1

  2

  4

  6

 40
0.0
 41
0.0
 42
0.0
 43
0.0
 44
0.0
 45
0.0
 46
0.0
 47
0.0
 48
0.0
 49
0.0
140
0.0
141
0.0
142
1.0
143
1.0
 70
  1712
 72
     0
 73
     0
 74
     0
  7

 75
     0
147
1.0
 76
     0
 77
     2
 78
   300
148
0.0
149
0.0
100
AcDbLayout
  1
Model
 70
     1
 71
     0
 10
0.0
 20
0.0
 11
12.0
 21
9.0
 12
0.0
 22
0.0
 32
0.0
 14
0.0
 24
0.0
 34
0.0
 15
0.0
 25
0.0
 35
0.0
146
0.0
 13
0.0
 23
0.0
 33
0.0
 16
1.0
 26
0.0
 36
0.0
 17
0.0
 27
1.0
 37
0.0
 76
     0
330
70
  0
MATERIAL
  5
19
102
{ACAD_XDICTIONARY
360
1A
102
}
102
{ACAD_REACTORS
330
10
102
}
330
10
100
AcDbMaterial
  1
ByBlock
 72
     0
 43
0.0208333333333333
 43
0.0
 43
0.0
 43
0.0
 43
0.0
 43
0.0208333333333333
 43
0.0
 43
0.0
 43
0.0
 43
0.0
 43
1.0
 43
0.0
 43
0.0
 43
0.0
 43
0.0
 43
1.0
 77
     0
 47
0.0208333333333333
 47
0.0
 47
0.0
 47
0.0
 47
0.0
 47
0.0208333333333333
 47
0.0
 47
0.0
 47
0.0
 47
0.0
 47
1.0
 47
0.0
 47
0.0
 47
0.0
 47
0.0
 47
1.0
171
     0
 49
0.0208333333333333
 49
0.0
 49
0.0
 49
0.0
 49
0.0
 49
0.0208333333333333
 49
0.0
 49
0.0
 49
0.0
 49
0.0
 49
1.0
 49
0.0
 49
0.0
 49
0.0
 49
0.0
 49
1.0
175
     0
142
0.0208333333333333
142
0.0
142
0.0
142
0.0
142
0.0
142
0.0208333333333333
142
0.0
142
0.0
142
0.0
142
0.0
142
1.0
142
0.0
142
0.0
142
0.0
142
0.0
142
1.0
179
     0
144
0.0208333333333333
144
0.0
144
0.0
144
0.0
144
0.0
144
0.0208333333333333
144
0.0
144
0.0
144
0.0
144
0.0
144
1.0
144
0.0
144
0.0
144
0.0
144
0.0
144
1.0
147
0.0208333333333333
147
0.0
147
0.0
147
0.0
147
0.0
147
0.0208333333333333
147
0.0
147
0.0
147
0.0
147
0.0
147
1.0
147
0.0
147
0.0
147
0.0
147
0.0
147
1.0
  0
MATERIAL
  5
11
102
{ACAD_XDICTIONARY
360
12
102
}
102
{ACAD_REACTORS
330
10
102
}
330
10
100
AcDbMaterial
  1
ByLayer
 72
     0
 43
0.0208333333333333
 43
0.0
 43
0.0
 43
0.0
 43
0.0
 43
0.0208333333333333
 43
0.0
 43
0.0
 43
0.0
 43
0.0
 43
1.0
 43
0.0
 43
0.0
 43
0.0
 43
0.0
 43
1.0
 77
     0
 47
0.0208333333333333
 47
0.0
 47
0.0
 47
0.0
 47
0.0
 47
0.0208333333333333
 47
0.0
 47
0.0
 47
0.0
 47
0.0
 47
1.0
 47
0.0
 47
0.0
 47
0.0
 47
0.0
 47
1.0
171
     0
 49
0.0208333333333333
 49
0.0
 49
0.0
 49
0.0
 49
0.0
 49
0.0208333333333333
 49
0.0
 49
0.0
 49
0.0
 49
0.0
 49
1.0
 49
0.0
 49
0.0
 49
0.0
 49
0.0
 49
1.0
175
     0
142
0.0208333333333333
142
0.0
142
0.0
142
0.0
142
0.0
142
0.0208333333333333
142
0.0
142
0.0
142
0.0
142
0.0
142
1.0
142
0.0
142
0.0
142
0.0
142
0.0
142
1.0
179
     0
144
0.0208333333333333
144
0.0
144
0.0
144
0.0
144
0.0
144
0.0208333333333333
144
0.0
144
0.0
144
0.0
144
0.0
144
1.0
144
0.0
144
0.0
144
0.0
144
0.0
144
1.0
147
0.0208333333333333
147
0.0
147
0.0
147
0.0
147
0.0
147
0.0208333333333333
147
0.0
147
0.0
147
0.0
147
0.0
147
1.0
147
0.0
147
0.0
147
0.0
147
0.0
147
1.0
  0
MATERIAL
  5
21
102
{ACAD_XDICTIONARY
360
22
102
}
102
{ACAD_REACTORS
330
10
102
}
330
10
100
AcDbMaterial
  1
Global
 72
     0
 43
0.0208333333333333
 43
0.0
 43
0.0
 43
0.0
 43
0.0
 43
0.0208333333333333
 43
0.0
 43
0.0
 43
0.0
 43
0.0
 43
1.0
 43
0.0
 43
0.0
 43
0.0
 43
0.0
 43
1.0
 77
     0
 47
0.0208333333333333
 47
0.0
 47
0.0
 47
0.0
 47
0.0
 47
0.0208333333333333
 47
0.0
 47
0.0
 47
0.0
 47
0.0
 47
1.0
 47
0.0
 47
0.0
 47
0.0
 47
0.0
 47
1.0
171
     0
 49
0.0208333333333333
 49
0.0
 49
0.0
 49
0.0
 49
0.0
 49
0.0208333333333333
 49
0.0
 49
0.0
 49
0.0
 49
0.0
 49
1.0
 49
0.0
 49
0.0
 49
0.0
 49
0.0
 49
1.0
175
     0
142
0.0208333333333333
142
0.0
142
0.0
142
0.0
142
0.0
142
0.0208333333333333
142
0.0
142
0.0
142
0.0
142
0.0
142
1.0
142
0.0
142
0.0
142
0.0
142
0.0
142
1.0
179
     0
144
0.0208333333333333
144
0.0
144
0.0
144
0.0
144
0.0
144
0.0208333333333333
144
0.0
144
0.0
144
0.0
144
0.0
144
1.0
144
0.0
144
0.0
144
0.0
144
0.0
144
1.0
147
0.0208333333333333
147
0.0
147
0.0
147
0.0
147
0.0
147
0.0208333333333333
147
0.0
147
0.0
147
0.0
147
0.0
147
1.0
147
0.0
147
0.0
147
0.0
147
0.0
147
1.0
  0
MLEADERSTYLE
  5
67
102
{ACAD_REACTORS
330
66
102
}
330
66
100
AcDbMLeaderStyle
179
     2
170
     2
171
     1
172
     0
 90
        2
 40
0.0
 41
0.0
173
     1
 91
-1056964608
340
5B
 92
       -2
290
     1
 42
0.09
291
     1
 43
0.36
  3
Standard
 44
0.18
300

342
55
174
     1
178
     6
175
     1
176
     0
 93
-1056964608
 45
0.18
292
     0
297
     0
 46
0.18
 94
-1056964608
 47
1.0
 49
1.0
140
1.0
293
     1
141
0.0
294
     1
177
     0
142
1.0
295
     0
296
     0
143
0.125
271
     0
272
     9
273
     9
298
     1
  0
MLINESTYLE
  5
60
102
{ACAD_REACTORS
330
5F
102
}
330
5F
100
AcDbMlineStyle
  2
STANDARD
 70
     0
  3

 62
   256
 51
90.0
 52
90.0
 71
     2
 49
0.5
 62
   256
  6
BYLAYER
 49
-0.5
 62
   256
  6
BYLAYER
  0
ACDBPLACEHOLDER
  5
F
102
{ACAD_REACTORS
330
E
102
}
330
E
  0
SCALE
  5
43
102
{ACAD_REACTORS
330
42
102
}
330
42
100
AcDbScale
 70
     0
300
1:1
140
1.0
141
1.0
290
     1
  0
SCALE
  5
44
102
{ACAD_REACTORS
330
42
102
}
330
42
100
AcDbScale
 70
     0
300
1/128" = 1'-0"
140
0.0078125
141
12.0
290
     0
  0
SCALE
  5
45
102
{ACAD_REACTORS
330
42
102
}
330
42
100
AcDbScale
 70
     0
300
1/64" = 1'-0"
140
0.015625
141
12.0
290
     0
  0
SCALE
  5
46
102
{ACAD_REACTORS
330
42
102
}
330
42
100
AcDbScale
 70
     0
300
1/32" = 1'-0"
140
0.03125
141
12.0
290
     0
  0
SCALE
  5
47
102
{ACAD_REACTORS
330
42
102
}
330
42
100
AcDbScale
 70
     0
300
1/16" = 1'-0"
140
0.0625
141
12.0
290
     0
  0
SCALE
  5
48
102
{ACAD_REACTORS
330
42
102
}
330
42
100
AcDbScale
 70
     0
300
3/32" = 1'-0"
140
0.09375
141
12.0
290
     0
  0
SCALE
  5
49
102
{ACAD_REACTORS
330
42
102
}
330
42
100
AcDbScale
 70
     0
300
1/8" = 1'-0"
140
0.125
141
12.0
290
     0
  0
SCALE
  5
4A
102
{ACAD_REACTORS
330
42
102
}
330
42
100
AcDbScale
 70
     0
300
3/16" = 1'-0"
140
0.1875
141
12.0
290
     0
  0
SCALE
  5
4B
102
{ACAD_REACTORS
330
42
102
}
330
42
100
AcDbScale
 70
     0
300
1/4" = 1'-0"
140
0.25
141
12.0
290
     0
  0
SCALE
  5
4C
102
{ACAD_REACTORS
330
42
102
}
330
42
100
AcDbScale
 70
     0
300
3/8" = 1'-0"
140
0.375
141
12.0
290
     0
  0
SCALE
  5
4D
102
{ACAD_REACTORS
330
42
102
}
330
42
100
AcDbScale
 70
     0
300
1/2" = 1'-0"
140
0.5
141
12.0
290
     0
  0
SCALE
  5
4E
102
{ACAD_REACTORS
330
42
102
}
330
42
100
AcDbScale
 70
     0
300
3/4" = 1'-0"
140
0.75
141
12.0
290
     0
  0
SCALE
  5
4F
102
{ACAD_REACTORS
330
42
102
}
330
42
100
AcDbScale
 70
     0
300
1" = 1'-0"
140
1.0
141
12.0
290
     0
  0
SCALE
  5
50
102
{ACAD_REACTORS
330
42
102
}
330
42
100
AcDbScale
 70
     0
300
1-1/2" = 1'-0"
140
1.5
141
12.0
290
     0
  0
SCALE
  5
51
102
{ACAD_REACTORS
330
42
102
}
330
42
100
AcDbScale
 70
     0
300
3" = 1'-0"
140
3.0
141
12.0
290
     0
  0
SCALE
  5
52
102
{ACAD_REACTORS
330
42
102
}
330
42
100
AcDbScale
 70
     0
300
6" = 1'-0"
140
6.0
141
12.0
290
     0
  0
SCALE
  5
53
102
{ACAD_REACTORS
330
42
102
}
330
42
100
AcDbScale
 70
     0
300
1'-0" = 1'-0"
140
12.0
141
12.0
290
     0
  0
ACDBSECTIONVIEWSTYLE
  5
69
102
{ACAD_XDICTIONARY
360
15D
102
}
102
{ACAD_REACTORS
330
68
102
}
330
68
100
AcDbModelDocViewStyle
 70
     0
  3
Imperial24
290
     0
100
AcDbSectionViewStyle
 70
     0
 71
     0
 90
       78
 71
     1
340
55
 62
   256
 40
0.24
340
0
340
0
 62
   256
 40
0.24
300
I, O, Q, S, X, Z
 40
0.48
 90
        3
 40
0.18
 90
        1
 71
     2
340
5D
 90
       25
 62
   256
340
5D
 90
       50
 62
   256
 40
0.24
 40
0.0
 40
0.24
 71
     3
340
55
 62
   256
 40
0.24
 90
        1
 40
0.75
 90
        1
300
%<\AcVar ViewType \f "%tc1">% %<\AcVar ViewSectionStartId>%-%<\AcVar ViewSectionEndId>%\PSCALE %<\AcVar ViewScale \f "%sn">%
 71
     4
 62
   256
 62
   257
300
ANSI31
 40
1.0
 90
        0
290
     0
290
     0
 90
        6
 40
0.0
 40
1.570796326794896
 40
0.2617993877991494
 40
1.308996938995747
 40
-0.2617993877991494
 40
1.832595714594046
  0
TABLESTYLE
  5
65
102
{ACAD_XDICTIONARY
360
15A
102
}
102
{ACAD_REACTORS
330
64
102
}
330
64
100
AcDbTableStyle
280
     0
  3
Standard
 70
     0
 71
     0
 40
0.06
 41
0.06
280
     0
281
     0
  7
Standard
140
0.18
170
     2
 62
     0
 63
     7
283
     0
 90
      512
 91
        0
  1

274
    -2
284
     1
 64
     0
275
    -2
285
     1
 65
     0
276
    -2
286
     1
 66
     0
277
    -2
287
     1
 67
     0
278
    -2
288
     1
 68
     0
279
    -2
289
     1
 69
     0
  7
Standard
140
0.25
170
     5
 62
     0
 63
     7
283
     0
 90
      512
 91
        0
  1

274
    -2
284
     1
 64
     0
275
    -2
285
     1
 65
     0
276
    -2
286
     1
 66
     0
277
    -2
287
     1
 67
     0
278
    -2
288
     1
 68
     0
279
    -2
289
     1
 69
     0
  7
Standard
140
0.18
170
     5
 62
     0
 63
     7
283
     0
 90
      512
 91
        0
  1

274
    -2
284
     1
 64
     0
275
    -2
285
     1
 65
     0
276
    -2
286
     1
 66
     0
277
    -2
287
     1
 67
     0
278
    -2
288
     1
 68
     0
279
    -2
289
     1
 69
     0
  0
VISUALSTYLE
  5
2F
102
{ACAD_REACTORS
330
29
102
}
330
29
100
AcDbVisualStyle
  2
2dWireframe
 70
     4
177
     3
291
     0
 70
    58
 90
        0
176
     1
 90
        2
176
     1
 90
        0
176
     1
 90
        0
176
     1
 40
0.6
176
     1
 40
30.0
176
     1
 62
     7
420
 16777215
176
     1
 90
        1
176
     1
 90
        4
176
     1
 62
     7
176
     1
 62
   257
176
     1
 90
        1
176
     1
 90
        1
176
     1
 40
1.0
176
     1
 90
        0
176
     1
 62
   257
176
     1
 40
1.0
176
     1
 90
        1
176
     1
 90
        6
176
     1
 90
        2
176
     1
 62
     7
176
     1
 90
        5
176
     1
 90
        0
176
     1
 90
        0
176
     1
290
     0
176
     1
 90
        1
176
     1
 40
0.0
176
     1
 90
        0
176
     1
290
     1
176
     1
290
     1
176
     1
290
     0
176
     1
290
     0
176
     1
290
     0
176
     1
290
     0
176
     1
290
     0
176
     1
290
     0
176
     1
290
     0
176
     1
 90
       50
176
     1
 40
0.0
176
     1
 40
1.0
176
     1
 90
        0
176
     1
 62
    18
420
        0
176
     1
 90
       50
176
     1
 90
        3
176
     1
 62
     5
420
      255
176
     1
290
     0
176
     1
 90
       50
176
     1
 90
       50
176
     1
 90
       50
176
     1
290
     0
176
     1
 90
       50
176
     1
 62
   256
176
     0
 40
1.0
176
     0
 90
        2
176
     1
  1
strokes_ogs.tif
176
     1
290
     0
176
     1
 40
1.0
176
     1
 40
1.0
176
     1
1001
ACAD
1000
AcDbSavedByObjectVersion
1070
     0
  0
VISUALSTYLE
  5
2E
102
{ACAD_REACTORS
330
29
102
}
330
29
100
AcDbVisualStyle
  2
Basic
 70
     7
177
     3
291
     1
 70
    58
 90
        1
176
     1
 90
        0
176
     1
 90
        1
176
     1
 90
        0
176
     1
 40
0.6
176
     1
 40
30.0
176
     1
 62
     7
420
 16777215
176
     1
 90
        0
176
     1
 90
        4
176
     1
 62
     7
176
     1
 62
   257
176
     1
 90
        1
176
     1
 90
        1
176
     1
 40
1.0
176
     1
 90
        8
176
     1
 62
     7
176
     1
 40
1.0
176
     1
 90
        1
176
     1
 90
        6
176
     1
 90
        2
176
     1
 62
     7
176
     1
 90
        5
176
     1
 90
        0
176
     1
 90
        0
176
     1
290
     0
176
     1
 90
        1
176
     1
 40
0.0
176
     1
 90
        0
176
     1
290
     0
176
     1
290
     1
176
     1
290
     1
176
     1
290
     0
176
     1
290
     0
176
     1
290
     0
176
     1
290
     0
176
     1
290
     0
176
     1
290
     0
176
     1
 90
       50
176
     1
 40
0.0
176
     1
 40
1.0
176
     1
 90
        0
176
     1
 62
    18
420
        0
176
     1
 90
       50
176
     1
 90
        3
176
     1
 62
     5
420
      255
176
     1
290
     0
176
     1
 90
       50
176
     1
 90
       50
176
     1
 90
       50
176
     1
290
     0
176
     1
 90
       50
176
     1
 62
   256
176
     0
 40
1.0
176
     0
 90
        2
176
     1
  1
strokes_ogs.tif
176
     1
290
     0
176
     1
 40
1.0
176
     1
 40
1.0
176
     1
1001
ACAD
1000
AcDbSavedByObjectVersion
1070
     0
  0
VISUALSTYLE
  5
35
102
{ACAD_REACTORS
330
29
102
}
330
29
100
AcDbVisualStyle
  2
Brighten
 70
    12
177
     3
291
     1
 70
    58
 90
        2
176
     1
 90
        2
176
     1
 90
        0
176
     1
 90
        0
176
     1
 40
0.6
176
     1
 40
30.0
176
     1
 62
     7
420
 16777215
176
     1
 90
        1
176
     1
 90
        4
176
     1
 62
     7
176
     1
 62
   257
176
     1
 90
        1
176
     1
 90
        1
176
     1
 40
1.0
176
     1
 90
        8
176
     1
 62
     7
176
     1
 40
1.0
176
     1
 90
        1
176
     1
 90
        6
176
     1
 90
        2
176
     1
 62
     7
176
     1
 90
        5
176
     1
 90
        0
176
     1
 90
        0
176
     1
290
     0
176
     1
 90
        1
176
     1
 40
50.0
176
     1
 90
        0
176
     1
290
     0
176
     1
290
     1
176
     1
290
     1
176
     1
290
     0
176
     1
290
     0
176
     1
290
     0
176
     1
290
     0
176
     1
290
     0
176
     1
290
     0
176
     1
 90
       50
176
     1
 40
0.0
176
     1
 40
1.0
176
     1
 90
        0
176
     1
 62
    18
420
        0
176
     1
 90
       50
176
     1
 90
        3
176
     1
 62
     5
420
      255
176
     1
290
     0
176
     1
 90
       50
176
     1
 90
       50
176
     1
 90
       50
176
     1
290
     0
176
     1
 90
       50
176
     1
 62
   256
176
     0
 40
1.0
176
     0
 90
        2
176
     1
  1
strokes_ogs.tif
176
     1
290
     0
176
     1
 40
1.0
176
     1
 40
1.0
176
     1
1001
ACAD
1000
AcDbSavedByObjectVersion
1070
     0
  0
VISUALSTYLE
  5
39
102
{ACAD_REACTORS
330
29
102
}
330
29
100
AcDbVisualStyle
  2
ColorChange
 70
    16
177
     3
291
     1
 70
    58
 90
        2
176
     1
 90
        2
176
     1
 90
        3
176
     1
 90
        0
176
     1
 40
0.6
176
     1
 40
30.0
176
     1
 62
     8
420
  8421504
176
     1
 90
        1
176
     1
 90
        4
176
     1
 62
     7
176
     1
 62
   257
176
     1
 90
        1
176
     1
 90
        1
176
     1
 40
1.0
176
     1
 90
        8
176
     1
 62
     8
420
  8421504
176
     1
 40
1.0
176
     1
 90
        1
176
     1
 90
        6
176
     1
 90
        2
176
     1
 62
     7
176
     1
 90
        5
176
     1
 90
        0
176
     1
 90
        0
176
     1
290
     0
176
     1
 90
        1
176
     1
 40
0.0
176
     1
 90
        0
176
     1
290
     0
176
     1
290
     1
176
     1
290
     1
176
     1
290
     0
176
     1
290
     0
176
     1
290
     0
176
     1
290
     0
176
     1
290
     0
176
     1
290
     0
176
     1
 90
       50
176
     1
 40
0.0
176
     1
 40
1.0
176
     1
 90
        0
176
     1
 62
    18
420
        0
176
     1
 90
       50
176
     1
 90
        3
176
     1
 62
     5
420
      255
176
     1
290
     0
176
     1
 90
       50
176
     1
 90
       50
176
     1
 90
       50
176
     1
290
     0
176
     1
 90
       50
176
     1
 62
   256
176
     0
 40
1.0
176
     0
 90
        2
176
     1
  1
strokes_ogs.tif
176
     1
290
     0
176
     1
 40
1.0
176
     1
 40
1.0
176
     1
1001
ACAD
1000
AcDbSavedByObjectVersion
1070
     0
  0
VISUALSTYLE
  5
32
102
{ACAD_REACTORS
330
29
102
}
330
29
100
AcDbVisualStyle
  2
Conceptual
 70
     9
177
     3
291
     0
 70
    58
 90
        3
176
     1
 90
        2
176
     1
 90
        0
176
     1
 90
        0
176
     1
 40
0.6
176
     1
 40
30.0
176
     1
 62
     7
420
 16777215
176
     1
 90
        2
176
     1
 90
        2
176
     1
 62
     7
176
     1
 62
   257
176
     1
 90
        1
176
     1
 90
        1
176
     1
 40
179.0
176
     1
 90
        8
176
     1
 62
     7
176
     1
 40
1.0
176
     1
 90
        1
176
     1
 90
        6
176
     1
 90
        2
176
     1
 62
     7
176
     1
 90
        3
176
     1
 90
        0
176
     1
 90
        0
176
     1
290
     0
176
     1
 90
        1
176
     1
 40
0.0
176
     1
 90
        0
176
     1
290
     0
176
     1
290
     1
176
     1
290
     1
176
     1
290
     0
176
     1
290
     0
176
     1
290
     0
176
     1
290
     0
176
     1
290
     0
176
     1
290
     0
176
     1
 90
       50
176
     1
 40
0.0
176
     1
 40
1.0
176
     1
 90
        0
176
     1
 62
    18
420
        0
176
     1
 90
       50
176
     1
 90
        3
176
     1
 62
     5
420
      255
176
     1
290
     0
176
     1
 90
       50
176
     1
 90
       50
176
     1
 90
       50
176
     1
290
     0
176
     1
 90
       50
176
     1
 62
   256
176
     0
 40
1.0
176
     0
 90
        2
176
     1
  1
strokes_ogs.tif
176
     1
290
     0
176
     1
 40
1.0
176
     1
 40
1.0
176
     1
1001
ACAD
1000
AcDbSavedByObjectVersion
1070
     0
  0
VISUALSTYLE
  5
34
102
{ACAD_REACTORS
330
29
102
}
330
29
100
AcDbVisualStyle
  2
Dim
 70
    11
177
     3
291
     1
 70
    58
 90
        2
176
     1
 90
        2
176
     1
 90
        0
176
     1
 90
        0
176
     1
 40
0.6
176
     1
 40
30.0
176
     1
 62
     7
420
 16777215
176
     1
 90
        1
176
     1
 90
        4
176
     1
 62
     7
176
     1
 62
   257
176
     1
 90
        1
176
     1
 90
        1
176
     1
 40
1.0
176
     1
 90
        8
176
     1
 62
     7
176
     1
 40
1.0
176
     1
 90
        1
176
     1
 90
        6
176
     1
 90
        2
176
     1
 62
     7
176
     1
 90
        5
176
     1
 90
        0
176
     1
 90
        0
176
     1
290
     0
176
     1
 90
        1
176
     1
 40
-50.0
176
     1
 90
        0
176
     1
290
     0
176
     1
290
     1
176
     1
290
     1
176
     1
290
     0
176
     1
290
     0
176
     1
290
     0
176
     1
290
     0
176
     1
290
     0
176
     1
290
     0
176
     1
 90
       50
176
     1
 40
0.0
176
     1
 40
1.0
176
     1
 90
        0
176
     1
 62
    18
420
        0
176
     1
 90
       50
176
     1
 90
        3
176
     1
 62
     5
420
      255
176
     1
290
     0
176
     1
 90
       50
176
     1
 90
       50
176
     1
 90
       50
176
     1
290
     0
176
     1
 90
       50
176
     1
 62
   256
176
     0
 40
1.0
176
     0
 90
        2
176
     1
  1
strokes_ogs.tif
176
     1
290
     0
176
     1
 40
1.0
176
     1
 40
1.0
176
     1
1001
ACAD
1000
AcDbSavedByObjectVersion
1070
     0
  0
VISUALSTYLE
  5
41
102
{ACAD_REACTORS
330
29
102
}
330
29
100
AcDbVisualStyle
  2
EdgeColorOff
 70
    22
177
     3
291
     1
 70
    58
 90
        2
176
     0
 90
        2
176
     0
 90
        0
176
     0
 90
        0
176
     0
 40
0.6
176
     0
 40
30.0
176
     0
 62
     7
420
 16777215
176
     0
 90
        1
176
     0
 90
        4
176
     0
 62
     7
176
     0
 62
   257
176
     0
 90
        1
176
     0
 90
        1
176
     0
 40
1.0
176
     0
 90
        8
176
     2
 62
     7
176
     0
 40
1.0
176
     0
 90
        1
176
     0
 90
        6
176
     0
 90
        2
176
     0
 62
     7
176
     0
 90
        5
176
     0
 90
        0
176
     0
 90
        0
176
     0
290
     0
176
     0
 90
        1
176
     0
 40
0.0
176
     0
 90
        0
176
     0
290
     0
176
     0
290
     1
176
     0
290
     1
176
     0
290
     0
176
     0
290
     0
176
     0
290
     0
176
     0
290
     0
176
     0
290
     0
176
     0
290
     0
176
     0
 90
       50
176
     0
 40
0.0
176
     0
 40
1.0
176
     0
 90
        0
176
     0
 62
    18
420
        0
176
     0
 90
       50
176
     0
 90
        3
176
     0
 62
     5
420
      255
176
     0
290
     0
176
     0
 90
       50
176
     0
 90
       50
176
     0
 90
       50
176
     0
290
     0
176
     0
 90
       50
176
     0
 62
   256
176
     0
 40
1.0
176
     0
 90
        2
176
     0
  1
strokes_ogs.tif
176
     0
290
     0
176
     0
 40
1.0
176
     0
 40
1.0
176
     0
1001
ACAD
1000
AcDbSavedByObjectVersion
1070
     0
  0
VISUALSTYLE
  5
38
102
{ACAD_REACTORS
330
29
102
}
330
29
100
AcDbVisualStyle
  2
Facepattern
 70
    15
177
     3
291
     1
 70
    58
 90
        2
176
     1
 90
        2
176
     1
 90
        0
176
     1
 90
        0
176
     1
 40
0.6
176
     1
 40
30.0
176
     1
 62
     7
420
 16777215
176
     1
 90
        1
176
     1
 90
        4
176
     1
 62
     7
176
     1
 62
   257
176
     1
 90
        1
176
     1
 90
        1
176
     1
 40
1.0
176
     1
 90
        8
176
     1
 62
     7
176
     1
 40
1.0
176
     1
 90
        1
176
     1
 90
        6
176
     1
 90
        2
176
     1
 62
     7
176
     1
 90
        5
176
     1
 90
        0
176
     1
 90
        0
176
     1
290
     0
176
     1
 90
        1
176
     1
 40
0.0
176
     1
 90
        0
176
     1
290
     0
176
     1
290
     1
176
     1
290
     1
176
     1
290
     0
176
     1
290
     0
176
     1
290
     0
176
     1
290
     0
176
     1
290
     0
176
     1
290
     0
176
     1
 90
       50
176
     1
 40
0.0
176
     1
 40
1.0
176
     1
 90
        0
176
     1
 62
    18
420
        0
176
     1
 90
       50
176
     1
 90
        3
176
     1
 62
     5
420
      255
176
     1
290
     0
176
     1
 90
       50
176
     1
 90
       50
176
     1
 90
       50
176
     1
290
     0
176
     1
 90
       50
176
     1
 62
   256
176
     0
 40
1.0
176
     0
 90
        2
176
     1
  1
strokes_ogs.tif
176
     1
290
     0
176
     1
 40
1.0
176
     1
 40
1.0
176
     1
1001
ACAD
1000
AcDbSavedByObjectVersion
1070
     0
  0
VISUALSTYLE
  5
2A
102
{ACAD_REACTORS
330
29
102
}
330
29
100
AcDbVisualStyle
  2
Flat
 70
     0
177
     3
291
     1
 70
    58
 90
        2
176
     1
 90
        1
176
     1
 90
        1
176
     1
 90
        2
176
     1
 40
0.6
176
     1
 40
30.0
176
     1
 62
     7
420
 16777215
176
     1
 90
        0
176
     1
 90
        0
176
     1
 62
     7
176
     1
 62
   257
176
     1
 90
        1
176
     1
 90
        1
176
     1
 40
1.0
176
     1
 90
        8
176
     1
 62
     7
176
     1
 40
1.0
176
     1
 90
        1
176
     1
 90
        6
176
     1
 90
        2
176
     1
 62
     7
176
     1
 90
        5
176
     1
 90
        0
176
     1
 90
        0
176
     1
290
     0
176
     1
 90
       13
176
     1
 40
0.0
176
     1
 90
        0
176
     1
290
     0
176
     1
290
     1
176
     1
290
     1
176
     1
290
     0
176
     1
290
     0
176
     1
290
     0
176
     1
290
     0
176
     1
290
     0
176
     1
290
     0
176
     1
 90
       50
176
     1
 40
0.0
176
     1
 40
1.0
176
     1
 90
        0
176
     1
 62
    18
420
        0
176
     1
 90
       50
176
     1
 90
        3
176
     1
 62
     5
420
      255
176
     1
290
     0
176
     1
 90
       50
176
     1
 90
       50
176
     1
 90
       50
176
     1
290
     0
176
     1
 90
       50
176
     1
 62
   256
176
     0
 40
1.0
176
     0
 90
        2
176
     1
  1
strokes_ogs.tif
176
     1
290
     0
176
     1
 40
1.0
176
     1
 40
1.0
176
     1
1001
ACAD
1000
AcDbSavedByObjectVersion
1070
     0
  0
VISUALSTYLE
  5
2B
102
{ACAD_REACTORS
330
29
102
}
330
29
100
AcDbVisualStyle
  2
FlatWithEdges
 70
     1
177
     3
291
     1
 70
    58
 90
        2
176
     1
 90
        1
176
     1
 90
        1
176
     1
 90
        2
176
     1
 40
0.6
176
     1
 40
30.0
176
     1
 62
     7
420
 16777215
176
     1
 90
        1
176
     1
 90
        0
176
     1
 62
     7
176
     1
 62
   257
176
     1
 90
        1
176
     1
 90
        1
176
     1
 40
1.0
176
     1
 90
        0
176
     1
 62
   257
176
     1
 40
1.0
176
     1
 90
        1
176
     1
 90
        6
176
     1
 90
        2
176
     1
 62
     7
176
     1
 90
        5
176
     1
 90
        0
176
     1
 90
        0
176
     1
290
     0
176
     1
 90
       13
176
     1
 40
0.0
176
     1
 90
        0
176
     1
290
     0
176
     1
290
     1
176
     1
290
     1
176
     1
290
     0
176
     1
290
     0
176
     1
290
     0
176
     1
290
     0
176
     1
290
     0
176
     1
290
     0
176
     1
 90
       50
176
     1
 40
0.0
176
     1
 40
1.0
176
     1
 90
        0
176
     1
 62
    18
420
        0
176
     1
 90
       50
176
     1
 90
        3
176
     1
 62
     5
420
      255
176
     1
290
     0
176
     1
 90
       50
176
     1
 90
       50
176
     1
 90
       50
176
     1
290
     0
176
     1
 90
       50
176
     1
 62
   256
176
     0
 40
1.0
176
     0
 90
        2
176
     1
  1
strokes_ogs.tif
176
     1
290
     0
176
     1
 40
1.0
176
     1
 40
1.0
176
     1
1001
ACAD
1000
AcDbSavedByObjectVersion
1070
     0
  0
VISUALSTYLE
  5
2C
102
{ACAD_REACTORS
330
29
102
}
330
29
100
AcDbVisualStyle
  2
Gouraud
 70
     2
177
     3
291
     1
 70
    58
 90
        2
176
     1
 90
        2
176
     1
 90
        1
176
     1
 90
        2
176
     1
 40
0.6
176
     1
 40
30.0
176
     1
 62
     7
420
 16777215
176
     1
 90
        0
176
     1
 90
        0
176
     1
 62
     7
176
     1
 62
   257
176
     1
 90
        1
176
     1
 90
        1
176
     1
 40
1.0
176
     1
 90
        0
176
     1
 62
     7
176
     1
 40
1.0
176
     1
 90
        1
176
     1
 90
        6
176
     1
 90
        2
176
     1
 62
     7
176
     1
 90
        5
176
     1
 90
        0
176
     1
 90
        0
176
     1
290
     0
176
     1
 90
       13
176
     1
 40
0.0
176
     1
 90
        0
176
     1
290
     0
176
     1
290
     1
176
     1
290
     1
176
     1
290
     0
176
     1
290
     0
176
     1
290
     0
176
     1
290
     0
176
     1
290
     0
176
     1
290
     0
176
     1
 90
       50
176
     1
 40
0.0
176
     1
 40
1.0
176
     1
 90
        0
176
     1
 62
    18
420
        0
176
     1
 90
       50
176
     1
 90
        3
176
     1
 62
     5
420
      255
176
     1
290
     0
176
     1
 90
       50
176
     1
 90
       50
176
     1
 90
       50
176
     1
290
     0
176
     1
 90
       50
176
     1
 62
   256
176
     0
 40
1.0
176
     0
 90
        2
176
     1
  1
strokes_ogs.tif
176
     1
290
     0
176
     1
 40
1.0
176
     1
 40
1.0
176
     1
1001
ACAD
1000
AcDbSavedByObjectVersion
1070
     0
  0
VISUALSTYLE
  5
2D
102
{ACAD_REACTORS
330
29
102
}
330
29
100
AcDbVisualStyle
  2
GouraudWithEdges
 70
     3
177
     3
291
     1
 70
    58
 90
        2
176
     1
 90
        2
176
     1
 90
        1
176
     1
 90
        2
176
     1
 40
0.6
176
     1
 40
30.0
176
     1
 62
     7
420
 16777215
176
     1
 90
        1
176
     1
 90
        0
176
     1
 62
     7
176
     1
 62
   257
176
     1
 90
        1
176
     1
 90
        1
176
     1
 40
1.0
176
     1
 90
        0
176
     1
 62
   257
176
     1
 40
1.0
176
     1
 90
        1
176
     1
 90
        6
176
     1
 90
        2
176
     1
 62
     7
176
     1
 90
        5
176
     1
 90
        0
176
     1
 90
        0
176
     1
290
     0
176
     1
 90
       13
176
     1
 40
0.0
176
     1
 90
        0
176
     1
290
     0
176
     1
290
     1
176
     1
290
     1
176
     1
290
     0
176
     1
290
     0
176
     1
290
     0
176
     1
290
     0
176
     1
290
     0
176
     1
290
     0
176
     1
 90
       50
176
     1
 40
0.0
176
     1
 40
1.0
176
     1
 90
        0
176
     1
 62
    18
420
        0
176
     1
 90
       50
176
     1
 90
        3
176
     1
 62
     5
420
      255
176
     1
290
     0
176
     1
 90
       50
176
     1
 90
       50
176
     1
 90
       50
176
     1
290
     0
176
     1
 90
       50
176
     1
 62
   256
176
     0
 40
1.0
176
     0
 90
        2
176
     1
  1
strokes_ogs.tif
176
     1
290
     0
176
     1
 40
1.0
176
     1
 40
1.0
176
     1
1001
ACAD
1000
AcDbSavedByObjectVersion
1070
     0
  0
VISUALSTYLE
  5
31
102
{ACAD_REACTORS
330
29
102
}
330
29
100
AcDbVisualStyle
  2
Hidden
 70
     6
177
     3
291
     0
 70
    58
 90
        1
176
     1
 90
        2
176
     1
 90
        2
176
     1
 90
        0
176
     1
 40
0.6
176
     1
 40
30.0
176
     1
 62
     7
420
 16777215
176
     1
 90
        2
176
     1
 90
        2
176
     1
 62
     7
176
     1
 62
   257
176
     1
 90
        2
176
     1
 90
        1
176
     1
 40
40.0
176
     1
 90
        0
176
     1
 62
   257
176
     1
 40
1.0
176
     1
 90
        1
176
     1
 90
        6
176
     1
 90
        2
176
     1
 62
     7
176
     1
 90
        3
176
     1
 90
        0
176
     1
 90
        0
176
     1
290
     0
176
     1
 90
        1
176
     1
 40
0.0
176
     1
 90
        0
176
     1
290
     0
176
     1
290
     1
176
     1
290
     1
176
     1
290
     0
176
     1
290
     0
176
     1
290
     0
176
     1
290
     0
176
     1
290
     0
176
     1
290
     0
176
     1
 90
       50
176
     1
 40
0.0
176
     1
 40
1.0
176
     1
 90
        0
176
     1
 62
    18
420
        0
176
     1
 90
       50
176
     1
 90
        3
176
     1
 62
     5
420
      255
176
     1
290
     0
176
     1
 90
       50
176
     1
 90
       50
176
     1
 90
       50
176
     1
290
     0
176
     1
 90
       50
176
     1
 62
   256
176
     0
 40
1.0
176
     0
 90
        2
176
     1
  1
strokes_ogs.tif
176
     1
290
     0
176
     1
 40
1.0
176
     1
 40
1.0
176
     1
1001
ACAD
1000
AcDbSavedByObjectVersion
1070
     0
  0
VISUALSTYLE
  5
3F
102
{ACAD_REACTORS
330
29
102
}
330
29
100
AcDbVisualStyle
  2
JitterOff
 70
    20
177
     3
291
     1
 70
    58
 90
        2
176
     0
 90
        2
176
     0
 90
        0
176
     0
 90
        0
176
     0
 40
0.6
176
     0
 40
30.0
176
     0
 62
     7
420
 16777215
176
     0
 90
        1
176
     0
 90
        4
176
     0
 62
     7
176
     0
 62
   257
176
     0
 90
        1
176
     0
 90
        1
176
     0
 40
1.0
176
     0
 90
       10
176
     2
 62
     7
176
     0
 40
1.0
176
     0
 90
        1
176
     0
 90
        6
176
     0
 90
        2
176
     0
 62
     7
176
     0
 90
        5
176
     0
 90
        0
176
     0
 90
        0
176
     0
290
     0
176
     0
 90
        1
176
     0
 40
0.0
176
     0
 90
        0
176
     0
290
     0
176
     0
290
     1
176
     0
290
     1
176
     0
290
     0
176
     0
290
     0
176
     0
290
     0
176
     0
290
     0
176
     0
290
     0
176
     0
290
     0
176
     0
 90
       50
176
     0
 40
0.0
176
     0
 40
1.0
176
     0
 90
        0
176
     0
 62
    18
420
        0
176
     0
 90
       50
176
     0
 90
        3
176
     0
 62
     5
420
      255
176
     0
290
     0
176
     0
 90
       50
176
     0
 90
       50
176
     0
 90
       50
176
     0
290
     0
176
     0
 90
       50
176
     0
 62
   256
176
     0
 40
1.0
176
     0
 90
        2
176
     0
  1
strokes_ogs.tif
176
     0
290
     0
176
     0
 40
1.0
176
     0
 40
1.0
176
     0
1001
ACAD
1000
AcDbSavedByObjectVersion
1070
     0
  0
VISUALSTYLE
  5
37
102
{ACAD_REACTORS
330
29
102
}
330
29
100
AcDbVisualStyle
  2
Linepattern
 70
    14
177
     3
291
     1
 70
    58
 90
        2
176
     1
 90
        2
176
     1
 90
        0
176
     1
 90
        0
176
     1
 40
0.6
176
     1
 40
30.0
176
     1
 62
     7
420
 16777215
176
     1
 90
        1
176
     1
 90
        4
176
     1
 62
     7
176
     1
 62
   257
176
     1
 90
        7
176
     1
 90
        7
176
     1
 40
1.0
176
     1
 90
        8
176
     1
 62
     7
176
     1
 40
1.0
176
     1
 90
        1
176
     1
 90
        6
176
     1
 90
        2
176
     1
 62
     7
176
     1
 90
        5
176
     1
 90
        0
176
     1
 90
        0
176
     1
290
     0
176
     1
 90
        1
176
     1
 40
0.0
176
     1
 90
        0
176
     1
290
     0
176
     1
290
     1
176
     1
290
     1
176
     1
290
     0
176
     1
290
     0
176
     1
290
     0
176
     1
290
     0
176
     1
290
     0
176
     1
290
     0
176
     1
 90
       50
176
     1
 40
0.0
176
     1
 40
1.0
176
     1
 90
        0
176
     1
 62
    18
420
        0
176
     1
 90
       50
176
     1
 90
        3
176
     1
 62
     5
420
      255
176
     1
290
     0
176
     1
 90
       50
176
     1
 90
       50
176
     1
 90
       50
176
     1
290
     0
176
     1
 90
       50
176
     1
 62
   256
176
     0
 40
1.0
176
     0
 90
        2
176
     1
  1
strokes_ogs.tif
176
     1
290
     0
176
     1
 40
1.0
176
     1
 40
1.0
176
     1
1001
ACAD
1000
AcDbSavedByObjectVersion
1070
     0
  0
VISUALSTYLE
  5
40
102
{ACAD_REACTORS
330
29
102
}
330
29
100
AcDbVisualStyle
  2
OverhangOff
 70
    21
177
     3
291
     1
 70
    58
 90
        2
176
     0
 90
        2
176
     0
 90
        0
176
     0
 90
        0
176
     0
 40
0.6
176
     0
 40
30.0
176
     0
 62
     7
420
 16777215
176
     0
 90
        1
176
     0
 90
        4
176
     0
 62
     7
176
     0
 62
   257
176
     0
 90
        1
176
     0
 90
        1
176
     0
 40
1.0
176
     0
 90
        9
176
     2
 62
     7
176
     0
 40
1.0
176
     0
 90
        1
176
     0
 90
        6
176
     0
 90
        2
176
     0
 62
     7
176
     0
 90
        5
176
     0
 90
        0
176
     0
 90
        0
176
     0
290
     0
176
     0
 90
        1
176
     0
 40
0.0
176
     0
 90
        0
176
     0
290
     0
176
     0
290
     1
176
     0
290
     1
176
     0
290
     0
176
     0
290
     0
176
     0
290
     0
176
     0
290
     0
176
     0
290
     0
176
     0
290
     0
176
     0
 90
       50
176
     0
 40
0.0
176
     0
 40
1.0
176
     0
 90
        0
176
     0
 62
    18
420
        0
176
     0
 90
       50
176
     0
 90
        3
176
     0
 62
     5
420
      255
176
     0
290
     0
176
     0
 90
       50
176
     0
 90
       50
176
     0
 90
       50
176
     0
290
     0
176
     0
 90
       50
176
     0
 62
   256
176
     0
 40
1.0
176
     0
 90
        2
176
     0
  1
strokes_ogs.tif
176
     0
290
     0
176
     0
 40
1.0
176
     0
 40
1.0
176
     0
1001
ACAD
1000
AcDbSavedByObjectVersion
1070
     0
  0
VISUALSTYLE
  5
33
102
{ACAD_REACTORS
330
29
102
}
330
29
100
AcDbVisualStyle
  2
Realistic
 70
     8
177
     3
291
     0
 70
    58
 90
        2
176
     1
 90
        3
176
     1
 90
        0
176
     1
 90
        2
176
     1
 40
0.6
176
     1
 40
30.0
176
     1
 62
     7
420
 16777215
176
     1
 90
        0
176
     1
 90
        0
176
     1
 62
     7
176
     1
 62
   257
176
     1
 90
        1
176
     1
 90
        1
176
     1
 40
1.0
176
     1
 90
        8
176
     1
 62
   257
176
     1
 40
1.0
176
     1
 90
        1
176
     1
 90
        6
176
     1
 90
        2
176
     1
 62
     7
176
     1
 90
        3
176
     1
 90
        0
176
     1
 90
        0
176
     1
290
     0
176
     1
 90
       13
176
     1
 40
0.0
176
     1
 90
        0
176
     1
290
     0
176
     1
290
     1
176
     1
290
     1
176
     1
290
     0
176
     1
290
     0
176
     1
290
     0
176
     1
290
     0
176
     1
290
     0
176
     1
290
     0
176
     1
 90
       50
176
     1
 40
0.0
176
     1
 40
1.0
176
     1
 90
        0
176
     1
 62
    18
420
        0
176
     1
 90
       50
176
     1
 90
        3
176
     1
 62
     5
420
      255
176
     1
290
     0
176
     1
 90
       50
176
     1
 90
       50
176
     1
 90
       50
176
     1
290
     0
176
     1
 90
       50
176
     1
 62
   256
176
     0
 40
1.0
176
     0
 90
        2
176
     1
  1
strokes_ogs.tif
176
     1
290
     0
176
     1
 40
1.0
176
     1
 40
1.0
176
     1
1001
ACAD
1000
AcDbSavedByObjectVersion
1070
     0
  0
VISUALSTYLE
  5
3E
102
{ACAD_REACTORS
330
29
102
}
330
29
100
AcDbVisualStyle
  2
Shaded
 70
    27
177
     3
291
     0
 70
    58
 90
        2
176
     1
 90
        2
176
     1
 90
        1
176
     1
 90
        2
176
     1
 40
0.6
176
     1
 40
30.0
176
     1
 62
     7
420
 16777215
176
     1
 90
        0
176
     1
 90
        4
176
     1
 62
     7
176
     1
 62
   257
176
     1
 90
        1
176
     1
 90
        1
176
     1
 40
1.0
176
     1
 90
        8
176
     1
 62
   257
176
     1
 40
1.0
176
     1
 90
        1
176
     1
 90
        6
176
     1
 90
        2
176
     1
 62
     8
420
  7895160
176
     1
 90
        3
176
     1
 90
        0
176
     1
 90
        0
176
     1
290
     0
176
     1
 90
        5
176
     1
 40
0.0
176
     1
 90
        0
176
     1
290
     0
176
     1
290
     1
176
     1
290
     1
176
     1
290
     0
176
     1
290
     0
176
     1
290
     0
176
     1
290
     0
176
     1
290
     0
176
     1
290
     0
176
     1
 90
       50
176
     1
 40
0.0
176
     1
 40
1.0
176
     1
 90
        0
176
     1
 62
    18
420
        0
176
     1
 90
       50
176
     1
 90
        3
176
     1
 62
     5
420
      255
176
     1
290
     0
176
     1
 90
       50
176
     1
 90
       50
176
     1
 90
       50
176
     1
290
     0
176
     1
 90
       50
176
     1
 62
   256
176
     0
 40
1.0
176
     0
 90
        2
176
     1
  1
strokes_ogs.tif
176
     1
290
     0
176
     1
 40
1.0
176
     1
 40
1.0
176
     1
1001
ACAD
1000
AcDbSavedByObjectVersion
1070
     0
  0
VISUALSTYLE
  5
3D
102
{ACAD_REACTORS
330
29
102
}
330
29
100
AcDbVisualStyle
  2
Shaded with edges
 70
    26
177
     3
291
     0
 70
    58
 90
        2
176
     1
 90
        2
176
     1
 90
        1
176
     1
 90
        2
176
     1
 40
0.6
176
     1
 40
30.0
176
     1
 62
     7
420
 16777215
176
     1
 90
        1
176
     1
 90
        2
176
     1
 62
     7
176
     1
 62
   257
176
     1
 90
        2
176
     1
 90
        1
176
     1
 40
1.0
176
     1
 90
        8
176
     1
 62
   257
176
     1
 40
1.0
176
     1
 90
        1
176
     1
 90
        6
176
     1
 90
        2
176
     1
 62
     7
176
     1
 90
        3
176
     1
 90
        0
176
     1
 90
        0
176
     1
290
     0
176
     1
 90
        5
176
     1
 40
0.0
176
     1
 90
        0
176
     1
290
     0
176
     1
290
     1
176
     1
290
     1
176
     1
290
     0
176
     1
290
     0
176
     1
290
     0
176
     1
290
     0
176
     1
290
     0
176
     1
290
     0
176
     1
 90
       50
176
     1
 40
0.0
176
     1
 40
1.0
176
     1
 90
        0
176
     1
 62
    18
420
        0
176
     1
 90
       50
176
     1
 90
        3
176
     1
 62
     5
420
      255
176
     1
290
     0
176
     1
 90
       50
176
     1
 90
       50
176
     1
 90
       50
176
     1
290
     0
176
     1
 90
       50
176
     1
 62
   256
176
     0
 40
1.0
176
     0
 90
        2
176
     1
  1
strokes_ogs.tif
176
     1
290
     0
176
     1
 40
1.0
176
     1
 40
1.0
176
     1
1001
ACAD
1000
AcDbSavedByObjectVersion
1070
     0
  0
VISUALSTYLE
  5
3A
102
{ACAD_REACTORS
330
29
102
}
330
29
100
AcDbVisualStyle
  2
Shades of Gray
 70
    23
177
     3
291
     0
 70
    58
 90
        2
176
     1
 90
        2
176
     1
 90
        3
176
     1
 90
        0
176
     1
 40
0.6
176
     1
 40
30.0
176
     1
 62
     7
420
 16777215
176
     1
 90
        2
176
     1
 90
        2
176
     1
 62
     7
176
     1
 62
     7
176
     1
 90
        1
176
     1
 90
        1
176
     1
 40
40.0
176
     1
 90
        8
176
     1
 62
     7
176
     1
 40
1.0
176
     1
 90
        1
176
     1
 90
        6
176
     1
 90
        2
176
     1
 62
     7
176
     1
 90
        3
176
     1
 90
        0
176
     1
 90
        0
176
     1
290
     0
176
     1
 90
        1
176
     1
 40
0.0
176
     1
 90
        0
176
     1
290
     0
176
     1
290
     1
176
     1
290
     1
176
     1
290
     0
176
     1
290
     0
176
     1
290
     0
176
     1
290
     0
176
     1
290
     0
176
     1
290
     0
176
     1
 90
       50
176
     1
 40
0.0
176
     1
 40
1.0
176
     1
 90
        0
176
     1
 62
    18
420
        0
176
     1
 90
       50
176
     1
 90
        3
176
     1
 62
     5
420
      255
176
     1
290
     0
176
     1
 90
       50
176
     1
 90
       50
176
     1
 90
       50
176
     1
290
     0
176
     1
 90
       50
176
     1
 62
   256
176
     0
 40
1.0
176
     0
 90
        2
176
     1
  1
strokes_ogs.tif
176
     1
290
     0
176
     1
 40
1.0
176
     1
 40
1.0
176
     1
1001
ACAD
1000
AcDbSavedByObjectVersion
1070
     0
  0
VISUALSTYLE
  5
3B
102
{ACAD_REACTORS
330
29
102
}
330
29
100
AcDbVisualStyle
  2
Sketchy
 70
    24
177
     3
291
     0
 70
    58
 90
        1
176
     1
 90
        2
176
     1
 90
        2
176
     1
 90
        0
176
     1
 40
0.6
176
     1
 40
30.0
176
     1
 62
     7
420
 16777215
176
     1
 90
        2
176
     1
 90
        2
176
     1
 62
     7
176
     1
 62
     7
176
     1
 90
        1
176
     1
 90
        1
176
     1
 40
40.0
176
     1
 90
       11
176
     1
 62
     7
176
     1
 40
1.0
176
     1
 90
        1
176
     1
 90
        6
176
     1
 90
        2
176
     1
 62
     7
176
     1
 90
        6
176
     1
 90
        0
176
     1
 90
        0
176
     1
290
     0
176
     1
 90
        1
176
     1
 40
0.0
176
     1
 90
        0
176
     1
290
     0
176
     1
290
     1
176
     1
290
     1
176
     1
290
     0
176
     1
290
     0
176
     1
290
     0
176
     1
290
     0
176
     1
290
     0
176
     1
290
     0
176
     1
 90
       50
176
     1
 40
0.0
176
     1
 40
1.0
176
     1
 90
        0
176
     1
 62
    18
420
        0
176
     1
 90
       50
176
     1
 90
        3
176
     1
 62
     5
420
      255
176
     1
290
     0
176
     1
 90
       50
176
     1
 90
       50
176
     1
 90
       50
176
     1
290
     0
176
     1
 90
       50
176
     1
 62
   256
176
     0
 40
1.0
176
     0
 90
        2
176
     1
  1
strokes_ogs.tif
176
     1
290
     0
176
     1
 40
1.0
176
     1
 40
1.0
176
     1
1001
ACAD
1000
AcDbSavedByObjectVersion
1070
     0
  0
VISUALSTYLE
  5
36
102
{ACAD_REACTORS
330
29
102
}
330
29
100
AcDbVisualStyle
  2
Thicken
 70
    13
177
     3
291
     1
 70
    58
 90
        2
176
     1
 90
        2
176
     1
 90
        0
176
     1
 90
        0
176
     1
 40
0.6
176
     1
 40
30.0
176
     1
 62
     7
420
 16777215
176
     1
 90
        1
176
     1
 90
        4
176
     1
 62
     7
176
     1
 62
   257
176
     1
 90
        1
176
     1
 90
        1
176
     1
 40
1.0
176
     1
 90
       12
176
     1
 62
     7
176
     1
 40
1.0
176
     1
 90
        1
176
     1
 90
        6
176
     1
 90
        2
176
     1
 62
     7
176
     1
 90
        5
176
     1
 90
        0
176
     1
 90
        0
176
     1
290
     0
176
     1
 90
        1
176
     1
 40
0.0
176
     1
 90
        0
176
     1
290
     0
176
     1
290
     1
176
     1
290
     1
176
     1
290
     0
176
     1
290
     0
176
     1
290
     0
176
     1
290
     0
176
     1
290
     0
176
     1
290
     0
176
     1
 90
       50
176
     1
 40
0.0
176
     1
 40
1.0
176
     1
 90
        0
176
     1
 62
    18
420
        0
176
     1
 90
       50
176
     1
 90
        3
176
     1
 62
     5
420
      255
176
     1
290
     0
176
     1
 90
       50
176
     1
 90
       50
176
     1
 90
       50
176
     1
290
     0
176
     1
 90
       50
176
     1
 62
   256
176
     0
 40
1.0
176
     0
 90
        2
176
     1
  1
strokes_ogs.tif
176
     1
290
     0
176
     1
 40
1.0
176
     1
 40
1.0
176
     1
1001
ACAD
1000
AcDbSavedByObjectVersion
1070
     0
  0
VISUALSTYLE
  5
30
102
{ACAD_REACTORS
330
29
102
}
330
29
100
AcDbVisualStyle
  2
Wireframe
 70
     5
177
     3
291
     0
 70
    58
 90
        0
176
     1
 90
        2
176
     1
 90
        0
176
     1
 90
        0
176
     1
 40
0.6
176
     1
 40
30.0
176
     1
 62
     7
420
 16777215
176
     1
 90
        1
176
     1
 90
        4
176
     1
 62
     7
176
     1
 62
   257
176
     1
 90
        1
176
     1
 90
        1
176
     1
 40
1.0
176
     1
 90
        0
176
     1
 62
   257
176
     1
 40
1.0
176
     1
 90
        1
176
     1
 90
        6
176
     1
 90
        2
176
     1
 62
     7
176
     1
 90
        3
176
     1
 90
        0
176
     1
 90
        0
176
     1
290
     0
176
     1
 90
        1
176
     1
 40
0.0
176
     1
 90
        0
176
     1
290
     0
176
     1
290
     1
176
     1
290
     1
176
     1
290
     0
176
     1
290
     0
176
     1
290
     0
176
     1
290
     0
176
     1
290
     0
176
     1
290
     0
176
     1
 90
       50
176
     1
 40
0.0
176
     1
 40
1.0
176
     1
 90
        0
176
     1
 62
    18
420
        0
176
     1
 90
       50
176
     1
 90
        3
176
     1
 62
     5
420
      255
176
     1
290
     0
176
     1
 90
       50
176
     1
 90
       50
176
     1
 90
       50
176
     1
290
     0
176
     1
 90
       50
176
     1
 62
   256
176
     0
 40
1.0
176
     0
 90
        2
176
     1
  1
strokes_ogs.tif
176
     1
290
     0
176
     1
 40
1.0
176
     1
 40
1.0
176
     1
1001
ACAD
1000
AcDbSavedByObjectVersion
1070
     0
  0
VISUALSTYLE
  5
3C
102
{ACAD_REACTORS
330
29
102
}
330
29
100
AcDbVisualStyle
  2
X-Ray
 70
    25
177
     3
291
     0
 70
    58
 90
        2
176
     1
 90
        2
176
     1
 90
        1
176
     1
 90
        1
176
     1
 40
0.5
176
     1
 40
30.0
176
     1
 62
     7
420
 16777215
176
     1
 90
        1
176
     1
 90
        0
176
     1
 62
     7
176
     1
 62
   257
176
     1
 90
        1
176
     1
 90
        1
176
     1
 40
1.0
176
     1
 90
        8
176
     1
 62
     7
176
     1
 40
1.0
176
     1
 90
        1
176
     1
 90
        6
176
     1
 90
        2
176
     1
 62
     7
176
     1
 90
        3
176
     1
 90
        0
176
     1
 90
        0
176
     1
290
     0
176
     1
 90
       13
176
     1
 40
0.0
176
     1
 90
        0
176
     1
290
     0
176
     1
290
     1
176
     1
290
     1
176
     1
290
     0
176
     1
290
     0
176
     1
290
     0
176
     1
290
     0
176
     1
290
     0
176
     1
290
     0
176
     1
 90
       50
176
     1
 40
0.0
176
     1
 40
1.0
176
     1
 90
        0
176
     1
 62
    18
420
        0
176
     1
 90
       50
176
     1
 90
        3
176
     1
 62
     5
420
      255
176
     1
290
     0
176
     1
 90
       50
176
     1
 90
       50
176
     1
 90
       50
176
     1
290
     0
176
     1
 90
       50
176
     1
 62
   256
176
     0
 40
1.0
176
     0
 90
        2
176
     1
  1
strokes_ogs.tif
176
     1
290
     0
176
     1
 40
1.0
176
     1
 40
1.0
176
     1
1001
ACAD
1000
AcDbSavedByObjectVersion
1070
     0
  0
DICTIONARYVAR
  5
159
102
{ACAD_REACTORS
330
154
102
}
330
154
100
DictionaryVariables
280
     0
  1
1:1
  0
DICTIONARYVAR
  5
156
102
{ACAD_REACTORS
330
154
102
}
330
154
100
DictionaryVariables
280
     0
  1
STANDARD
  0
DICTIONARYVAR
  5
155
102
{ACAD_REACTORS
330
154
102
}
330
154
100
DictionaryVariables
280
     0
  1
STANDARD
  0
DICTIONARYVAR
  5
157
102
{ACAD_REACTORS
330
154
102
}
330
154
100
DictionaryVariables
280
     0
  1
Imperial24
  0
DICTIONARYVAR
  5
158
102
{ACAD_REACTORS
330
154
102
}
330
154
100
DictionaryVariables
280
     0
  1
Imperial24
  0
DICTIONARY
  5
15F
330
6B
100
AcDbDictionary
280
     1
281
     1
  3
ACAD_XREC_ROUNDTRIP
360
160
  0
DICTIONARY
  5
1A
330
19
100
AcDbDictionary
280
     1
281
     1
  3
BUMPTILE
360
1C
  3
DIFFUSETILE
360
1B
  3
OPACITYTILE
360
1F
  3
REFLECTIONTILE
360
1E
  3
REFRACTIONTILE
360
20
  3
SPECULARTILE
360
1D
  0
DICTIONARY
  5
12
330
11
100
AcDbDictionary
280
     1
281
     1
  3
BUMPTILE
360
14
  3
DIFFUSETILE
360
13
  3
OPACITYTILE
360
17
  3
REFLECTIONTILE
360
16
  3
REFRACTIONTILE
360
18
  3
SPECULARTILE
360
15
  0
DICTIONARY
  5
22
330
21
100
AcDbDictionary
280
     1
281
     1
  3
BUMPTILE
360
24
  3
DIFFUSETILE
360
23
  3
OPACITYTILE
360
27
  3
REFLECTIONTILE
360
26
  3
REFRACTIONTILE
360
28
  3
SPECULARTILE
360
25
  0
DICTIONARY
  5
15D
330
69
100
AcDbDictionary
280
     1
281
     1
  3
ACAD_XREC_ROUNDTRIP
360
15E
  0
DICTIONARY
  5
15A
330
65
100
AcDbDictionary
280
     1
281
     1
  3
ACAD_ROUNDTRIP_2008_TABLESTYLE_CELLSTYLEMAP
360
15B
  0
XRECORD
  5
160
102
{ACAD_REACTORS
330
15F
102
}
330
15F
100
AcDbXrecord
280
     1
102
DISPLAYNAME
  1
Imperial24
102
FLAGS
 90
        0
  0
XRECORD
  5
1C
102
{ACAD_REACTORS
330
1A
102
}
330
1A
100
AcDbXrecord
280
     1
270
     1
271
     1
  0
XRECORD
  5
1B
102
{ACAD_REACTORS
330
1A
102
}
330
1A
100
AcDbXrecord
280
     1
270
     1
271
     1
  0
XRECORD
  5
1F
102
{ACAD_REACTORS
330
1A
102
}
330
1A
100
AcDbXrecord
280
     1
270
     1
271
     1
  0
XRECORD
  5
1E
102
{ACAD_REACTORS
330
1A
102
}
330
1A
100
AcDbXrecord
280
     1
270
     1
271
     1
  0
XRECORD
  5
20
102
{ACAD_REACTORS
330
1A
102
}
330
1A
100
AcDbXrecord
280
     1
270
     1
271
     1
  0
XRECORD
  5
1D
102
{ACAD_REACTORS
330
1A
102
}
330
1A
100
AcDbXrecord
280
     1
270
     1
271
     1
  0
XRECORD
  5
14
102
{ACAD_REACTORS
330
12
102
}
330
12
100
AcDbXrecord
280
     1
270
     1
271
     1
  0
XRECORD
  5
13
102
{ACAD_REACTORS
330
12
102
}
330
12
100
AcDbXrecord
280
     1
270
     1
271
     1
  0
XRECORD
  5
17
102
{ACAD_REACTORS
330
12
102
}
330
12
100
AcDbXrecord
280
     1
270
     1
271
     1
  0
XRECORD
  5
16
102
{ACAD_REACTORS
330
12
102
}
330
12
100
AcDbXrecord
280
     1
270
     1
271
     1
  0
XRECORD
  5
18
102
{ACAD_REACTORS
330
12
102
}
330
12
100
AcDbXrecord
280
     1
270
     1
271
     1
  0
XRECORD
  5
15
102
{ACAD_REACTORS
330
12
102
}
330
12
100
AcDbXrecord
280
     1
270
     1
271
     1
  0
XRECORD
  5
24
102
{ACAD_REACTORS
330
22
102
}
330
22
100
AcDbXrecord
280
     1
270
     1
271
     1
  0
XRECORD
  5
23
102
{ACAD_REACTORS
330
22
102
}
330
22
100
AcDbXrecord
280
     1
270
     1
271
     1
  0
XRECORD
  5
27
102
{ACAD_REACTORS
330
22
102
}
330
22
100
AcDbXrecord
280
     1
270
     1
271
     1
  0
XRECORD
  5
26
102
{ACAD_REACTORS
330
22
102
}
330
22
100
AcDbXrecord
280
     1
270
     1
271
     1
  0
XRECORD
  5
28
102
{ACAD_REACTORS
330
22
102
}
330
22
100
AcDbXrecord
280
     1
270
     1
271
     1
  0
XRECORD
  5
25
102
{ACAD_REACTORS
330
22
102
}
330
22
100
AcDbXrecord
280
     1
270
     1
271
     1
  0
XRECORD
  5
15E
102
{ACAD_REACTORS
330
15D
102
}
330
15D
100
AcDbXrecord
280
     1
102
DISPLAYNAME
  1
Imperial24
102
FLAGS
 90
        0
  0
CELLSTYLEMAP
  5
15B
102
{ACAD_REACTORS
330
15A
102
}
330
15A
100
AcDbCellStyleMap
 90
        3
300
CELLSTYLE
  1
TABLEFORMAT_BEGIN
 90
        5
170
     1
 91
        0
 92
    32768
 62
   257
 93
        1
300
CONTENTFORMAT
  1
CONTENTFORMAT_BEGIN
 90
        0
 91
        0
 92
      512
 93
        0
300

 40
0.0
140
1.0
 94
        5
 62
     0
340
55
144
0.25
309
CONTENTFORMAT_END
171
     0
 94
        0
309
TABLEFORMAT_END
  1
CELLSTYLE_BEGIN
 90
        1
 91
        1
300
_TITLE
309
CELLSTYLE_END
300
CELLSTYLE
  1
TABLEFORMAT_BEGIN
 90
        5
170
     1
 91
        0
 92
        0
 62
   257
 93
        1
300
CONTENTFORMAT
  1
CONTENTFORMAT_BEGIN
 90
        0
 91
        0
 92
      512
 93
        0
300

 40
0.0
140
1.0
 94
        5
 62
     0
340
55
144
0.18
309
CONTENTFORMAT_END
171
     0
 94
        0
309
TABLEFORMAT_END
  1
CELLSTYLE_BEGIN
 90
        2
 91
        1
300
_HEADER
309
CELLSTYLE_END
300
CELLSTYLE
  1
TABLEFORMAT_BEGIN
 90
        5
170
     1
 91
        0
 92
        0
 62
   257
 93
        1
300
CONTENTFORMAT
  1
CONTENTFORMAT_BEGIN
 90
        0
 91
        0
 92
      512
 93
        0
300

 40
0.0
140
1.0
 94
        2
 62
     0
340
55
144
0.18
309
CONTENTFORMAT_END
171
     0
 94
        0
309
TABLEFORMAT_END
  1
CELLSTYLE_BEGIN
 90
        3
 91
        2
300
_DATA
309
CELLSTYLE_END
  0
ENDSEC
  0
EOF
