  0
SECTION
  2
HEADER
  9
$ACADVER
  1
AC1014
  9
$HANDSEED
  5
FFFF
  9
$MEASUREMENT
 70
     1
  0
ENDSEC
  0
SECTION
  2
TABLES
  0
TABLE
  2
VPORT
  5
8
330
0
100
AcDbSymbolTable
 70
     4
  0
VPORT
  5
2E
330
8
100
AcDbSymbolTableRecord
100
AcDbViewportTableRecord
  2
*ACTIVE
 70
     0
 10
0.0
 20
0.0
 11
1.0
 21
1.0
 12
210.0
 22
148.5
 13
0.0
 23
0.0
 14
10.0
 24
10.0
 15
10.0
 25
10.0
 16
0.0
 26
0.0
 36
1.0
 17
0.0
 27
0.0
 37
0.0
 40
341.0
 41
1.24
 42
50.0
 43
0.0
 44
0.0
 50
0.0
 51
0.0
 71
     0
 72
   100
 73
     1
 74
     3
 75
     0
 76
     0
 77
     0
 78
     0
  0
ENDTAB
  0
TABLE
  2
LTYPE
  5
5
330
0
100
AcDbSymbolTable
 70
     1
  0
LTYPE
  5
14
330
5
100
AcDbSymbolTableRecord
100
AcDbLinetypeTableRecord
  2
BYBLOCK
 70
     0
  3

 72
    65
 73
     0
 40
0.0
  0
LTYPE
  5
15
330
5
100
AcDbSymbolTableRecord
100
AcDbLinetypeTableRecord
  2
BYLAYER
 70
     0
  3

 72
    65
 73
     0
 40
0.0
  0
LTYPE
  5
16
330
5
100
AcDbSymbolTableRecord
100
AcDbLinetypeTableRecord
  2
CONTINUOUS
 70
     0
  3
Solid line
 72
    65
 73
     0
 40
0.0
  0
ENDTAB
  0
TABLE
  2
LAYER
  5
2
100
AcDbSymbolTable
 70
2
  0
LAYER
  5
50
100
AcDbSymbolTableRecord
100
AcDbLayerTableRecord
  2
0
 70
0
  6
CONTINUOUS
  0
LAYER
  5
51
100
AcDbSymbolTableRecord
100
AcDbLayerTableRecord
  2
ShopBot_Design_FullTable_3
 70
0
  6
CONTINUOUS
  0
ENDTAB
  0
TABLE
  2
STYLE
  5
3
330
0
100
AcDbSymbolTable
 70
     1
  0
STYLE
  5
11
330
3
100
AcDbSymbolTableRecord
100
AcDbTextStyleTableRecord
  2
STANDARD
 70
     0
 40
0.0
 41
1.0
 50
0.0
 71
     0
 42
2.5
  3
txt
  4

  0
ENDTAB
  0
TABLE
  2
VIEW
  5
6
330
0
100
AcDbSymbolTable
 70
     0
  0
ENDTAB
  0
TABLE
  2
UCS
  5
7
330
0
100
AcDbSymbolTable
 70
     0
  0
ENDTAB
  0
TABLE
  2
APPID
  5
9
330
0
100
AcDbSymbolTable
 70
     2
  0
APPID
  5
12
330
9
100
AcDbSymbolTableRecord
100
AcDbRegAppTableRecord
  2
ACAD
 70
     0
  0
ENDTAB
  0
TABLE
  2
DIMSTYLE
  5
A
330
0
100
AcDbSymbolTable
 70
     1
  0
DIMSTYLE
105
27
330
A
100
AcDbSymbolTableRecord
100
AcDbDimStyleTableRecord
  2
ISO-25
 70
     0
  3

  4

  5

  6

  7

 40
1.0
 41
2.5
 42
0.625
 43
3.75
 44
1.25
 45
0.0
 46
0.0
 47
0.0
 48
0.0
140
2.5
141
2.5
142
0.0
143
0.03937007874016
144
1.0
145
0.0
146
1.0
147
0.625
 71
     0
 72
     0
 73
     0
 74
     0
 75
     0
 76
     0
 77
     1
 78
     8
170
     0
171
     3
172
     1
173
     0
174
     0
175
     0
176
     0
177
     0
178
     0
270
     2
271
     2
272
     2
273
     2
274
     3
340
11
275
     0
280
     0
281
     0
282
     0
283
     0
284
     8
285
     0
286
     0
287
     3
288
     0
  0
ENDTAB
  0
TABLE
  2
BLOCK_RECORD
  5
1
330
0
100
AcDbSymbolTable
 70
     1
  0
BLOCK_RECORD
  5
1F
330
1
100
AcDbSymbolTableRecord
100
AcDbBlockTableRecord
  2
*MODEL_SPACE
  0
BLOCK_RECORD
  5
1B
330
1
100
AcDbSymbolTableRecord
100
AcDbBlockTableRecord
  2
*PAPER_SPACE
  0
ENDTAB
  0
ENDSEC
  0
SECTION
  2
BLOCKS
  0
BLOCK
  5
20
330
1F
100
AcDbEntity
  8
0
100
AcDbBlockBegin
  2
*MODEL_SPACE
 70
     0
 10
0.0
 20
0.0
 30
0.0
  3
*MODEL_SPACE
  1

  0
ENDBLK
  5
21
330
1F
100
AcDbEntity
  8
0
100
AcDbBlockEnd
  0
BLOCK
  5
1C
330
1B
100
AcDbEntity
 67
     1
  8
0
100
AcDbBlockBegin
  2
*PAPER_SPACE
  1

  0
ENDBLK
  5
1D
330
1B
100
AcDbEntity
 67
     1
  8
0
100
AcDbBlockEnd
  0
ENDSEC
  0
SECTION
  2
ENTITIES
  0
LWPOLYLINE
  5
100
100
AcDbEntity
  8
ShopBot_Design_FullTable_3
 62
1
100
AcDbPolyline
 90
4
 70
1
 10
2034.141769
 20
306.239414
 30
0.0
 10
1634.142579
 20
306.239414
 30
0.0
 10
1634.142579
 20
1206.239355
 30
0.0
 10
2034.141063
 20
1206.239355
 30
0.0
  0
LWPOLYLINE
  5
101
100
AcDbEntity
  8
ShopBot_Design_FullTable_3
 62
1
100
AcDbPolyline
 90
24
 70
1
 10
1393.767074
 20
880.847725
 30
0.0
 10
1376.023411
 20
880.847725
 30
0.0
 10
1376.023411
 20
963.347628
 30
0.0
 10
1376.023411
 20
969.120483
 30
0.0
 10
1376.023411
 20
1013.347880
 30
0.0
 10
776.023568
 20
1013.347880
 30
0.0
 10
776.023568
 20
1022.347946
 30
0.0
 10
1376.023411
 20
1022.347946
 30
0.0
 10
1376.023411
 20
1063.347778
 30
0.0
 10
176.023371
 20
1063.347778
 30
0.0
 10
176.023371
 20
963.347628
 30
0.0
 10
1276.023261
 20
963.347628
 30
0.0
 10
1276.023261
 20
763.347680
 30
0.0
 10
176.023371
 20
763.347680
 30
0.0
 10
176.023371
 20
663.347530
 30
0.0
 10
1376.023411
 20
663.347530
 30
0.0
 10
1376.023411
 20
713.347429
 30
0.0
 10
776.023568
 20
713.347429
 30
0.0
 10
776.023568
 20
722.347495
 30
0.0
 10
1376.023411
 20
722.347495
 30
0.0
 10
1376.023411
 20
757.955825
 30
0.0
 10
1376.023411
 20
763.347680
 30
0.0
 10
1376.023411
 20
845.847584
 30
0.0
 10
1393.767074
 20
845.847584
 30
0.0
  0
LWPOLYLINE
  5
102
100
AcDbEntity
  8
ShopBot_Design_FullTable_3
 62
1
100
AcDbPolyline
 90
24
 70
1
 10
1385.507136
 20
449.369328
 30
0.0
 10
1385.507136
 20
549.369478
 30
0.0
 10
185.507096
 20
549.369478
 30
0.0
 10
185.507096
 20
499.369226
 30
0.0
 10
785.506940
 20
499.369226
 30
0.0
 10
785.506940
 20
490.369513
 30
0.0
 10
185.507096
 20
490.369513
 30
0.0
 10
185.507096
 20
454.761183
 30
0.0
 10
185.507096
 20
449.369328
 30
0.0
 10
185.507096
 20
366.869424
 30
0.0
 10
167.507316
 20
366.869424
 30
0.0
 10
167.507316
 20
331.869283
 30
0.0
 10
185.507096
 20
331.869283
 30
0.0
 10
185.507096
 20
249.369027
 30
0.0
 10
185.507096
 20
243.596524
 30
0.0
 10
185.507096
 20
199.369128
 30
0.0
 10
785.506940
 20
199.369128
 30
0.0
 10
785.506940
 20
190.369062
 30
0.0
 10
185.507096
 20
190.369062
 30
0.0
 10
185.507096
 20
149.368877
 30
0.0
 10
1385.507136
 20
149.368877
 30
0.0
 10
1385.507136
 20
249.369027
 30
0.0
 10
285.507246
 20
249.369027
 30
0.0
 10
285.507246
 20
449.369328
 30
0.0
  0
LWPOLYLINE
  5
103
100
AcDbEntity
  8
ShopBot_Design_FullTable_3
 62
1
100
AcDbPolyline
 90
4
 70
1
 10
1883.777195
 20
150.426610
 30
0.0
 10
1483.777299
 20
150.426610
 30
0.0
 10
1483.777299
 20
250.426408
 30
0.0
 10
1883.777195
 20
250.426408
 30
0.0
  0
LWPOLYLINE
  5
104
100
AcDbEntity
  8
ShopBot_Design_FullTable_3
 62
1
100
AcDbPolyline
 90
4
 70
1
 10
1995.506853
 20
186.926762
 30
0.0
 10
1960.506712
 20
186.926762
 30
0.0
 10
1960.506712
 20
213.926609
 30
0.0
 10
1995.506853
 20
213.926609
 30
0.0
  0
LWPOLYLINE
  5
105
100
AcDbEntity
  8
ShopBot_Design_FullTable_3
 62
1
100
AcDbPolyline
 90
4
 70
1
 10
1684.271488
 20
333.740170
 30
0.0
 10
1675.271422
 20
333.740170
 30
0.0
 10
1675.271422
 20
368.740310
 30
0.0
 10
1684.271488
 20
368.740310
 30
0.0
  0
LWPOLYLINE
  5
106
100
AcDbEntity
  8
ShopBot_Design_FullTable_3
 62
1
100
AcDbPolyline
 90
4
 70
1
 10
1984.159756
 20
333.570483
 30
0.0
 10
1975.159690
 20
333.570483
 30
0.0
 10
1975.159690
 20
368.570624
 30
0.0
 10
1984.159756
 20
368.570624
 30
0.0
  0
LWPOLYLINE
  5
107
100
AcDbEntity
  8
ShopBot_Design_FullTable_3
 62
1
100
AcDbPolyline
 90
4
 70
1
 10
1684.101450
 20
1134.912947
 30
0.0
 10
1675.101383
 20
1134.912947
 30
0.0
 10
1675.101383
 20
1169.913088
 30
0.0
 10
1684.101450
 20
1169.913088
 30
0.0
  0
LWPOLYLINE
  5
108
100
AcDbEntity
  8
ShopBot_Design_FullTable_3
 62
1
100
AcDbPolyline
 90
4
 70
1
 10
1984.076148
 20
1134.912947
 30
0.0
 10
1975.076081
 20
1134.912947
 30
0.0
 10
1975.076081
 20
1169.913088
 30
0.0
 10
1984.076148
 20
1169.913088
 30
0.0
  0
LWPOLYLINE
  5
109
100
AcDbEntity
  8
ShopBot_Design_FullTable_3
 62
1
100
AcDbPolyline
 90
4
 70
1
 10
1838.641748
 20
943.727857
 30
0.0
 10
1829.641682
 20
943.727857
 30
0.0
 10
1829.641682
 20
978.727998
 30
0.0
 10
1838.641748
 20
978.727998
 30
0.0
  0
LWPOLYLINE
  5
10a
100
AcDbEntity
  8
ShopBot_Design_FullTable_3
 62
1
100
AcDbPolyline
 90
4
 70
1
 10
1533.817414
 20
182.926262
 30
0.0
 10
1524.816995
 20
182.926262
 30
0.0
 10
1524.816995
 20
217.926403
 30
0.0
 10
1533.817414
 20
217.926403
 30
0.0
  0
LWPOLYLINE
  5
10b
100
AcDbEntity
  8
ShopBot_Design_FullTable_3
 62
1
100
AcDbPolyline
 90
4
 70
1
 10
1833.657704
 20
182.926262
 30
0.0
 10
1824.657638
 20
182.926262
 30
0.0
 10
1824.657638
 20
217.926403
 30
0.0
 10
1833.657704
 20
217.926403
 30
0.0
  0
LWPOLYLINE
  5
10c
100
AcDbEntity
  8
ShopBot_Design_FullTable_3
 62
1
100
AcDbPolyline
 90
4
 70
1
 10
1816.641821
 20
355.710816
 30
0.0
 10
1851.641962
 20
355.710816
 30
0.0
 10
1851.641962
 20
346.710750
 30
0.0
 10
1816.641821
 20
346.710750
 30
0.0
  0
LWPOLYLINE
  5
10d
100
AcDbEntity
  8
ShopBot_Design_FullTable_3
 62
1
100
AcDbPolyline
 90
4
 70
1
 10
1816.641468
 20
1156.912874
 30
0.0
 10
1851.641609
 20
1156.912874
 30
0.0
 10
1851.641609
 20
1147.912808
 30
0.0
 10
1816.641468
 20
1147.912808
 30
0.0
  0
LWPOLYLINE
  5
10e
100
AcDbEntity
  8
ShopBot_Design_FullTable_3
 62
1
100
AcDbPolyline
 90
4
 70
1
 10
1995.506853
 20
135.869236
 30
0.0
 10
1960.506712
 20
135.869236
 30
0.0
 10
1960.506712
 20
162.869082
 30
0.0
 10
1995.506853
 20
162.869082
 30
0.0
  0
LWPOLYLINE
  5
10f
100
AcDbEntity
  8
ShopBot_Design_FullTable_3
 62
1
100
AcDbPolyline
 90
4
 70
1
 10
1688.276927
 20
182.926262
 30
0.0
 10
1679.276861
 20
182.926262
 30
0.0
 10
1679.276861
 20
217.926403
 30
0.0
 10
1688.276927
 20
217.926403
 30
0.0
  0
LWPOLYLINE
  5
110
100
AcDbEntity
  8
ShopBot_Design_FullTable_3
 62
1
100
AcDbPolyline
 90
4
 70
1
 10
1838.641748
 20
531.869337
 30
0.0
 10
1829.641682
 20
531.869337
 30
0.0
 10
1829.641682
 20
566.869478
 30
0.0
 10
1838.641748
 20
566.869478
 30
0.0
  0
LWPOLYLINE
  5
111
100
AcDbEntity
  8
ShopBot_Design_FullTable_3
 62
1
100
AcDbPolyline
 90
39
 70
1
 10
1562.153019
 20
931.311138
 30
0.0
 10
1562.153019
 20
966.311279
 30
0.0
 10
1534.652581
 20
966.311279
 30
0.0
 10
1534.652581
 20
1093.004359
 30
0.0
 10
1534.652933
 20
1093.004359
 30
0.0
 10
1534.652933
 20
1121.801608
 30
0.0
 10
1552.652713
 20
1121.801608
 30
0.0
 10
1552.652713
 20
1156.801749
 30
0.0
 10
1534.652933
 20
1156.801749
 30
0.0
 10
1534.652933
 20
1193.004509
 30
0.0
 10
1534.652581
 20
1193.004509
 30
0.0
 10
1434.652783
 20
1193.004509
 30
0.0
 10
334.652894
 20
1193.004509
 30
0.0
 10
334.652894
 20
1147.504291
 30
0.0
 10
934.653090
 20
1147.504291
 30
0.0
 10
934.653090
 20
1138.504224
 30
0.0
 10
334.652894
 20
1138.504224
 30
0.0
 10
334.652894
 20
1093.004359
 30
0.0
 10
1434.652783
 20
1093.004359
 30
0.0
 10
1434.653136
 20
393.004718
 30
0.0
 10
334.652894
 20
393.004718
 30
0.0
 10
334.652894
 20
347.504853
 30
0.0
 10
934.653090
 20
347.504853
 30
0.0
 10
934.653090
 20
338.504786
 30
0.0
 10
334.652894
 20
338.504786
 30
0.0
 10
334.652894
 20
293.004568
 30
0.0
 10
1434.653136
 20
293.004568
 30
0.0
 10
1534.652933
 20
293.004568
 30
0.0
 10
1534.652933
 20
320.499009
 30
0.0
 10
1552.652713
 20
320.499009
 30
0.0
 10
1552.652713
 20
355.499150
 30
0.0
 10
1534.652933
 20
355.499150
 30
0.0
 10
1534.652933
 20
393.004718
 30
0.0
 10
1534.652933
 20
531.869337
 30
0.0
 10
1562.153019
 20
531.869337
 30
0.0
 10
1562.153019
 20
566.869478
 30
0.0
 10
1534.652933
 20
566.869478
 30
0.0
 10
1534.652581
 20
930.744930
 30
0.0
 10
1534.652581
 20
931.311138
 30
0.0
  0
LWPOLYLINE
  5
112
100
AcDbEntity
  8
ShopBot_Design_FullTable_3
 62
1
100
AcDbPolyline
 90
39
 70
1
 10
22.498896
 20
290.108791
 30
0.0
 10
22.498896
 20
255.108651
 30
0.0
 10
49.999334
 20
255.108651
 30
0.0
 10
49.999334
 20
128.415218
 30
0.0
 10
49.998982
 20
128.415218
 30
0.0
 10
49.998982
 20
99.617616
 30
0.0
 10
31.999201
 20
99.617616
 30
0.0
 10
31.999201
 20
64.617828
 30
0.0
 10
49.998982
 20
64.617828
 30
0.0
 10
49.998982
 20
28.415067
 30
0.0
 10
49.999334
 20
28.415067
 30
0.0
 10
149.999132
 20
28.415067
 30
0.0
 10
1249.999021
 20
28.415067
 30
0.0
 10
1249.999021
 20
73.915286
 30
0.0
 10
649.998825
 20
73.915286
 30
0.0
 10
649.998825
 20
82.915352
 30
0.0
 10
1249.999021
 20
82.915352
 30
0.0
 10
1249.999021
 20
128.415218
 30
0.0
 10
149.999132
 20
128.415218
 30
0.0
 10
149.998779
 20
828.414859
 30
0.0
 10
1249.999021
 20
828.414859
 30
0.0
 10
1249.999021
 20
873.914724
 30
0.0
 10
649.998825
 20
873.914724
 30
0.0
 10
649.998825
 20
882.914791
 30
0.0
 10
1249.999021
 20
882.914791
 30
0.0
 10
1249.999021
 20
928.415009
 30
0.0
 10
149.998779
 20
928.415009
 30
0.0
 10
49.999334
 20
928.415009
 30
0.0
 10
49.998982
 20
900.920568
 30
0.0
 10
31.999201
 20
900.920568
 30
0.0
 10
31.999201
 20
865.920427
 30
0.0
 10
49.998982
 20
865.920427
 30
0.0
 10
49.998982
 20
828.414859
 30
0.0
 10
49.998982
 20
689.550240
 30
0.0
 10
22.498896
 20
689.550240
 30
0.0
 10
22.498896
 20
654.550099
 30
0.0
 10
49.998982
 20
654.550099
 30
0.0
 10
49.999334
 20
290.674647
 30
0.0
 10
49.999334
 20
290.108791
 30
0.0
  0
LWPOLYLINE
  5
113
100
AcDbEntity
  8
ShopBot_Design_FullTable_3
 62
1
100
AcDbPolyline
 90
4
 70
1
 10
2455.220630
 20
306.239414
 30
0.0
 10
2055.221440
 20
306.239414
 30
0.0
 10
2055.221440
 20
1206.239355
 30
0.0
 10
2455.219924
 20
1206.239355
 30
0.0
  0
LWPOLYLINE
  5
114
100
AcDbEntity
  8
ShopBot_Design_FullTable_3
 62
1
100
AcDbPolyline
 90
4
 70
1
 10
2105.350561
 20
333.740170
 30
0.0
 10
2096.350495
 20
333.740170
 30
0.0
 10
2096.350495
 20
368.740310
 30
0.0
 10
2105.350561
 20
368.740310
 30
0.0
  0
LWPOLYLINE
  5
115
100
AcDbEntity
  8
ShopBot_Design_FullTable_3
 62
1
100
AcDbPolyline
 90
4
 70
1
 10
2405.238476
 20
333.570483
 30
0.0
 10
2396.238410
 20
333.570483
 30
0.0
 10
2396.238410
 20
368.570624
 30
0.0
 10
2405.238476
 20
368.570624
 30
0.0
  0
LWPOLYLINE
  5
116
100
AcDbEntity
  8
ShopBot_Design_FullTable_3
 62
1
100
AcDbPolyline
 90
4
 70
1
 10
2105.180170
 20
1134.912947
 30
0.0
 10
2096.180103
 20
1134.912947
 30
0.0
 10
2096.180103
 20
1169.913088
 30
0.0
 10
2105.180170
 20
1169.913088
 30
0.0
  0
LWPOLYLINE
  5
117
100
AcDbEntity
  8
ShopBot_Design_FullTable_3
 62
1
100
AcDbPolyline
 90
4
 70
1
 10
2405.155220
 20
1134.912947
 30
0.0
 10
2396.155154
 20
1134.912947
 30
0.0
 10
2396.155154
 20
1169.913088
 30
0.0
 10
2405.155220
 20
1169.913088
 30
0.0
  0
LWPOLYLINE
  5
118
100
AcDbEntity
  8
ShopBot_Design_FullTable_3
 62
1
100
AcDbPolyline
 90
4
 70
1
 10
2259.720821
 20
943.727857
 30
0.0
 10
2250.720755
 20
943.727857
 30
0.0
 10
2250.720755
 20
978.727998
 30
0.0
 10
2259.720821
 20
978.727998
 30
0.0
  0
LWPOLYLINE
  5
119
100
AcDbEntity
  8
ShopBot_Design_FullTable_3
 62
1
100
AcDbPolyline
 90
4
 70
1
 10
2237.720894
 20
355.710816
 30
0.0
 10
2272.721035
 20
355.710816
 30
0.0
 10
2272.721035
 20
346.710750
 30
0.0
 10
2237.720894
 20
346.710750
 30
0.0
  0
LWPOLYLINE
  5
11a
100
AcDbEntity
  8
ShopBot_Design_FullTable_3
 62
1
100
AcDbPolyline
 90
4
 70
1
 10
2237.720541
 20
1156.912874
 30
0.0
 10
2272.720682
 20
1156.912874
 30
0.0
 10
2272.720682
 20
1147.912808
 30
0.0
 10
2237.720541
 20
1147.912808
 30
0.0
  0
LWPOLYLINE
  5
11b
100
AcDbEntity
  8
ShopBot_Design_FullTable_3
 62
1
100
AcDbPolyline
 90
4
 70
1
 10
2259.720821
 20
531.869337
 30
0.0
 10
2250.720755
 20
531.869337
 30
0.0
 10
2250.720755
 20
566.869478
 30
0.0
 10
2259.720821
 20
566.869478
 30
0.0
  0
ENDSEC
  0
SECTION
  2
OBJECTS
  0
DICTIONARY
  5
C
330
0
100
AcDbDictionary
  3
ACAD_GROUP
350
D
  3
ACAD_MLINESTYLE
350
17
  0
DICTIONARY
  5
D
330
C
100
AcDbDictionary
  0
DICTIONARY
  5
1A
330
C
100
AcDbDictionary
  0
DICTIONARY
  5
17
330
C
100
AcDbDictionary
  3
STANDARD
350
18
  0
DICTIONARY
  5
19
330
C
100
AcDbDictionary
  0
ENDSEC
  0
EOF
