  0
SECTION
  2
HEADER
  9
$ACADVER
  1
AC1024
  9
$ACADMAINTVER
 70
     6
  9
$DWGCODEPAGE
  3
UNDEFINED
  9
$INSBASE
 10
0.0
 20
0.0
 30
0.0
  9
$EXTMIN
 10
1.000000000000000E+20
 20
1.000000000000000E+20
 30
1.000000000000000E+20
  9
$EXTMAX
 10
-1.000000000000000E+20
 20
-1.000000000000000E+20
 30
-1.000000000000000E+20
  9
$LIMMIN
 10
0.0
 20
0.0
  9
$LIMMAX
 10
12.0
 20
9.0
  9
$ORTHOMODE
 70
     0
  9
$REGENMODE
 70
     1
  9
$FILLMODE
 70
     1
  9
$QTEXTMODE
 70
     0
  9
$MIRRTEXT
 70
     1
  9
$LTSCALE
 40
1.0
  9
$ATTMODE
 70
     1
  9
$TEXTSIZE
 40
0.2
  9
$TRACEWID
 40
0.05
  9
$TEXTSTYLE
  7
Standard
  9
$CLAYER
  8
0
  9
$CELTYPE
  6
ByLayer
  9
$CECOLOR
 62
   256
  9
$CELTSCALE
 40
1.0
  9
$DISPSILH
 70
     0
  9
$DIMSCALE
 40
1.0
  9
$DIMASZ
 40
0.18
  9
$DIMEXO
 40
0.0625
  9
$DIMDLI
 40
0.38
  9
$DIMRND
 40
0.0
  9
$DIMDLE
 40
0.0
  9
$DIMEXE
 40
0.18
  9
$DIMTP
 40
0.0
  9
$DIMTM
 40
0.0
  9
$DIMTXT
 40
0.18
  9
$DIMCEN
 40
0.09
  9
$DIMTSZ
 40
0.0
  9
$DIMTOL
 70
     0
  9
$DIMLIM
 70
     0
  9
$DIMTIH
 70
     1
  9
$DIMTOH
 70
     1
  9
$DIMSE1
 70
     0
  9
$DIMSE2
 70
     0
  9
$DIMTAD
 70
     0
  9
$DIMZIN
 70
     0
  9
$DIMBLK
  1

  9
$DIMASO
 70
     1
  9
$DIMSHO
 70
     1
  9
$DIMPOST
  1

  9
$DIMAPOST
  1

  9
$DIMALT
 70
     0
  9
$DIMALTD
 70
     2
  9
$DIMALTF
 40
25.4
  9
$DIMLFAC
 40
1.0
  9
$DIMTOFL
 70
     0
  9
$DIMTVP
 40
0.0
  9
$DIMTIX
 70
     0
  9
$DIMSOXD
 70
     0
  9
$DIMSAH
 70
     0
  9
$DIMBLK1
  1

  9
$DIMBLK2
  1

  9
$DIMSTYLE
  2
Standard
  9
$DIMCLRD
 70
     0
  9
$DIMCLRE
 70
     0
  9
$DIMCLRT
 70
     0
  9
$DIMTFAC
 40
1.0
  9
$DIMGAP
 40
0.09
  9
$DIMJUST
 70
     0
  9
$DIMSD1
 70
     0
  9
$DIMSD2
 70
     0
  9
$DIMTOLJ
 70
     1
  9
$DIMTZIN
 70
     0
  9
$DIMALTZ
 70
     0
  9
$DIMALTTZ
 70
     0
  9
$DIMUPT
 70
     0
  9
$DIMDEC
 70
     4
  9
$DIMTDEC
 70
     4
  9
$DIMALTU
 70
     2
  9
$DIMALTTD
 70
     2
  9
$DIMTXSTY
  7
Standard
  9
$DIMAUNIT
 70
     0
  9
$DIMADEC
 70
     0
  9
$DIMALTRND
 40
0.0
  9
$DIMAZIN
 70
     0
  9
$DIMDSEP
 70
    46
  9
$DIMATFIT
 70
     3
  9
$DIMFRAC
 70
     0
  9
$DIMLDRBLK
  1

  9
$DIMLUNIT
 70
     2
  9
$DIMLWD
 70
    -2
  9
$DIMLWE
 70
    -2
  9
$DIMTMOVE
 70
     0
  9
$DIMFXL
 40
1.0
  9
$DIMFXLON
 70
     0
  9
$DIMJOGANG
 40
0.7853981633974483
  9
$DIMTFILL
 70
     0
  9
$DIMTFILLCLR
 70
     0
  9
$DIMARCSYM
 70
     0
  9
$DIMLTYPE
  6

  9
$DIMLTEX1
  6

  9
$DIMLTEX2
  6

  9
$DIMTXTDIRECTION
 70
     0
  9
$LUNITS
 70
     2
  9
$LUPREC
 70
     4
  9
$SKETCHINC
 40
0.1
  9
$FILLETRAD
 40
0.5
  9
$AUNITS
 70
     0
  9
$AUPREC
 70
     0
  9
$MENU
  1
.
  9
$ELEVATION
 40
0.0
  9
$PELEVATION
 40
0.0
  9
$THICKNESS
 40
0.0
  9
$LIMCHECK
 70
     0
  9
$CHAMFERA
 40
0.5
  9
$CHAMFERB
 40
0.5
  9
$CHAMFERC
 40
1.0
  9
$CHAMFERD
 40
0.0
  9
$SKPOLY
 70
     0
  9
$TDCREATE
 40
2458561.727418981
  9
$TDUCREATE
 40
2458561.685752315
  9
$TDUPDATE
 40
2458561.727418981
  9
$TDUUPDATE
 40
2458561.685752315
  9
$TDINDWG
 40
0.0000000116
  9
$TDUSRTIMER
 40
0.0000000116
  9
$USRTIMER
 70
     1
  9
$ANGBASE
 50
0.0
  9
$ANGDIR
 70
     0
  9
$PDMODE
 70
     0
  9
$PDSIZE
 40
0.0
  9
$PLINEWID
 40
0.0
  9
$SPLFRAME
 70
     0
  9
$SPLINETYPE
 70
     6
  9
$SPLINESEGS
 70
     8
  9
$HANDSEED
  5
143
  9
$SURFTAB1
 70
     6
  9
$SURFTAB2
 70
     6
  9
$SURFTYPE
 70
     6
  9
$SURFU
 70
     6
  9
$SURFV
 70
     6
  9
$UCSBASE
  2

  9
$UCSNAME
  2

  9
$UCSORG
 10
0.0
 20
0.0
 30
0.0
  9
$UCSXDIR
 10
1.0
 20
0.0
 30
0.0
  9
$UCSYDIR
 10
0.0
 20
1.0
 30
0.0
  9
$UCSORTHOREF
  2

  9
$UCSORTHOVIEW
 70
     0
  9
$UCSORGTOP
 10
0.0
 20
0.0
 30
0.0
  9
$UCSORGBOTTOM
 10
0.0
 20
0.0
 30
0.0
  9
$UCSORGLEFT
 10
0.0
 20
0.0
 30
0.0
  9
$UCSORGRIGHT
 10
0.0
 20
0.0
 30
0.0
  9
$UCSORGFRONT
 10
0.0
 20
0.0
 30
0.0
  9
$UCSORGBACK
 10
0.0
 20
0.0
 30
0.0
  9
$PUCSBASE
  2

  9
$PUCSNAME
  2

  9
$PUCSORG
 10
0.0
 20
0.0
 30
0.0
  9
$PUCSXDIR
 10
1.0
 20
0.0
 30
0.0
  9
$PUCSYDIR
 10
0.0
 20
1.0
 30
0.0
  9
$PUCSORTHOREF
  2

  9
$PUCSORTHOVIEW
 70
     0
  9
$PUCSORGTOP
 10
0.0
 20
0.0
 30
0.0
  9
$PUCSORGBOTTOM
 10
0.0
 20
0.0
 30
0.0
  9
$PUCSORGLEFT
 10
0.0
 20
0.0
 30
0.0
  9
$PUCSORGRIGHT
 10
0.0
 20
0.0
 30
0.0
  9
$PUCSORGFRONT
 10
0.0
 20
0.0
 30
0.0
  9
$PUCSORGBACK
 10
0.0
 20
0.0
 30
0.0
  9
$USERI1
 70
     0
  9
$USERI2
 70
     0
  9
$USERI3
 70
     0
  9
$USERI4
 70
     0
  9
$USERI5
 70
     0
  9
$USERR1
 40
0.0
  9
$USERR2
 40
0.0
  9
$USERR3
 40
0.0
  9
$USERR4
 40
0.0
  9
$USERR5
 40
0.0
  9
$WORLDVIEW
 70
     1
  9
$SHADEDGE
 70
     3
  9
$SHADEDIF
 70
    70
  9
$TILEMODE
 70
     1
  9
$MAXACTVP
 70
    64
  9
$PINSBASE
 10
0.0
 20
0.0
 30
0.0
  9
$PLIMCHECK
 70
     0
  9
$PEXTMIN
 10
1.000000000000000E+20
 20
1.000000000000000E+20
 30
1.000000000000000E+20
  9
$PEXTMAX
 10
-1.000000000000000E+20
 20
-1.000000000000000E+20
 30
-1.000000000000000E+20
  9
$PLIMMIN
 10
0.0
 20
0.0
  9
$PLIMMAX
 10
12.0
 20
9.0
  9
$UNITMODE
 70
     0
  9
$VISRETAIN
 70
     1
  9
$PLINEGEN
 70
     0
  9
$PSLTSCALE
 70
     1
  9
$TREEDEPTH
 70
  3020
  9
$CMLSTYLE
  2
Standard
  9
$CMLJUST
 70
     0
  9
$CMLSCALE
 40
1.0
  9
$PROXYGRAPHICS
 70
     1
  9
$MEASUREMENT
 70
     0
  9
$CELWEIGHT
370
    -1
  9
$ENDCAPS
280
     0
  9
$JOINSTYLE
280
     0
  9
$LWDISPLAY
290
     1
  9
$INSUNITS
 70
     1
  9
$HYPERLINKBASE
  1

  9
$STYLESHEET
  1

  9
$XEDIT
290
     1
  9
$CEPSNTYPE
380
     0
  9
$PSTYLEMODE
290
     1
  9
$FINGERPRINTGUID
  2
{1BAF80C0-68EC-EB26-F409-2E70D6A1E797}
  9
$VERSIONGUID
  2
{FAEB1C32-E019-11D5-929B-00C0DF256EC4}
  9
$EXTNAMES
290
     1
  9
$PSVPSCALE
 40
0.0
  9
$OLESTARTUP
290
     0
  9
$SORTENTS
280
   127
  9
$INDEXCTL
280
     0
  9
$HIDETEXT
280
     1
  9
$XCLIPFRAME
280
     2
  9
$HALOGAP
280
     0
  9
$OBSCOLOR
 70
   257
  9
$OBSLTYPE
280
     0
  9
$INTERSECTIONDISPLAY
280
     0
  9
$INTERSECTIONCOLOR
 70
   257
  9
$DIMASSOC
280
     2
  9
$PROJECTNAME
  1

  9
$CAMERADISPLAY
290
     0
  9
$LENSLENGTH
 40
50.0
  9
$CAMERAHEIGHT
 40
0.0
  9
$STEPSPERSEC
 40
2.0
  9
$STEPSIZE
 40
6.0
  9
$3DDWFPREC
 40
2.0
  9
$PSOLWIDTH
 40
0.25
  9
$PSOLHEIGHT
 40
4.0
  9
$LOFTANG1
 40
1.570796326794897
  9
$LOFTANG2
 40
1.570796326794897
  9
$LOFTMAG1
 40
0.0
  9
$LOFTMAG2
 40
0.0
  9
$LOFTPARAM
 70
     7
  9
$LOFTNORMALS
280
     1
  9
$LATITUDE
 40
37.795
  9
$LONGITUDE
 40
-122.394
  9
$NORTHDIRECTION
 40
0.0
  9
$TIMEZONE
 70
 -8000
  9
$LIGHTGLYPHDISPLAY
280
     1
  9
$TILEMODELIGHTSYNCH
280
     1
  9
$CMATERIAL
347
3C
  9
$SOLIDHIST
280
     1
  9
$SHOWHIST
280
     1
  9
$DWFFRAME
280
     2
  9
$DGNFRAME
280
     2
  9
$REALWORLDSCALE
290
     1
  9
$INTERFERECOLOR
 62
   256
  9
$CSHADOW
280
     0
  9
$SHADOWPLANELOCATION
 40
0.0
  0
ENDSEC
  0
SECTION
  2
CLASSES
  0
CLASS
  1
ACDBDICTIONARYWDFLT
  2
AcDbDictionaryWithDefault
  3
ObjectDBX Classes
 90
        0
 91
        4
280
     0
281
     0
  0
CLASS
  1
VISUALSTYLE
  2
AcDbVisualStyle
  3
ObjectDBX Classes
 90
     4095
 91
        4
280
     0
281
     0
  0
CLASS
  1
MATERIAL
  2
AcDbMaterial
  3
ObjectDBX Classes
 90
     1153
 91
        4
280
     0
281
     0
  0
CLASS
  1
SUN
  2
AcDbSun
  3
SCENEOE
 90
     1024
 91
        4
280
     0
281
     0
  0
ENDSEC
  0
SECTION
  2
TABLES
  0
TABLE
  2
VPORT
  5
8
330
0
100
AcDbSymbolTable
 70
     1
  0
VPORT
  5
29
330
8
100
AcDbSymbolTableRecord
100
AcDbViewportTableRecord
  2
*Active
 70
     0
 10
0.0
 20
0.0
 11
1.0
 21
1.0
 12
0.0
 22
0.0
 13
0.0
 23
0.0
 14
0.5
 24
0.5
 15
0.5
 25
0.5
 16
0.0
 26
0.0
 36
1.0
 17
104.9999999737536
 27
-148.4999999628701
 37
0.0
 40
2439.999999389998
 41
0.5000000000000016
 42
50.0
 43
0.0
 44
0.0
 50
0.0
 51
0.0
 71
     0
 72
   100
 73
     1
 74
     3
 75
     0
 76
     0
 77
     0
 78
     0
281
     0
 65
     1
110
0.0
120
0.0
130
0.0
111
1.0
121
0.0
131
0.0
112
0.0
122
1.0
132
0.0
 79
     0
146
0.0
 60
     3
 61
     5
292
     1
282
     1
141
0.0
142
0.0
 63
   250
361
3F
  0
ENDTAB
  0
TABLE
  2
LTYPE
  5
5
330
0
100
AcDbSymbolTable
 70
     1
  0
LTYPE
  5
14
330
5
100
AcDbSymbolTableRecord
100
AcDbLinetypeTableRecord
  2
ByBlock
 70
     0
  3

 72
    65
 73
     0
 40
0.0
  0
LTYPE
  5
15
330
5
100
AcDbSymbolTableRecord
100
AcDbLinetypeTableRecord
  2
ByLayer
 70
     0
  3

 72
    65
 73
     0
 40
0.0
  0
LTYPE
  5
16
330
5
100
AcDbSymbolTableRecord
100
AcDbLinetypeTableRecord
  2
Continuous
 70
     0
  3
Solid line
 72
    65
 73
     0
 40
0.0
  0
ENDTAB
  0
TABLE
  2
LAYER
  5
2
330
0
100
AcDbSymbolTable
 70
     2
  0
LAYER
  5
10
330
2
100
AcDbSymbolTableRecord
100
AcDbLayerTableRecord
  2
0
 70
     0
 62
     7
  6
Continuous
370
    -3
390
F
347
3E
  0
LAYER
  5
40
330
2
100
AcDbSymbolTableRecord
100
AcDbLayerTableRecord
  2
Layer 1
 70
     0
 62
     7
  6
Continuous
370
    -3
390
F
347
3E
  0
ENDTAB
  0
TABLE
  2
STYLE
  5
3
330
0
100
AcDbSymbolTable
 70
     1
  0
STYLE
  5
11
330
3
100
AcDbSymbolTableRecord
100
AcDbTextStyleTableRecord
  2
Standard
 70
     0
 40
0.0
 41
1.0
 50
0.0
 71
     0
 42
0.2
  3
txt
  4

  0
ENDTAB
  0
TABLE
  2
VIEW
  5
6
330
0
100
AcDbSymbolTable
 70
     0
  0
ENDTAB
  0
TABLE
  2
UCS
  5
7
330
0
100
AcDbSymbolTable
 70
     0
  0
ENDTAB
  0
TABLE
  2
APPID
  5
9
330
0
100
AcDbSymbolTable
 70
     1
  0
APPID
  5
12
330
9
100
AcDbSymbolTableRecord
100
AcDbRegAppTableRecord
  2
ACAD
 70
     0
  0
ENDTAB
  0
TABLE
  2
DIMSTYLE
  5
A
330
0
100
AcDbSymbolTable
 70
     1
100
AcDbDimStyleTable
  0
DIMSTYLE
105
27
330
A
100
AcDbSymbolTableRecord
100
AcDbDimStyleTableRecord
  2
Standard
 70
     0
178
     0
340
11
  0
ENDTAB
  0
TABLE
  2
BLOCK_RECORD
  5
1
330
0
100
AcDbSymbolTable
 70
     3
  0
BLOCK_RECORD
  5
1F
330
1
100
AcDbSymbolTableRecord
100
AcDbBlockTableRecord
  2
*Model_Space
340
22
 70
     0
280
     1
281
     0
  0
BLOCK_RECORD
  5
1B
330
1
100
AcDbSymbolTableRecord
100
AcDbBlockTableRecord
  2
*Paper_Space
340
1E
 70
     0
280
     1
281
     0
  0
BLOCK_RECORD
  5
23
330
1
100
AcDbSymbolTableRecord
100
AcDbBlockTableRecord
  2
*Paper_Space0
340
26
 70
     0
280
     1
281
     0
  0
BLOCK_RECORD
  5
84
330
1
100
AcDbSymbolTableRecord
100
AcDbBlockTableRecord
  2
block 2
340
0
102
{BLKREFS
331
85
102
}
 70
     0
280
     1
281
     0
  0
BLOCK_RECORD
  5
E3
330
1
100
AcDbSymbolTableRecord
100
AcDbBlockTableRecord
  2
block 3
340
0
102
{BLKREFS
331
E4
102
}
 70
     0
280
     1
281
     0
  0
ENDTAB
  0
ENDSEC
  0
SECTION
  2
BLOCKS
  0
BLOCK
  5
20
330
1F
100
AcDbEntity
  8
0
100
AcDbBlockBegin
  2
*Model_Space
 70
     0
 10
0.0
 20
0.0
 30
0.0
  3
*Model_Space
  1

  0
ENDBLK
  5
21
330
1F
100
AcDbEntity
  8
0
100
AcDbBlockEnd
  0
BLOCK
  5
1C
330
1B
100
AcDbEntity
 67
     1
  8
0
100
AcDbBlockBegin
  2
*Paper_Space
 70
     0
 10
0.0
 20
0.0
 30
0.0
  3
*Paper_Space
  1

  0
ENDBLK
  5
1D
330
1B
100
AcDbEntity
 67
     1
  8
0
100
AcDbBlockEnd
  0
BLOCK
  5
24
330
23
100
AcDbEntity
  8
0
100
AcDbBlockBegin
  2
*Paper_Space0
 70
     0
 10
0.0
 20
0.0
 30
0.0
  3
*Paper_Space0
  1

  0
ENDBLK
  5
25
330
23
100
AcDbEntity
  8
0
100
AcDbBlockEnd
  0
BLOCK
  5
86
330
84
100
AcDbEntity
  8
0
100
AcDbBlockBegin
  2
block 2
 70
     0
 10
0.0
 20
0.0
 30
0.0
  3
block 2
  1

  0
POLYLINE
  5
88
330
84
100
AcDbEntity
  8
Layer 1
 62
   179
420
  2301728
370
    25
100
AcDb2dPolyline
 66
     1
 10
0.0
 20
0.0
 30
0.0
  0
VERTEX
  5
89
330
88
100
AcDbEntity
  8
Layer 1
 62
   179
420
  2301728
370
    25
100
AcDbVertex
100
AcDb2dVertex
 10
-459.3630442866005
 20
-929.6159720888818
 30
0.0
  0
VERTEX
  5
8A
330
88
100
AcDbEntity
  8
Layer 1
 62
   179
420
  2301728
370
    25
100
AcDbVertex
100
AcDb2dVertex
 10
576.9635129204611
 20
-929.6159720888818
 30
0.0
  0
VERTEX
  5
8B
330
88
100
AcDbEntity
  8
Layer 1
 62
   179
420
  2301728
370
    25
100
AcDbVertex
100
AcDb2dVertex
 10
576.9635129204611
 20
-911.3659720934435
 30
0.0
  0
VERTEX
  5
8C
330
88
100
AcDbEntity
  8
Layer 1
 62
   179
420
  2301728
370
    25
100
AcDbVertex
100
AcDb2dVertex
 10
-459.3630442866005
 20
-911.3659720934435
 30
0.0
  0
VERTEX
  5
8D
330
88
100
AcDbEntity
  8
Layer 1
 62
   179
420
  2301728
370
    25
100
AcDbVertex
100
AcDb2dVertex
 10
-459.3630442866005
 20
-929.6159720888818
 30
0.0
  0
SEQEND
  5
8E
330
88
100
AcDbEntity
  8
Layer 1
 62
   179
420
  2301728
370
    25
  0
POLYLINE
  5
8F
330
84
100
AcDbEntity
  8
Layer 1
 62
   179
420
  2301728
370
    25
100
AcDb2dPolyline
 66
     1
 10
0.0
 20
0.0
 30
0.0
  0
VERTEX
  5
90
330
8F
100
AcDbEntity
  8
Layer 1
 62
   179
420
  2301728
370
    25
100
AcDbVertex
100
AcDb2dVertex
 10
-459.3630442866005
 20
-576.0742365069635
 30
0.0
  0
VERTEX
  5
91
330
8F
100
AcDbEntity
  8
Layer 1
 62
   179
420
  2301728
370
    25
100
AcDbVertex
100
AcDb2dVertex
 10
576.9635129204611
 20
-576.0742365069635
 30
0.0
  0
VERTEX
  5
92
330
8F
100
AcDbEntity
  8
Layer 1
 62
   179
420
  2301728
370
    25
100
AcDbVertex
100
AcDb2dVertex
 10
576.9635129204611
 20
-557.8242365115246
 30
0.0
  0
VERTEX
  5
93
330
8F
100
AcDbEntity
  8
Layer 1
 62
   179
420
  2301728
370
    25
100
AcDbVertex
100
AcDb2dVertex
 10
-459.3630442866005
 20
-557.8242365115246
 30
0.0
  0
VERTEX
  5
94
330
8F
100
AcDbEntity
  8
Layer 1
 62
   179
420
  2301728
370
    25
100
AcDbVertex
100
AcDb2dVertex
 10
-459.3630442866005
 20
-576.0742365069635
 30
0.0
  0
SEQEND
  5
95
330
8F
100
AcDbEntity
  8
Layer 1
 62
   179
420
  2301728
370
    25
  0
ENDBLK
  5
87
330
84
100
AcDbEntity
  8
0
100
AcDbBlockEnd
  0
BLOCK
  5
E5
330
E3
100
AcDbEntity
  8
0
100
AcDbBlockBegin
  2
block 3
 70
     0
 10
0.0
 20
0.0
 30
0.0
  3
block 3
  1

  0
POLYLINE
  5
E7
330
E3
100
AcDbEntity
  8
Layer 1
 62
   179
420
  2301728
370
    25
100
AcDb2dPolyline
 66
     1
 10
0.0
 20
0.0
 30
0.0
  0
VERTEX
  5
E8
330
E7
100
AcDbEntity
  8
Layer 1
 62
   179
420
  2301728
370
    25
100
AcDbVertex
100
AcDb2dVertex
 10
-459.3630364640037
 20
-1329.440030631607
 30
0.0
  0
VERTEX
  5
E9
330
E7
100
AcDbEntity
  8
Layer 1
 62
   179
420
  2301728
370
    25
100
AcDbVertex
100
AcDb2dVertex
 10
576.9635207430579
 20
-1329.440030631607
 30
0.0
  0
VERTEX
  5
EA
330
E7
100
AcDbEntity
  8
Layer 1
 62
   179
420
  2301728
370
    25
100
AcDbVertex
100
AcDb2dVertex
 10
576.9635207430579
 20
-1311.190030636172
 30
0.0
  0
VERTEX
  5
EB
330
E7
100
AcDbEntity
  8
Layer 1
 62
   179
420
  2301728
370
    25
100
AcDbVertex
100
AcDb2dVertex
 10
-459.3630364640037
 20
-1311.190030636172
 30
0.0
  0
VERTEX
  5
EC
330
E7
100
AcDbEntity
  8
Layer 1
 62
   179
420
  2301728
370
    25
100
AcDbVertex
100
AcDb2dVertex
 10
-459.3630364640037
 20
-1329.440030631607
 30
0.0
  0
SEQEND
  5
ED
330
E7
100
AcDbEntity
  8
Layer 1
 62
   179
420
  2301728
370
    25
  0
POLYLINE
  5
EE
330
E3
100
AcDbEntity
  8
Layer 1
 62
   179
420
  2301728
370
    25
100
AcDb2dPolyline
 66
     1
 10
0.0
 20
0.0
 30
0.0
  0
VERTEX
  5
EF
330
EE
100
AcDbEntity
  8
Layer 1
 62
   179
420
  2301728
370
    25
100
AcDbVertex
100
AcDb2dVertex
 10
-459.3630364640037
 20
-975.8982950496916
 30
0.0
  0
VERTEX
  5
F0
330
EE
100
AcDbEntity
  8
Layer 1
 62
   179
420
  2301728
370
    25
100
AcDbVertex
100
AcDb2dVertex
 10
576.9635207430579
 20
-975.8982950496916
 30
0.0
  0
VERTEX
  5
F1
330
EE
100
AcDbEntity
  8
Layer 1
 62
   179
420
  2301728
370
    25
100
AcDbVertex
100
AcDb2dVertex
 10
576.9635207430579
 20
-957.6482950542526
 30
0.0
  0
VERTEX
  5
F2
330
EE
100
AcDbEntity
  8
Layer 1
 62
   179
420
  2301728
370
    25
100
AcDbVertex
100
AcDb2dVertex
 10
-459.3630364640037
 20
-957.6482950542526
 30
0.0
  0
VERTEX
  5
F3
330
EE
100
AcDbEntity
  8
Layer 1
 62
   179
420
  2301728
370
    25
100
AcDbVertex
100
AcDb2dVertex
 10
-459.3630364640037
 20
-975.8982950496916
 30
0.0
  0
SEQEND
  5
F4
330
EE
100
AcDbEntity
  8
Layer 1
 62
   179
420
  2301728
370
    25
  0
ENDBLK
  5
E6
330
E3
100
AcDbEntity
  8
0
100
AcDbBlockEnd
  0
ENDSEC
  0
SECTION
  2
ENTITIES
  0
SPLINE
  5
41
330
1F
100
AcDbEntity
  8
Layer 1
 62
   179
420
  2301728
370
    25
100
AcDbSpline
210
0.0
220
0.0
230
1.0
 70
    11
 71
     3
 72
    77
 73
    73
 74
     0
 42
0.0000000001
 43
0.0000000001
 12
1.0
 22
0.0
 32
0.0
 13
1.0
 23
0.0
 33
0.0
 40
0.0
 40
0.0
 40
0.0
 40
0.0
 40
1.0
 40
1.0
 40
1.0
 40
2.0
 40
2.0
 40
2.0
 40
3.0
 40
3.0
 40
3.0
 40
4.0
 40
4.0
 40
4.0
 40
5.0
 40
5.0
 40
5.0
 40
6.0
 40
6.0
 40
6.0
 40
7.0
 40
7.0
 40
7.0
 40
8.0
 40
8.0
 40
8.0
 40
9.0
 40
9.0
 40
9.0
 40
10.0
 40
10.0
 40
10.0
 40
11.0
 40
11.0
 40
11.0
 40
12.0
 40
12.0
 40
12.0
 40
13.0
 40
13.0
 40
13.0
 40
14.0
 40
14.0
 40
14.0
 40
15.0
 40
15.0
 40
15.0
 40
16.0
 40
16.0
 40
16.0
 40
17.0
 40
17.0
 40
17.0
 40
18.0
 40
18.0
 40
18.0
 40
19.0
 40
19.0
 40
19.0
 40
20.0
 40
20.0
 40
20.0
 40
21.0
 40
21.0
 40
21.0
 40
22.0
 40
22.0
 40
22.0
 40
23.0
 40
23.0
 40
23.0
 40
24.0
 40
24.0
 40
24.0
 40
24.0
 10
-54.38186576331426
 20
1017.15255644059
 30
0.0
 10
-54.38186576331426
 20
1017.15255644059
 30
0.0
 10
-105.7785132249663
 20
1017.15255644059
 30
0.0
 10
-105.7785132249663
 20
1017.15255644059
 30
0.0
 10
-105.7785132249663
 20
1017.15255644059
 30
0.0
 10
-105.7785132249663
 20
998.9025076170279
 30
0.0
 10
-105.7785132249663
 20
998.9025076170279
 30
0.0
 10
-105.7785132249663
 20
998.9025076170279
 30
0.0
 10
-195.7785106593345
 20
998.9025076170279
 30
0.0
 10
-195.7785106593345
 20
998.9025076170279
 30
0.0
 10
-195.7785106593345
 20
998.9025076170279
 30
0.0
 10
-195.7785106593345
 20
1017.15255644059
 30
0.0
 10
-195.7785106593345
 20
1017.15255644059
 30
0.0
 10
-195.7785106593345
 20
1017.15255644059
 30
0.0
 10
-285.778508093703
 20
1017.15255644059
 30
0.0
 10
-285.778508093703
 20
1017.15255644059
 30
0.0
 10
-285.778508093703
 20
1017.15255644059
 30
0.0
 10
-285.778508093703
 20
998.9025076170279
 30
0.0
 10
-285.778508093703
 20
998.9025076170279
 30
0.0
 10
-285.778508093703
 20
998.9025076170279
 30
0.0
 10
-375.7785270599202
 20
998.9025076170279
 30
0.0
 10
-375.7785270599202
 20
998.9025076170279
 30
0.0
 10
-375.7785270599202
 20
998.9025076170279
 30
0.0
 10
-375.7785270599202
 20
1017.15255644059
 30
0.0
 10
-375.7785270599202
 20
1017.15255644059
 30
0.0
 10
-375.7785270599202
 20
1017.15255644059
 30
0.0
 10
-427.1751314578764
 20
1017.15255644059
 30
0.0
 10
-427.1751314578764
 20
1017.15255644059
 30
0.0
 10
-448.4952340594267
 20
1017.15255644059
 30
0.0
 10
-465.7785460261354
 20
999.869201410189
 30
0.0
 10
-465.7785460261354
 20
978.5490557449461
 30
0.0
 10
-465.7785460261354
 20
978.5490557449461
 30
0.0
 10
-465.7785460261354
 20
-521.7919228838749
 30
0.0
 10
-465.7785460261354
 20
-521.7919228838749
 30
0.0
 10
-465.7785460261354
 20
-526.2101717163226
 30
0.0
 10
-462.1968525048954
 20
-529.7919083012549
 30
0.0
 10
-457.7786036724477
 20
-529.7919083012549
 30
0.0
 10
-457.7786036724477
 20
-529.7919083012549
 30
0.0
 10
-372.960525080371
 20
-529.7919083012549
 30
0.0
 10
-372.960525080371
 20
-529.7919083012549
 30
0.0
 10
-369.1528763589912
 20
-529.7919083012549
 30
0.0
 10
-365.8728440111813
 20
-527.1082219819383
 30
0.0
 10
-365.118927927927
 20
-523.3759777879928
 30
0.0
 10
-365.118927927927
 20
-523.3759777879928
 30
0.0
 10
-355.8302830124409
 20
-477.3946328559118
 30
0.0
 10
-355.8302830124409
 20
-477.3946328559118
 30
0.0
 10
-353.778922437597
 20
-467.2398694035894
 30
0.0
 10
-344.8545748378315
 20
-459.9379895226023
 30
0.0
 10
-334.4946128856689
 20
-459.9379895226023
 30
0.0
 10
-334.4946128856689
 20
-459.9379895226023
 30
0.0
 10
-147.0624058673685
 20
-459.9379895226023
 30
0.0
 10
-147.0624058673685
 20
-459.9379895226023
 30
0.0
 10
-136.702465447053
 20
-459.9379895226023
 30
0.0
 10
-127.7781178472876
 20
-467.2398694035894
 30
0.0
 10
-125.7267357405956
 20
-477.3946328559118
 30
0.0
 10
-125.7267357405956
 20
-477.3946328559118
 30
0.0
 10
-116.4381123569582
 20
-523.3759777879928
 30
0.0
 10
-116.4381123569582
 20
-523.3759777879928
 30
0.0
 10
-115.6841532100113
 20
-527.1082219819383
 30
0.0
 10
-112.4041423940452
 20
-529.7919083012549
 30
0.0
 10
-108.5965152045135
 20
-529.7919083012549
 30
0.0
 10
-108.5965152045135
 20
-529.7919083012549
 30
0.0
 10
-23.77843661243647
 20
-529.7919083012549
 30
0.0
 10
-23.77843661243647
 20
-529.7919083012549
 30
0.0
 10
-19.3601662481439
 20
-529.7919083012549
 30
0.0
 10
-15.77842966321034
 20
-526.2101717163226
 30
0.0
 10
-15.77842966321034
 20
-521.7919228838749
 30
0.0
 10
-15.77842966321034
 20
-521.7919228838749
 30
0.0
 10
-15.77842966321034
 20
978.5490557449461
 30
0.0
 10
-15.77842966321034
 20
978.5490557449461
 30
0.0
 10
-15.77842966321034
 20
999.869201410189
 30
0.0
 10
-33.06178469361173
 20
1017.15255644059
 30
0.0
 10
-54.38186576331426
 20
1017.15255644059
 30
0.0
  0
POLYLINE
  5
42
330
1F
100
AcDbEntity
  8
Layer 1
 62
   179
420
  2301728
370
    25
100
AcDb2dPolyline
 66
     1
 10
0.0
 20
0.0
 30
0.0
  0
VERTEX
  5
43
330
42
100
AcDbEntity
  8
Layer 1
 62
   179
420
  2301728
370
    25
100
AcDbVertex
100
AcDb2dVertex
 10
558.7135670683118
 20
-557.8242626914921
 30
0.0
  0
VERTEX
  5
44
330
42
100
AcDbEntity
  8
Layer 1
 62
   179
420
  2301728
370
    25
100
AcDbVertex
100
AcDb2dVertex
 10
-441.1131265173259
 20
-557.8242626914921
 30
0.0
  0
VERTEX
  5
45
330
42
100
AcDbEntity
  8
Layer 1
 62
   179
420
  2301728
370
    25
100
AcDbVertex
100
AcDb2dVertex
 10
-441.1131265173259
 20
-608.7201224606672
 30
0.0
  0
VERTEX
  5
46
330
42
100
AcDbEntity
  8
Layer 1
 62
   179
420
  2301728
370
    25
100
AcDbVertex
100
AcDb2dVertex
 10
-459.3630892135032
 20
-608.7201224606672
 30
0.0
  0
VERTEX
  5
47
330
42
100
AcDbEntity
  8
Layer 1
 62
   179
420
  2301728
370
    25
100
AcDbVertex
100
AcDb2dVertex
 10
-459.3630892135032
 20
-698.7200983631895
 30
0.0
  0
VERTEX
  5
48
330
42
100
AcDbEntity
  8
Layer 1
 62
   179
420
  2301728
370
    25
100
AcDbVertex
100
AcDb2dVertex
 10
-441.1131265173259
 20
-698.7200983631895
 30
0.0
  0
VERTEX
  5
49
330
42
100
AcDbEntity
  8
Layer 1
 62
   179
420
  2301728
370
    25
100
AcDbVertex
100
AcDb2dVertex
 10
-441.1131265173259
 20
-788.7200742657126
 30
0.0
  0
VERTEX
  5
4A
330
42
100
AcDbEntity
  8
Layer 1
 62
   179
420
  2301728
370
    25
100
AcDbVertex
100
AcDb2dVertex
 10
-459.3630892135032
 20
-788.7200742657126
 30
0.0
  0
VERTEX
  5
4B
330
42
100
AcDbEntity
  8
Layer 1
 62
   179
420
  2301728
370
    25
100
AcDbVertex
100
AcDb2dVertex
 10
-459.3630892135032
 20
-878.7200932319279
 30
0.0
  0
VERTEX
  5
4C
330
42
100
AcDbEntity
  8
Layer 1
 62
   179
420
  2301728
370
    25
100
AcDbVertex
100
AcDb2dVertex
 10
-441.1131265173259
 20
-878.7200932319279
 30
0.0
  0
VERTEX
  5
4D
330
42
100
AcDbEntity
  8
Layer 1
 62
   179
420
  2301728
370
    25
100
AcDbVertex
100
AcDb2dVertex
 10
-441.1131265173259
 20
-929.615953001103
 30
0.0
  0
VERTEX
  5
4E
330
42
100
AcDbEntity
  8
Layer 1
 62
   179
420
  2301728
370
    25
100
AcDbVertex
100
AcDb2dVertex
 10
558.7135670683118
 20
-929.615953001103
 30
0.0
  0
VERTEX
  5
4F
330
42
100
AcDbEntity
  8
Layer 1
 62
   179
420
  2301728
370
    25
100
AcDbVertex
100
AcDb2dVertex
 10
558.7135670683118
 20
-878.7200932319279
 30
0.0
  0
VERTEX
  5
50
330
42
100
AcDbEntity
  8
Layer 1
 62
   179
420
  2301728
370
    25
100
AcDbVertex
100
AcDb2dVertex
 10
576.9635728281813
 20
-878.7200932319279
 30
0.0
  0
VERTEX
  5
51
330
42
100
AcDbEntity
  8
Layer 1
 62
   179
420
  2301728
370
    25
100
AcDbVertex
100
AcDb2dVertex
 10
576.9635728281813
 20
-788.7200742657126
 30
0.0
  0
VERTEX
  5
52
330
42
100
AcDbEntity
  8
Layer 1
 62
   179
420
  2301728
370
    25
100
AcDbVertex
100
AcDb2dVertex
 10
558.7135670683118
 20
-788.7200742657126
 30
0.0
  0
VERTEX
  5
53
330
42
100
AcDbEntity
  8
Layer 1
 62
   179
420
  2301728
370
    25
100
AcDbVertex
100
AcDb2dVertex
 10
558.7135670683118
 20
-698.7200983631895
 30
0.0
  0
VERTEX
  5
54
330
42
100
AcDbEntity
  8
Layer 1
 62
   179
420
  2301728
370
    25
100
AcDbVertex
100
AcDb2dVertex
 10
576.9635728281813
 20
-698.7200983631895
 30
0.0
  0
VERTEX
  5
55
330
42
100
AcDbEntity
  8
Layer 1
 62
   179
420
  2301728
370
    25
100
AcDbVertex
100
AcDb2dVertex
 10
576.9635728281813
 20
-608.7201224606672
 30
0.0
  0
VERTEX
  5
56
330
42
100
AcDbEntity
  8
Layer 1
 62
   179
420
  2301728
370
    25
100
AcDbVertex
100
AcDb2dVertex
 10
558.7135670683118
 20
-608.7201224606672
 30
0.0
  0
VERTEX
  5
57
330
42
100
AcDbEntity
  8
Layer 1
 62
   179
420
  2301728
370
    25
100
AcDbVertex
100
AcDb2dVertex
 10
558.7135670683118
 20
-557.8242626914921
 30
0.0
  0
SEQEND
  5
58
330
42
100
AcDbEntity
  8
Layer 1
 62
   179
420
  2301728
370
    25
  0
POLYLINE
  5
59
330
1F
100
AcDbEntity
  8
Layer 1
 62
   179
420
  2301728
370
    25
100
AcDb2dPolyline
 66
     1
 10
0.0
 20
0.0
 30
0.0
  0
VERTEX
  5
5A
330
59
100
AcDbEntity
  8
Layer 1
 62
   179
420
  2301728
370
    25
100
AcDbVertex
100
AcDb2dVertex
 10
-426.6743787565483
 20
-511.3226844560932
 30
0.0
  0
VERTEX
  5
5B
330
59
100
AcDbEntity
  8
Layer 1
 62
   179
420
  2301728
370
    25
100
AcDbVertex
100
AcDb2dVertex
 10
-426.6743787565483
 20
-431.3226844760953
 30
0.0
  0
VERTEX
  5
5C
330
59
100
AcDbEntity
  8
Layer 1
 62
   179
420
  2301728
370
    25
100
AcDbVertex
100
AcDb2dVertex
 10
-408.42437876111
 20
-431.3226844760953
 30
0.0
  0
VERTEX
  5
5D
330
59
100
AcDbEntity
  8
Layer 1
 62
   179
420
  2301728
370
    25
100
AcDbVertex
100
AcDb2dVertex
 10
-408.42437876111
 20
-511.3226844560932
 30
0.0
  0
VERTEX
  5
5E
330
59
100
AcDbEntity
  8
Layer 1
 62
   179
420
  2301728
370
    25
100
AcDbVertex
100
AcDb2dVertex
 10
-426.6743787565483
 20
-511.3226844560932
 30
0.0
  0
SEQEND
  5
5F
330
59
100
AcDbEntity
  8
Layer 1
 62
   179
420
  2301728
370
    25
  0
POLYLINE
  5
60
330
1F
100
AcDbEntity
  8
Layer 1
 62
   179
420
  2301728
370
    25
100
AcDb2dPolyline
 66
     1
 10
0.0
 20
0.0
 30
0.0
  0
VERTEX
  5
61
330
60
100
AcDbEntity
  8
Layer 1
 62
   179
420
  2301728
370
    25
100
AcDbVertex
100
AcDb2dVertex
 10
-73.13264317463174
 20
-511.3226844560932
 30
0.0
  0
VERTEX
  5
62
330
60
100
AcDbEntity
  8
Layer 1
 62
   179
420
  2301728
370
    25
100
AcDbVertex
100
AcDb2dVertex
 10
-73.13264317463174
 20
-431.3226844760953
 30
0.0
  0
VERTEX
  5
63
330
60
100
AcDbEntity
  8
Layer 1
 62
   179
420
  2301728
370
    25
100
AcDbVertex
100
AcDb2dVertex
 10
-54.88264317919374
 20
-431.3226844760953
 30
0.0
  0
VERTEX
  5
64
330
60
100
AcDbEntity
  8
Layer 1
 62
   179
420
  2301728
370
    25
100
AcDbVertex
100
AcDb2dVertex
 10
-54.88264317919374
 20
-511.3226844560932
 30
0.0
  0
VERTEX
  5
65
330
60
100
AcDbEntity
  8
Layer 1
 62
   179
420
  2301728
370
    25
100
AcDbVertex
100
AcDb2dVertex
 10
-73.13264317463174
 20
-511.3226844560932
 30
0.0
  0
SEQEND
  5
66
330
60
100
AcDbEntity
  8
Layer 1
 62
   179
420
  2301728
370
    25
  0
SPLINE
  5
67
330
1F
100
AcDbEntity
  8
Layer 1
 62
   179
420
  2301728
370
    25
100
AcDbSpline
210
0.0
220
0.0
230
1.0
 70
    11
 71
     3
 72
    17
 73
    13
 74
     0
 42
0.0000000001
 43
0.0000000001
 12
1.0
 22
0.0
 32
0.0
 13
1.0
 23
0.0
 33
0.0
 40
0.0
 40
0.0
 40
0.0
 40
0.0
 40
1.0
 40
1.0
 40
1.0
 40
2.0
 40
2.0
 40
2.0
 40
3.0
 40
3.0
 40
3.0
 40
4.0
 40
4.0
 40
4.0
 40
4.0
 10
-346.2825268309563
 20
899.857774381946
 30
0.0
 10
-356.2236523248706
 20
899.857774381946
 30
0.0
 10
-364.2825268264551
 20
907.9166488835305
 30
0.0
 10
-364.2825268264551
 20
917.8577743774483
 30
0.0
 10
-364.2825268264551
 20
927.7988998713619
 30
0.0
 10
-356.2236523248706
 20
935.8577743729468
 30
0.0
 10
-346.2825268309563
 20
935.8577743729468
 30
0.0
 10
-336.3414013370418
 20
935.8577743729468
 30
0.0
 10
-328.2825268354563
 20
927.7988998713619
 30
0.0
 10
-328.2825268354563
 20
917.8577743774483
 30
0.0
 10
-328.2825268354563
 20
907.9166488835305
 30
0.0
 10
-336.3414013370418
 20
899.857774381946
 30
0.0
 10
-346.2825268309563
 20
899.857774381946
 30
0.0
  0
POLYLINE
  5
68
330
1F
100
AcDbEntity
  8
Layer 1
 62
   140
420
    44527
370
   211
100
AcDb2dPolyline
 66
     1
 10
0.0
 20
0.0
 30
0.0
  0
VERTEX
  5
69
330
68
100
AcDbEntity
  8
Layer 1
 62
   140
420
    44527
370
   211
100
AcDbVertex
100
AcDb2dVertex
 10
694.9999998262538
 20
-1348.499999662872
 30
0.0
  0
VERTEX
  5
6A
330
68
100
AcDbEntity
  8
Layer 1
 62
   140
420
    44527
370
   211
100
AcDbVertex
100
AcDb2dVertex
 10
-484.9999998787469
 20
-1348.499999662872
 30
0.0
  0
VERTEX
  5
6B
330
68
100
AcDbEntity
  8
Layer 1
 62
   140
420
    44527
370
   211
100
AcDbVertex
100
AcDb2dVertex
 10
-484.9999998787469
 20
1051.499999737131
 30
0.0
  0
VERTEX
  5
6C
330
68
100
AcDbEntity
  8
Layer 1
 62
   140
420
    44527
370
   211
100
AcDbVertex
100
AcDb2dVertex
 10
694.9999998262538
 20
1051.499999737131
 30
0.0
  0
VERTEX
  5
6D
330
68
100
AcDbEntity
  8
Layer 1
 62
   140
420
    44527
370
   211
100
AcDbVertex
100
AcDb2dVertex
 10
694.9999998262538
 20
-1348.499999662872
 30
0.0
  0
SEQEND
  5
6E
330
68
100
AcDbEntity
  8
Layer 1
 62
   140
420
    44527
370
   211
  0
POLYLINE
  5
6F
330
1F
100
AcDbEntity
  8
Layer 1
 62
   179
420
  2301728
370
    25
100
AcDb2dPolyline
 66
     1
 10
0.0
 20
0.0
 30
0.0
  0
VERTEX
  5
70
330
6F
100
AcDbEntity
  8
Layer 1
 62
   179
420
  2301728
370
    25
100
AcDbVertex
100
AcDb2dVertex
 10
-426.6743787565483
 20
990.6832740938869
 30
0.0
  0
VERTEX
  5
71
330
6F
100
AcDbEntity
  8
Layer 1
 62
   179
420
  2301728
370
    25
100
AcDbVertex
100
AcDb2dVertex
 10
-426.6743787565483
 20
910.6832741138859
 30
0.0
  0
VERTEX
  5
72
330
6F
100
AcDbEntity
  8
Layer 1
 62
   179
420
  2301728
370
    25
100
AcDbVertex
100
AcDb2dVertex
 10
-408.42437876111
 20
910.6832741138859
 30
0.0
  0
VERTEX
  5
73
330
6F
100
AcDbEntity
  8
Layer 1
 62
   179
420
  2301728
370
    25
100
AcDbVertex
100
AcDb2dVertex
 10
-408.42437876111
 20
990.6832740938869
 30
0.0
  0
VERTEX
  5
74
330
6F
100
AcDbEntity
  8
Layer 1
 62
   179
420
  2301728
370
    25
100
AcDbVertex
100
AcDb2dVertex
 10
-426.6743787565483
 20
990.6832740938869
 30
0.0
  0
SEQEND
  5
75
330
6F
100
AcDbEntity
  8
Layer 1
 62
   179
420
  2301728
370
    25
  0
POLYLINE
  5
76
330
1F
100
AcDbEntity
  8
Layer 1
 62
   179
420
  2301728
370
    25
100
AcDb2dPolyline
 66
     1
 10
0.0
 20
0.0
 30
0.0
  0
VERTEX
  5
77
330
76
100
AcDbEntity
  8
Layer 1
 62
   179
420
  2301728
370
    25
100
AcDbVertex
100
AcDb2dVertex
 10
-105.7785110016209
 20
-420.8817240106448
 30
0.0
  0
VERTEX
  5
78
330
76
100
AcDbEntity
  8
Layer 1
 62
   179
420
  2301728
370
    25
100
AcDbVertex
100
AcDb2dVertex
 10
-195.778510979121
 20
-420.8817240106448
 30
0.0
  0
VERTEX
  5
79
330
76
100
AcDbEntity
  8
Layer 1
 62
   179
420
  2301728
370
    25
100
AcDbVertex
100
AcDb2dVertex
 10
-195.778510979121
 20
-402.6317240152065
 30
0.0
  0
VERTEX
  5
7A
330
76
100
AcDbEntity
  8
Layer 1
 62
   179
420
  2301728
370
    25
100
AcDbVertex
100
AcDb2dVertex
 10
-105.7785110016209
 20
-402.6317240152065
 30
0.0
  0
VERTEX
  5
7B
330
76
100
AcDbEntity
  8
Layer 1
 62
   179
420
  2301728
370
    25
100
AcDbVertex
100
AcDb2dVertex
 10
-105.7785110016209
 20
-420.8817240106448
 30
0.0
  0
SEQEND
  5
7C
330
76
100
AcDbEntity
  8
Layer 1
 62
   179
420
  2301728
370
    25
  0
POLYLINE
  5
7D
330
1F
100
AcDbEntity
  8
Layer 1
 62
   179
420
  2301728
370
    25
100
AcDb2dPolyline
 66
     1
 10
0.0
 20
0.0
 30
0.0
  0
VERTEX
  5
7E
330
7D
100
AcDbEntity
  8
Layer 1
 62
   179
420
  2301728
370
    25
100
AcDbVertex
100
AcDb2dVertex
 10
-285.7785109566214
 20
-420.8817240106448
 30
0.0
  0
VERTEX
  5
7F
330
7D
100
AcDbEntity
  8
Layer 1
 62
   179
420
  2301728
370
    25
100
AcDbVertex
100
AcDb2dVertex
 10
-375.7785109341195
 20
-420.8817240106448
 30
0.0
  0
VERTEX
  5
80
330
7D
100
AcDbEntity
  8
Layer 1
 62
   179
420
  2301728
370
    25
100
AcDbVertex
100
AcDb2dVertex
 10
-375.7785109341195
 20
-402.6317240152065
 30
0.0
  0
VERTEX
  5
81
330
7D
100
AcDbEntity
  8
Layer 1
 62
   179
420
  2301728
370
    25
100
AcDbVertex
100
AcDb2dVertex
 10
-285.7785109566214
 20
-402.6317240152065
 30
0.0
  0
VERTEX
  5
82
330
7D
100
AcDbEntity
  8
Layer 1
 62
   179
420
  2301728
370
    25
100
AcDbVertex
100
AcDb2dVertex
 10
-285.7785109566214
 20
-420.8817240106448
 30
0.0
  0
SEQEND
  5
83
330
7D
100
AcDbEntity
  8
Layer 1
 62
   179
420
  2301728
370
    25
  0
INSERT
  5
85
330
1F
100
AcDbEntity
  8
Layer 1
100
AcDbBlockReference
  2
block 2
 10
0.0
 20
0.0
 30
0.0
  0
SPLINE
  5
96
330
1F
100
AcDbEntity
  8
Layer 1
 62
   179
420
  2301728
370
    25
100
AcDbSpline
210
0.0
220
0.0
230
1.0
 70
    11
 71
     3
 72
    89
 73
    85
 74
     0
 42
0.0000000001
 43
0.0000000001
 12
1.0
 22
0.0
 32
0.0
 13
1.0
 23
0.0
 33
0.0
 40
0.0
 40
0.0
 40
0.0
 40
0.0
 40
1.0
 40
1.0
 40
1.0
 40
2.0
 40
2.0
 40
2.0
 40
3.0
 40
3.0
 40
3.0
 40
4.0
 40
4.0
 40
4.0
 40
5.0
 40
5.0
 40
5.0
 40
6.0
 40
6.0
 40
6.0
 40
7.0
 40
7.0
 40
7.0
 40
8.0
 40
8.0
 40
8.0
 40
9.0
 40
9.0
 40
9.0
 40
10.0
 40
10.0
 40
10.0
 40
11.0
 40
11.0
 40
11.0
 40
12.0
 40
12.0
 40
12.0
 40
13.0
 40
13.0
 40
13.0
 40
14.0
 40
14.0
 40
14.0
 40
15.0
 40
15.0
 40
15.0
 40
16.0
 40
16.0
 40
16.0
 40
17.0
 40
17.0
 40
17.0
 40
18.0
 40
18.0
 40
18.0
 40
19.0
 40
19.0
 40
19.0
 40
20.0
 40
20.0
 40
20.0
 40
21.0
 40
21.0
 40
21.0
 40
22.0
 40
22.0
 40
22.0
 40
23.0
 40
23.0
 40
23.0
 40
24.0
 40
24.0
 40
24.0
 40
25.0
 40
25.0
 40
25.0
 40
26.0
 40
26.0
 40
26.0
 40
27.0
 40
27.0
 40
27.0
 40
28.0
 40
28.0
 40
28.0
 40
28.0
 10
-109.9858653380779
 20
758.5366637130666
 30
0.0
 10
-109.9858653380779
 20
758.5366637130666
 30
0.0
 10
-109.9858653380779
 20
776.786712536629
 30
0.0
 10
-109.9858653380779
 20
776.786712536629
 30
0.0
 10
-109.9858653380779
 20
776.786712536629
 30
0.0
 10
-109.9858653380779
 20
786.1355820275663
 30
0.0
 10
-109.9858653380779
 20
786.1355820275663
 30
0.0
 10
-109.9858653380779
 20
808.2269984445676
 30
0.0
 10
-127.894419071665
 20
826.1355521781567
 30
0.0
 10
-149.9857493612811
 20
826.1355521781567
 30
0.0
 10
-149.9857493612811
 20
826.1355521781567
 30
0.0
 10
-149.9858354886682
 20
826.1355521781567
 30
0.0
 10
-149.9858354886682
 20
826.1355521781567
 30
0.0
 10
-172.0772519056714
 20
826.1355521781567
 30
0.0
 10
-189.9858056392585
 20
808.2269984445676
 30
0.0
 10
-189.9858056392585
 20
786.1355820275663
 30
0.0
 10
-189.9858056392585
 20
786.1355820275663
 30
0.0
 10
-189.9858056392585
 20
776.786712536629
 30
0.0
 10
-189.9858056392585
 20
776.786712536629
 30
0.0
 10
-189.9858056392585
 20
776.786712536629
 30
0.0
 10
-189.9858056392585
 20
758.5366637130666
 30
0.0
 10
-189.9858056392585
 20
758.5366637130666
 30
0.0
 10
-189.9858056392585
 20
758.5366637130666
 30
0.0
 10
-208.45504866307
 20
758.5366637130666
 30
0.0
 10
-208.45504866307
 20
758.5366637130666
 30
0.0
 10
-208.45504866307
 20
758.5366637130666
 30
0.0
 10
-208.45504866307
 20
665.7186427673057
 30
0.0
 10
-208.45504866307
 20
665.7186427673057
 30
0.0
 10
-208.45504866307
 20
661.9110371096189
 30
0.0
 10
-205.7714054074475
 20
658.631004761805
 30
0.0
 10
-202.0391612135021
 20
657.8770456148582
 30
0.0
 10
-202.0391612135021
 20
657.8770456148582
 30
0.0
 10
-156.0578162814211
 20
648.5884222312236
 30
0.0
 10
-156.0578162814211
 20
648.5884222312236
 30
0.0
 10
-145.9029667017115
 20
646.5370401245316
 30
0.0
 10
-138.6011729481116
 20
637.6126925247662
 30
0.0
 10
-138.6011729481116
 20
627.252730572601
 30
0.0
 10
-138.6011729481116
 20
627.252730572601
 30
0.0
 10
-138.6011729481116
 20
-112.2766769980489
 30
0.0
 10
-138.6011729481116
 20
-112.2766769980489
 30
0.0
 10
-138.6011729481116
 20
-122.6366389502119
 30
0.0
 10
-145.9029667017115
 20
-131.5609865499773
 30
0.0
 10
-156.0578162814211
 20
-133.6123471248222
 30
0.0
 10
-156.0578162814211
 20
-133.6123471248222
 30
0.0
 10
-202.0391612135021
 20
-142.9009920403061
 30
0.0
 10
-202.0391612135021
 20
-142.9009920403061
 30
0.0
 10
-205.7714054074475
 20
-143.654951187253
 30
0.0
 10
-208.45504866307
 20
-146.9349404713722
 30
0.0
 10
-208.45504866307
 20
-150.742589192751
 30
0.0
 10
-208.45504866307
 20
-150.742589192751
 30
0.0
 10
-208.45504866307
 20
-243.5606532022071
 30
0.0
 10
-208.45504866307
 20
-243.5606532022071
 30
0.0
 10
-208.45504866307
 20
-243.5606532022071
 30
0.0
 10
-189.9858056392585
 20
-243.5606532022071
 30
0.0
 10
-189.9858056392585
 20
-243.5606532022071
 30
0.0
 10
-189.9858056392585
 20
-243.5606532022071
 30
0.0
 10
-189.9858056392585
 20
-261.810658962076
 30
0.0
 10
-189.9858056392585
 20
-261.810658962076
 30
0.0
 10
-189.9858056392585
 20
-261.810658962076
 30
0.0
 10
-189.9858056392585
 20
-271.1595715167049
 30
0.0
 10
-189.9858056392585
 20
-271.1595715167049
 30
0.0
 10
-189.9858056392585
 20
-293.2509448700146
 30
0.0
 10
-172.0772519056714
 20
-311.1595416672952
 30
0.0
 10
-149.9858354886682
 20
-311.1595416672952
 30
0.0
 10
-149.9858354886682
 20
-311.1595416672952
 30
0.0
 10
-149.9857493612811
 20
-311.1595416672952
 30
0.0
 10
-149.9857493612811
 20
-311.1595416672952
 30
0.0
 10
-127.894419071665
 20
-311.1595416672952
 30
0.0
 10
-109.9858653380779
 20
-293.2509448700146
 30
0.0
 10
-109.9858653380779
 20
-271.1595715167049
 30
0.0
 10
-109.9858653380779
 20
-271.1595715167049
 30
0.0
 10
-109.9858653380779
 20
-261.810658962076
 30
0.0
 10
-109.9858653380779
 20
-261.810658962076
 30
0.0
 10
-109.9858653380779
 20
-261.810658962076
 30
0.0
 10
-109.9858653380779
 20
-243.5606532022071
 30
0.0
 10
-109.9858653380779
 20
-243.5606532022071
 30
0.0
 10
-109.9858653380779
 20
-243.5606532022071
 30
0.0
 10
-91.51653618687929
 20
-243.5606532022071
 30
0.0
 10
-91.51653618687929
 20
-243.5606532022071
 30
0.0
 10
-91.51653618687929
 20
-243.5606532022071
 30
0.0
 10
-91.51653618687929
 20
758.5366637130666
 30
0.0
 10
-91.51653618687929
 20
758.5366637130666
 30
0.0
 10
-91.51653618687929
 20
758.5366637130666
 30
0.0
 10
-109.9858653380779
 20
758.5366637130666
 30
0.0
 10
-109.9858653380779
 20
758.5366637130666
 30
0.0
  0
POLYLINE
  5
97
330
1F
100
AcDbEntity
  8
Layer 1
 62
   179
420
  2301728
370
    25
100
AcDb2dPolyline
 66
     1
 10
0.0
 20
0.0
 30
0.0
  0
VERTEX
  5
98
330
97
100
AcDbEntity
  8
Layer 1
 62
   179
420
  2301728
370
    25
100
AcDbVertex
100
AcDb2dVertex
 10
-140.8608230805991
 20
808.6721455540013
 30
0.0
  0
VERTEX
  5
99
330
97
100
AcDbEntity
  8
Layer 1
 62
   179
420
  2301728
370
    25
100
AcDbVertex
100
AcDb2dVertex
 10
-159.1108230760367
 20
808.6721455540013
 30
0.0
  0
VERTEX
  5
9A
330
97
100
AcDbEntity
  8
Layer 1
 62
   179
420
  2301728
370
    25
100
AcDbVertex
100
AcDb2dVertex
 10
-159.1108230760367
 20
790.4221455585665
 30
0.0
  0
VERTEX
  5
9B
330
97
100
AcDbEntity
  8
Layer 1
 62
   179
420
  2301728
370
    25
100
AcDbVertex
100
AcDb2dVertex
 10
-140.8608230805991
 20
790.4221455585665
 30
0.0
  0
VERTEX
  5
9C
330
97
100
AcDbEntity
  8
Layer 1
 62
   179
420
  2301728
370
    25
100
AcDbVertex
100
AcDb2dVertex
 10
-140.8608230805991
 20
808.6721455540013
 30
0.0
  0
SEQEND
  5
9D
330
97
100
AcDbEntity
  8
Layer 1
 62
   179
420
  2301728
370
    25
  0
POLYLINE
  5
9E
330
1F
100
AcDbEntity
  8
Layer 1
 62
   179
420
  2301728
370
    25
100
AcDb2dPolyline
 66
     1
 10
0.0
 20
0.0
 30
0.0
  0
VERTEX
  5
9F
330
9E
100
AcDbEntity
  8
Layer 1
 62
   179
420
  2301728
370
    25
100
AcDbVertex
100
AcDb2dVertex
 10
-159.1108230760361
 20
-293.6961162138279
 30
0.0
  0
VERTEX
  5
A0
330
9E
100
AcDbEntity
  8
Layer 1
 62
   179
420
  2301728
370
    25
100
AcDbVertex
100
AcDb2dVertex
 10
-140.8608230805991
 20
-293.6961162138279
 30
0.0
  0
VERTEX
  5
A1
330
9E
100
AcDbEntity
  8
Layer 1
 62
   179
420
  2301728
370
    25
100
AcDbVertex
100
AcDb2dVertex
 10
-140.8608230805991
 20
-275.4461162183902
 30
0.0
  0
VERTEX
  5
A2
330
9E
100
AcDbEntity
  8
Layer 1
 62
   179
420
  2301728
370
    25
100
AcDbVertex
100
AcDb2dVertex
 10
-159.1108230760361
 20
-275.4461162183902
 30
0.0
  0
VERTEX
  5
A3
330
9E
100
AcDbEntity
  8
Layer 1
 62
   179
420
  2301728
370
    25
100
AcDbVertex
100
AcDb2dVertex
 10
-159.1108230760361
 20
-293.6961162138279
 30
0.0
  0
SEQEND
  5
A4
330
9E
100
AcDbEntity
  8
Layer 1
 62
   179
420
  2301728
370
    25
  0
SPLINE
  5
A5
330
1F
100
AcDbEntity
  8
Layer 1
 62
   179
420
  2301728
370
    25
100
AcDbSpline
210
0.0
220
0.0
230
1.0
 70
    11
 71
     3
 72
    89
 73
    85
 74
     0
 42
0.0000000001
 43
0.0000000001
 12
1.0
 22
0.0
 32
0.0
 13
1.0
 23
0.0
 33
0.0
 40
0.0
 40
0.0
 40
0.0
 40
0.0
 40
1.0
 40
1.0
 40
1.0
 40
2.0
 40
2.0
 40
2.0
 40
3.0
 40
3.0
 40
3.0
 40
4.0
 40
4.0
 40
4.0
 40
5.0
 40
5.0
 40
5.0
 40
6.0
 40
6.0
 40
6.0
 40
7.0
 40
7.0
 40
7.0
 40
8.0
 40
8.0
 40
8.0
 40
9.0
 40
9.0
 40
9.0
 40
10.0
 40
10.0
 40
10.0
 40
11.0
 40
11.0
 40
11.0
 40
12.0
 40
12.0
 40
12.0
 40
13.0
 40
13.0
 40
13.0
 40
14.0
 40
14.0
 40
14.0
 40
15.0
 40
15.0
 40
15.0
 40
16.0
 40
16.0
 40
16.0
 40
17.0
 40
17.0
 40
17.0
 40
18.0
 40
18.0
 40
18.0
 40
19.0
 40
19.0
 40
19.0
 40
20.0
 40
20.0
 40
20.0
 40
21.0
 40
21.0
 40
21.0
 40
22.0
 40
22.0
 40
22.0
 40
23.0
 40
23.0
 40
23.0
 40
24.0
 40
24.0
 40
24.0
 40
25.0
 40
25.0
 40
25.0
 40
26.0
 40
26.0
 40
26.0
 40
27.0
 40
27.0
 40
27.0
 40
28.0
 40
28.0
 40
28.0
 40
28.0
 10
-371.5711565976641
 20
-243.5606532022071
 30
0.0
 10
-371.5711565976641
 20
-243.5606532022071
 30
0.0
 10
-371.5711565976641
 20
-261.8107020257696
 30
0.0
 10
-371.5711565976641
 20
-261.8107020257696
 30
0.0
 10
-371.5711565976641
 20
-261.8107020257696
 30
0.0
 10
-371.5711565976641
 20
-271.1595715167049
 30
0.0
 10
-371.5711565976641
 20
-271.1595715167049
 30
0.0
 10
-371.5711565976641
 20
-293.2509879337081
 30
0.0
 10
-353.6626028640787
 20
-311.1595416672952
 30
0.0
 10
-331.571272574461
 20
-311.1595416672952
 30
0.0
 10
-331.571272574461
 20
-311.1595416672952
 30
0.0
 10
-331.5711864470738
 20
-311.1595416672952
 30
0.0
 10
-331.5711864470738
 20
-311.1595416672952
 30
0.0
 10
-309.4797700300707
 20
-311.1595416672952
 30
0.0
 10
-291.5712162964836
 20
-293.2509879337081
 30
0.0
 10
-291.5712162964836
 20
-271.1595715167049
 30
0.0
 10
-291.5712162964836
 20
-271.1595715167049
 30
0.0
 10
-291.5712162964836
 20
-261.8107020257696
 30
0.0
 10
-291.5712162964836
 20
-261.8107020257696
 30
0.0
 10
-291.5712162964836
 20
-261.8107020257696
 30
0.0
 10
-291.5712162964836
 20
-243.5606532022071
 30
0.0
 10
-291.5712162964836
 20
-243.5606532022071
 30
0.0
 10
-291.5712162964836
 20
-243.5606532022071
 30
0.0
 10
-273.1019732726721
 20
-243.5606532022071
 30
0.0
 10
-273.1019732726721
 20
-243.5606532022071
 30
0.0
 10
-273.1019732726721
 20
-243.5606532022071
 30
0.0
 10
-273.1019732726721
 20
-150.7426322564446
 30
0.0
 10
-273.1019732726721
 20
-150.7426322564446
 30
0.0
 10
-273.1019732726721
 20
-146.9350265987594
 30
0.0
 10
-275.7856165282946
 20
-143.6549942509469
 30
0.0
 10
-279.51786072224
 20
-142.9010351039999
 30
0.0
 10
-279.51786072224
 20
-142.9010351039999
 30
0.0
 10
-325.499205654321
 20
-133.6124117203626
 30
0.0
 10
-325.499205654321
 20
-133.6124117203626
 30
0.0
 10
-335.6540552340306
 20
-131.5610296136706
 30
0.0
 10
-342.9558489876305
 20
-122.6366820139051
 30
0.0
 10
-342.9558489876305
 20
-112.2767200617428
 30
0.0
 10
-342.9558489876305
 20
-112.2767200617428
 30
0.0
 10
-342.9558489876305
 20
627.2526875089084
 30
0.0
 10
-342.9558489876305
 20
627.2526875089084
 30
0.0
 10
-342.9558489876305
 20
637.6126494610701
 30
0.0
 10
-335.6540552340306
 20
646.5369970608355
 30
0.0
 10
-325.499205654321
 20
648.588357635683
 30
0.0
 10
-325.499205654321
 20
648.588357635683
 30
0.0
 10
-279.51786072224
 20
657.8770025511656
 30
0.0
 10
-279.51786072224
 20
657.8770025511656
 30
0.0
 10
-275.7856165282946
 20
658.6309616981124
 30
0.0
 10
-273.1019732726721
 20
661.9109509822333
 30
0.0
 10
-273.1019732726721
 20
665.7185997036095
 30
0.0
 10
-273.1019732726721
 20
665.7185997036095
 30
0.0
 10
-273.1019732726721
 20
758.5366637130666
 30
0.0
 10
-273.1019732726721
 20
758.5366637130666
 30
0.0
 10
-273.1019732726721
 20
758.5366637130666
 30
0.0
 10
-291.5712162964836
 20
758.5366637130666
 30
0.0
 10
-291.5712162964836
 20
758.5366637130666
 30
0.0
 10
-291.5712162964836
 20
758.5366637130666
 30
0.0
 10
-291.5712162964836
 20
776.7866694729362
 30
0.0
 10
-291.5712162964836
 20
776.7866694729362
 30
0.0
 10
-291.5712162964836
 20
776.7866694729362
 30
0.0
 10
-291.5712162964836
 20
786.1355820275663
 30
0.0
 10
-291.5712162964836
 20
786.1355820275663
 30
0.0
 10
-291.5712162964836
 20
808.2269553808746
 30
0.0
 10
-309.4797700300707
 20
826.1355521781567
 30
0.0
 10
-331.5711864470738
 20
826.1355521781567
 30
0.0
 10
-331.5711864470738
 20
826.1355521781567
 30
0.0
 10
-331.571272574461
 20
826.1355521781567
 30
0.0
 10
-331.571272574461
 20
826.1355521781567
 30
0.0
 10
-353.6626028640787
 20
826.1355521781567
 30
0.0
 10
-371.5711565976641
 20
808.2269553808746
 30
0.0
 10
-371.5711565976641
 20
786.1355820275663
 30
0.0
 10
-371.5711565976641
 20
786.1355820275663
 30
0.0
 10
-371.5711565976641
 20
776.7866694729362
 30
0.0
 10
-371.5711565976641
 20
776.7866694729362
 30
0.0
 10
-371.5711565976641
 20
776.7866694729362
 30
0.0
 10
-371.5711565976641
 20
758.5366637130666
 30
0.0
 10
-371.5711565976641
 20
758.5366637130666
 30
0.0
 10
-371.5711565976641
 20
758.5366637130666
 30
0.0
 10
-390.0404857488628
 20
758.5366637130666
 30
0.0
 10
-390.0404857488628
 20
758.5366637130666
 30
0.0
 10
-390.0404857488628
 20
758.5366637130666
 30
0.0
 10
-390.0404857488628
 20
-243.5606532022071
 30
0.0
 10
-390.0404857488628
 20
-243.5606532022071
 30
0.0
 10
-390.0404857488628
 20
-243.5606532022071
 30
0.0
 10
-371.5711565976641
 20
-243.5606532022071
 30
0.0
 10
-371.5711565976641
 20
-243.5606532022071
 30
0.0
  0
POLYLINE
  5
A6
330
1F
100
AcDbEntity
  8
Layer 1
 62
   179
420
  2301728
370
    25
100
AcDb2dPolyline
 66
     1
 10
0.0
 20
0.0
 30
0.0
  0
VERTEX
  5
A7
330
A6
100
AcDbEntity
  8
Layer 1
 62
   179
420
  2301728
370
    25
100
AcDbVertex
100
AcDb2dVertex
 10
-340.6961988551424
 20
-293.6961350431425
 30
0.0
  0
VERTEX
  5
A8
330
A6
100
AcDbEntity
  8
Layer 1
 62
   179
420
  2301728
370
    25
100
AcDbVertex
100
AcDb2dVertex
 10
-322.4461988597054
 20
-293.6961350431425
 30
0.0
  0
VERTEX
  5
A9
330
A6
100
AcDbEntity
  8
Layer 1
 62
   179
420
  2301728
370
    25
100
AcDbVertex
100
AcDb2dVertex
 10
-322.4461988597054
 20
-275.4461350477048
 30
0.0
  0
VERTEX
  5
AA
330
A6
100
AcDbEntity
  8
Layer 1
 62
   179
420
  2301728
370
    25
100
AcDbVertex
100
AcDb2dVertex
 10
-340.6961988551424
 20
-275.4461350477048
 30
0.0
  0
VERTEX
  5
AB
330
A6
100
AcDbEntity
  8
Layer 1
 62
   179
420
  2301728
370
    25
100
AcDbVertex
100
AcDb2dVertex
 10
-340.6961988551424
 20
-293.6961350431425
 30
0.0
  0
SEQEND
  5
AC
330
A6
100
AcDbEntity
  8
Layer 1
 62
   179
420
  2301728
370
    25
  0
POLYLINE
  5
AD
330
1F
100
AcDbEntity
  8
Layer 1
 62
   179
420
  2301728
370
    25
100
AcDb2dPolyline
 66
     1
 10
0.0
 20
0.0
 30
0.0
  0
VERTEX
  5
AE
330
AD
100
AcDbEntity
  8
Layer 1
 62
   179
420
  2301728
370
    25
100
AcDbVertex
100
AcDb2dVertex
 10
-322.4461988597054
 20
808.6721267246886
 30
0.0
  0
VERTEX
  5
AF
330
AD
100
AcDbEntity
  8
Layer 1
 62
   179
420
  2301728
370
    25
100
AcDbVertex
100
AcDb2dVertex
 10
-340.6961988551431
 20
808.6721267246886
 30
0.0
  0
VERTEX
  5
B0
330
AD
100
AcDbEntity
  8
Layer 1
 62
   179
420
  2301728
370
    25
100
AcDbVertex
100
AcDb2dVertex
 10
-340.6961988551431
 20
790.4221267292503
 30
0.0
  0
VERTEX
  5
B1
330
AD
100
AcDbEntity
  8
Layer 1
 62
   179
420
  2301728
370
    25
100
AcDbVertex
100
AcDb2dVertex
 10
-322.4461988597054
 20
790.4221267292503
 30
0.0
  0
VERTEX
  5
B2
330
AD
100
AcDbEntity
  8
Layer 1
 62
   179
420
  2301728
370
    25
100
AcDbVertex
100
AcDb2dVertex
 10
-322.4461988597054
 20
808.6721267246886
 30
0.0
  0
SEQEND
  5
B3
330
AD
100
AcDbEntity
  8
Layer 1
 62
   179
420
  2301728
370
    25
  0
POLYLINE
  5
B4
330
1F
100
AcDbEntity
  8
Layer 1
 62
   179
420
  2301728
370
    25
100
AcDb2dPolyline
 66
     1
 10
0.0
 20
0.0
 30
0.0
  0
VERTEX
  5
B5
330
B4
100
AcDbEntity
  8
Layer 1
 62
   179
420
  2301728
370
    25
100
AcDbVertex
100
AcDb2dVertex
 10
-73.13264317463174
 20
990.6832740938869
 30
0.0
  0
VERTEX
  5
B6
330
B4
100
AcDbEntity
  8
Layer 1
 62
   179
420
  2301728
370
    25
100
AcDbVertex
100
AcDb2dVertex
 10
-73.13264317463174
 20
910.6832741138859
 30
0.0
  0
VERTEX
  5
B7
330
B4
100
AcDbEntity
  8
Layer 1
 62
   179
420
  2301728
370
    25
100
AcDbVertex
100
AcDb2dVertex
 10
-54.88264317919374
 20
910.6832741138859
 30
0.0
  0
VERTEX
  5
B8
330
B4
100
AcDbEntity
  8
Layer 1
 62
   179
420
  2301728
370
    25
100
AcDbVertex
100
AcDb2dVertex
 10
-54.88264317919374
 20
990.6832740938869
 30
0.0
  0
VERTEX
  5
B9
330
B4
100
AcDbEntity
  8
Layer 1
 62
   179
420
  2301728
370
    25
100
AcDbVertex
100
AcDb2dVertex
 10
-73.13264317463174
 20
990.6832740938869
 30
0.0
  0
SEQEND
  5
BA
330
B4
100
AcDbEntity
  8
Layer 1
 62
   179
420
  2301728
370
    25
  0
SPLINE
  5
BB
330
1F
100
AcDbEntity
  8
Layer 1
 62
   179
420
  2301728
370
    25
100
AcDbSpline
210
0.0
220
0.0
230
1.0
 70
    11
 71
     3
 72
    29
 73
    25
 74
     0
 42
0.0000000001
 43
0.0000000001
 12
1.0
 22
0.0
 32
0.0
 13
1.0
 23
0.0
 33
0.0
 40
0.0
 40
0.0
 40
0.0
 40
0.0
 40
1.0
 40
1.0
 40
1.0
 40
2.0
 40
2.0
 40
2.0
 40
3.0
 40
3.0
 40
3.0
 40
4.0
 40
4.0
 40
4.0
 40
5.0
 40
5.0
 40
5.0
 40
6.0
 40
6.0
 40
6.0
 40
7.0
 40
7.0
 40
7.0
 40
8.0
 40
8.0
 40
8.0
 40
8.0
 10
-261.8574459113578
 20
456.0911923842777
 30
0.0
 10
-261.8574459113578
 20
456.0911923842777
 30
0.0
 10
-261.8574459146359
 20
45.38051330177952
 30
0.0
 10
-261.8574459146359
 20
45.38051330177952
 30
0.0
 10
-261.857445914676
 20
40.34092000395929
 30
0.0
 10
-265.9428434841365
 20
36.25552243596452
 30
0.0
 10
-270.9824367819567
 20
36.25552243773208
 30
0.0
 10
-270.9824367819567
 20
36.25552243773208
 30
0.0
 10
-270.9824550319704
 20
36.25552243773208
 30
0.0
 10
-270.9824550319704
 20
36.25552243773208
 30
0.0
 10
-276.0220483357174
 20
36.25552243949932
 30
0.0
 10
-280.1074459081075
 20
40.34092001328831
 30
0.0
 10
-280.1074459081491
 20
45.38051331703527
 30
0.0
 10
-280.1074459081491
 20
45.38051331703527
 30
0.0
 10
-280.1074459115601
 20
456.0911923767673
 30
0.0
 10
-280.1074459115601
 20
456.0911923767673
 30
0.0
 10
-280.1074459116018
 20
461.1307856817498
 30
0.0
 10
-276.0220483371314
 20
465.2161832560047
 30
0.0
 10
-270.9824550321472
 20
465.2161832556976
 30
0.0
 10
-270.9824550321472
 20
465.2161832556976
 30
0.0
 10
-270.9824367821473
 20
465.2161832556976
 30
0.0
 10
-270.9824367821473
 20
465.2161832556976
 30
0.0
 10
-265.9428434817465
 20
465.2161832553874
 30
0.0
 10
-261.8574459113174
 20
461.1307856846779
 30
0.0
 10
-261.8574459113578
 20
456.0911923842777
 30
0.0
  0
SPLINE
  5
BC
330
1F
100
AcDbEntity
  8
Layer 1
 62
   179
420
  2301728
370
    25
100
AcDbSpline
210
0.0
220
0.0
230
1.0
 70
    11
 71
     3
 72
    29
 73
    25
 74
     0
 42
0.0000000001
 43
0.0000000001
 12
1.0
 22
0.0
 32
0.0
 13
1.0
 23
0.0
 33
0.0
 40
0.0
 40
0.0
 40
0.0
 40
0.0
 40
1.0
 40
1.0
 40
1.0
 40
2.0
 40
2.0
 40
2.0
 40
3.0
 40
3.0
 40
3.0
 40
4.0
 40
4.0
 40
4.0
 40
5.0
 40
5.0
 40
5.0
 40
6.0
 40
6.0
 40
6.0
 40
7.0
 40
7.0
 40
7.0
 40
8.0
 40
8.0
 40
8.0
 40
8.0
 10
-201.4495760241817
 20
456.0911923842777
 30
0.0
 10
-201.4495760241817
 20
456.0911923842777
 30
0.0
 10
-201.4495760274601
 20
45.38051330177952
 30
0.0
 10
-201.4495760274601
 20
45.38051330177952
 30
0.0
 10
-201.4495760275005
 20
40.34092000395929
 30
0.0
 10
-205.5349735969606
 20
36.25552243596452
 30
0.0
 10
-210.5745668947808
 20
36.25552243773208
 30
0.0
 10
-210.5745668947808
 20
36.25552243773208
 30
0.0
 10
-210.5745851447946
 20
36.25552243773208
 30
0.0
 10
-210.5745851447946
 20
36.25552243773208
 30
0.0
 10
-215.6141784485415
 20
36.25552243949932
 30
0.0
 10
-219.6995760209316
 20
40.34092001328831
 30
0.0
 10
-219.6995760209733
 20
45.38051331703527
 30
0.0
 10
-219.6995760209733
 20
45.38051331703527
 30
0.0
 10
-219.6995760243843
 20
456.0911923767673
 30
0.0
 10
-219.6995760243843
 20
456.0911923767673
 30
0.0
 10
-219.699576024426
 20
461.1307856817498
 30
0.0
 10
-215.6141784499555
 20
465.2161832560047
 30
0.0
 10
-210.5745851449717
 20
465.2161832556976
 30
0.0
 10
-210.5745851449717
 20
465.2161832556976
 30
0.0
 10
-210.5745668949714
 20
465.2161832556976
 30
0.0
 10
-210.5745668949714
 20
465.2161832556976
 30
0.0
 10
-205.5349735945709
 20
465.2161832553874
 30
0.0
 10
-201.4495760241419
 20
461.1307856846779
 30
0.0
 10
-201.4495760241817
 20
456.0911923842777
 30
0.0
  0
POLYLINE
  5
BD
330
1F
100
AcDbEntity
  8
Layer 1
 62
   179
420
  2301728
370
    25
100
AcDb2dPolyline
 66
     1
 10
0.0
 20
0.0
 30
0.0
  0
VERTEX
  5
BE
330
BD
100
AcDbEntity
  8
Layer 1
 62
   179
420
  2301728
370
    25
100
AcDbVertex
100
AcDb2dVertex
 10
625.785592767231
 20
-529.7919083012549
 30
0.0
  0
VERTEX
  5
BF
330
BD
100
AcDbEntity
  8
Layer 1
 62
   179
420
  2301728
370
    25
100
AcDbVertex
100
AcDb2dVertex
 10
625.785592767231
 20
-511.5419083058166
 30
0.0
  0
VERTEX
  5
C0
330
BD
100
AcDbEntity
  8
Layer 1
 62
   179
420
  2301728
370
    25
100
AcDbVertex
100
AcDb2dVertex
 10
545.7855927872299
 20
-511.5419083058166
 30
0.0
  0
VERTEX
  5
C1
330
BD
100
AcDbEntity
  8
Layer 1
 62
   179
420
  2301728
370
    25
100
AcDbVertex
100
AcDb2dVertex
 10
545.7855927872299
 20
-529.7919083012549
 30
0.0
  0
VERTEX
  5
C2
330
BD
100
AcDbEntity
  8
Layer 1
 62
   179
420
  2301728
370
    25
100
AcDbVertex
100
AcDb2dVertex
 10
625.785592767231
 20
-529.7919083012549
 30
0.0
  0
SEQEND
  5
C3
330
BD
100
AcDbEntity
  8
Layer 1
 62
   179
420
  2301728
370
    25
  0
SPLINE
  5
C4
330
1F
100
AcDbEntity
  8
Layer 1
 62
   179
420
  2301728
370
    25
100
AcDbSpline
210
0.0
220
0.0
230
1.0
 70
    11
 71
     3
 72
    23
 73
    19
 74
     0
 42
0.0000000001
 43
0.0000000001
 12
1.0
 22
0.0
 32
0.0
 13
1.0
 23
0.0
 33
0.0
 40
0.0
 40
0.0
 40
0.0
 40
0.0
 40
1.0
 40
1.0
 40
1.0
 40
2.0
 40
2.0
 40
2.0
 40
3.0
 40
3.0
 40
3.0
 40
4.0
 40
4.0
 40
4.0
 40
5.0
 40
5.0
 40
5.0
 40
6.0
 40
6.0
 40
6.0
 40
6.0
 10
585.7856327772301
 20
-442.4846999201066
 30
0.0
 10
585.7856327772301
 20
-442.4846999201066
 30
0.0
 10
585.7855527772315
 20
-442.4846999201066
 30
0.0
 10
585.7855527772315
 20
-442.4846999201066
 30
0.0
 10
563.6941848809112
 20
-442.4846999201066
 30
0.0
 10
545.7855927872299
 20
-460.3932920137878
 30
0.0
 10
545.7855927872299
 20
-482.484659910108
 30
0.0
 10
545.7855927872299
 20
-482.484659910108
 30
0.0
 10
545.7855927872299
 20
-491.8335749774116
 30
0.0
 10
545.7855927872299
 20
-491.8335749774116
 30
0.0
 10
545.7855927872299
 20
-491.8335749774116
 30
0.0
 10
625.785592767231
 20
-491.8335749774116
 30
0.0
 10
625.785592767231
 20
-491.8335749774116
 30
0.0
 10
625.785592767231
 20
-491.8335749774116
 30
0.0
 10
625.785592767231
 20
-482.484659910108
 30
0.0
 10
625.785592767231
 20
-482.484659910108
 30
0.0
 10
625.785592767231
 20
-460.3932920137878
 30
0.0
 10
607.8770006735498
 20
-442.4846999201066
 30
0.0
 10
585.7856327772301
 20
-442.4846999201066
 30
0.0
  0
POLYLINE
  5
C5
330
1F
100
AcDbEntity
  8
Layer 1
 62
   179
420
  2301728
370
    25
100
AcDb2dPolyline
 66
     1
 10
0.0
 20
0.0
 30
0.0
  0
VERTEX
  5
C6
330
C5
100
AcDbEntity
  8
Layer 1
 62
   179
420
  2301728
370
    25
100
AcDbVertex
100
AcDb2dVertex
 10
594.91059277495
 20
-459.9481240784179
 30
0.0
  0
VERTEX
  5
C7
330
C5
100
AcDbEntity
  8
Layer 1
 62
   179
420
  2301728
370
    25
100
AcDbVertex
100
AcDb2dVertex
 10
576.660592779511
 20
-459.9481240784179
 30
0.0
  0
VERTEX
  5
C8
330
C5
100
AcDbEntity
  8
Layer 1
 62
   179
420
  2301728
370
    25
100
AcDbVertex
100
AcDb2dVertex
 10
576.660592779511
 20
-478.1981240738563
 30
0.0
  0
VERTEX
  5
C9
330
C5
100
AcDbEntity
  8
Layer 1
 62
   179
420
  2301728
370
    25
100
AcDbVertex
100
AcDb2dVertex
 10
594.91059277495
 20
-478.1981240738563
 30
0.0
  0
VERTEX
  5
CA
330
C5
100
AcDbEntity
  8
Layer 1
 62
   179
420
  2301728
370
    25
100
AcDbVertex
100
AcDb2dVertex
 10
594.91059277495
 20
-459.9481240784179
 30
0.0
  0
SEQEND
  5
CB
330
C5
100
AcDbEntity
  8
Layer 1
 62
   179
420
  2301728
370
    25
  0
POLYLINE
  5
CC
330
1F
100
AcDbEntity
  8
Layer 1
 62
   179
420
  2301728
370
    25
100
AcDb2dPolyline
 66
     1
 10
0.0
 20
0.0
 30
0.0
  0
VERTEX
  5
CD
330
CC
100
AcDbEntity
  8
Layer 1
 62
   179
420
  2301728
370
    25
100
AcDbVertex
100
AcDb2dVertex
 10
558.7135748909049
 20
-957.6483212342162
 30
0.0
  0
VERTEX
  5
CE
330
CC
100
AcDbEntity
  8
Layer 1
 62
   179
420
  2301728
370
    25
100
AcDbVertex
100
AcDb2dVertex
 10
-441.1131186947291
 20
-957.6483212342162
 30
0.0
  0
VERTEX
  5
CF
330
CC
100
AcDbEntity
  8
Layer 1
 62
   179
420
  2301728
370
    25
100
AcDbVertex
100
AcDb2dVertex
 10
-441.1131186947291
 20
-1008.544181003395
 30
0.0
  0
VERTEX
  5
D0
330
CC
100
AcDbEntity
  8
Layer 1
 62
   179
420
  2301728
370
    25
100
AcDbVertex
100
AcDb2dVertex
 10
-459.3630813909064
 20
-1008.544181003395
 30
0.0
  0
VERTEX
  5
D1
330
CC
100
AcDbEntity
  8
Layer 1
 62
   179
420
  2301728
370
    25
100
AcDbVertex
100
AcDb2dVertex
 10
-459.3630813909064
 20
-1098.544156905918
 30
0.0
  0
VERTEX
  5
D2
330
CC
100
AcDbEntity
  8
Layer 1
 62
   179
420
  2301728
370
    25
100
AcDbVertex
100
AcDb2dVertex
 10
-441.1131186947291
 20
-1098.544156905918
 30
0.0
  0
VERTEX
  5
D3
330
CC
100
AcDbEntity
  8
Layer 1
 62
   179
420
  2301728
370
    25
100
AcDbVertex
100
AcDb2dVertex
 10
-441.1131186947291
 20
-1188.544132808437
 30
0.0
  0
VERTEX
  5
D4
330
CC
100
AcDbEntity
  8
Layer 1
 62
   179
420
  2301728
370
    25
100
AcDbVertex
100
AcDb2dVertex
 10
-459.3630813909064
 20
-1188.544132808437
 30
0.0
  0
VERTEX
  5
D5
330
CC
100
AcDbEntity
  8
Layer 1
 62
   179
420
  2301728
370
    25
100
AcDbVertex
100
AcDb2dVertex
 10
-459.3630813909064
 20
-1278.544151774652
 30
0.0
  0
VERTEX
  5
D6
330
CC
100
AcDbEntity
  8
Layer 1
 62
   179
420
  2301728
370
    25
100
AcDbVertex
100
AcDb2dVertex
 10
-441.1131186947291
 20
-1278.544151774652
 30
0.0
  0
VERTEX
  5
D7
330
CC
100
AcDbEntity
  8
Layer 1
 62
   179
420
  2301728
370
    25
100
AcDbVertex
100
AcDb2dVertex
 10
-441.1131186947291
 20
-1329.440011543831
 30
0.0
  0
VERTEX
  5
D8
330
CC
100
AcDbEntity
  8
Layer 1
 62
   179
420
  2301728
370
    25
100
AcDbVertex
100
AcDb2dVertex
 10
558.7135748909049
 20
-1329.440011543831
 30
0.0
  0
VERTEX
  5
D9
330
CC
100
AcDbEntity
  8
Layer 1
 62
   179
420
  2301728
370
    25
100
AcDbVertex
100
AcDb2dVertex
 10
558.7135748909049
 20
-1278.544151774652
 30
0.0
  0
VERTEX
  5
DA
330
CC
100
AcDbEntity
  8
Layer 1
 62
   179
420
  2301728
370
    25
100
AcDbVertex
100
AcDb2dVertex
 10
576.963580650775
 20
-1278.544151774652
 30
0.0
  0
VERTEX
  5
DB
330
CC
100
AcDbEntity
  8
Layer 1
 62
   179
420
  2301728
370
    25
100
AcDbVertex
100
AcDb2dVertex
 10
576.963580650775
 20
-1188.544132808437
 30
0.0
  0
VERTEX
  5
DC
330
CC
100
AcDbEntity
  8
Layer 1
 62
   179
420
  2301728
370
    25
100
AcDbVertex
100
AcDb2dVertex
 10
558.7135748909049
 20
-1188.544132808437
 30
0.0
  0
VERTEX
  5
DD
330
CC
100
AcDbEntity
  8
Layer 1
 62
   179
420
  2301728
370
    25
100
AcDbVertex
100
AcDb2dVertex
 10
558.7135748909049
 20
-1098.544156905918
 30
0.0
  0
VERTEX
  5
DE
330
CC
100
AcDbEntity
  8
Layer 1
 62
   179
420
  2301728
370
    25
100
AcDbVertex
100
AcDb2dVertex
 10
576.963580650775
 20
-1098.544156905918
 30
0.0
  0
VERTEX
  5
DF
330
CC
100
AcDbEntity
  8
Layer 1
 62
   179
420
  2301728
370
    25
100
AcDbVertex
100
AcDb2dVertex
 10
576.963580650775
 20
-1008.544181003395
 30
0.0
  0
VERTEX
  5
E0
330
CC
100
AcDbEntity
  8
Layer 1
 62
   179
420
  2301728
370
    25
100
AcDbVertex
100
AcDb2dVertex
 10
558.7135748909049
 20
-1008.544181003395
 30
0.0
  0
VERTEX
  5
E1
330
CC
100
AcDbEntity
  8
Layer 1
 62
   179
420
  2301728
370
    25
100
AcDbVertex
100
AcDb2dVertex
 10
558.7135748909049
 20
-957.6483212342162
 30
0.0
  0
SEQEND
  5
E2
330
CC
100
AcDbEntity
  8
Layer 1
 62
   179
420
  2301728
370
    25
  0
INSERT
  5
E4
330
1F
100
AcDbEntity
  8
Layer 1
100
AcDbBlockReference
  2
block 3
 10
0.0
 20
0.0
 30
0.0
  0
SPLINE
  5
F5
330
1F
100
AcDbEntity
  8
Layer 1
 62
   179
420
  2301728
370
    25
100
AcDbSpline
210
0.0
220
0.0
230
1.0
 70
    11
 71
     3
 72
    77
 73
    73
 74
     0
 42
0.0000000001
 43
0.0000000001
 12
1.0
 22
0.0
 32
0.0
 13
1.0
 23
0.0
 33
0.0
 40
0.0
 40
0.0
 40
0.0
 40
0.0
 40
1.0
 40
1.0
 40
1.0
 40
2.0
 40
2.0
 40
2.0
 40
3.0
 40
3.0
 40
3.0
 40
4.0
 40
4.0
 40
4.0
 40
5.0
 40
5.0
 40
5.0
 40
6.0
 40
6.0
 40
6.0
 40
7.0
 40
7.0
 40
7.0
 40
8.0
 40
8.0
 40
8.0
 40
9.0
 40
9.0
 40
9.0
 40
10.0
 40
10.0
 40
10.0
 40
11.0
 40
11.0
 40
11.0
 40
12.0
 40
12.0
 40
12.0
 40
13.0
 40
13.0
 40
13.0
 40
14.0
 40
14.0
 40
14.0
 40
15.0
 40
15.0
 40
15.0
 40
16.0
 40
16.0
 40
16.0
 40
17.0
 40
17.0
 40
17.0
 40
18.0
 40
18.0
 40
18.0
 40
19.0
 40
19.0
 40
19.0
 40
20.0
 40
20.0
 40
20.0
 40
21.0
 40
21.0
 40
21.0
 40
22.0
 40
22.0
 40
22.0
 40
23.0
 40
23.0
 40
23.0
 40
24.0
 40
24.0
 40
24.0
 40
24.0
 10
57.09972526555972
 20
1017.152577393766
 30
0.0
 10
57.09972526555972
 20
1017.152577393766
 30
0.0
 10
108.4963727272114
 20
1017.15257739146
 30
0.0
 10
108.4963727272114
 20
1017.15257739146
 30
0.0
 10
108.4963727272114
 20
1017.15257739146
 30
0.0
 10
108.496372726392
 20
998.9025285678971
 30
0.0
 10
108.496372726392
 20
998.9025285678971
 30
0.0
 10
108.496372726392
 20
998.9025285678971
 30
0.0
 10
198.4963701607605
 20
998.902528563854
 30
0.0
 10
198.4963701607605
 20
998.902528563854
 30
0.0
 10
198.4963701607605
 20
998.902528563854
 30
0.0
 10
198.4963701615799
 20
1017.152577387416
 30
0.0
 10
198.4963701615799
 20
1017.152577387416
 30
0.0
 10
198.4963701615799
 20
1017.152577387416
 30
0.0
 10
288.4963675959484
 20
1017.152577383377
 30
0.0
 10
288.4963675959484
 20
1017.152577383377
 30
0.0
 10
288.4963675959484
 20
1017.152577383377
 30
0.0
 10
288.496367595129
 20
998.9025285598149
 30
0.0
 10
288.496367595129
 20
998.9025285598149
 30
0.0
 10
288.496367595129
 20
998.9025285598149
 30
0.0
 10
378.4963865613443
 20
998.9025285557718
 30
0.0
 10
378.4963865613443
 20
998.9025285557718
 30
0.0
 10
378.4963865613443
 20
998.9025285557718
 30
0.0
 10
378.4963865621624
 20
1017.152577379334
 30
0.0
 10
378.4963865621624
 20
1017.152577379334
 30
0.0
 10
378.4963865621624
 20
1017.152577379334
 30
0.0
 10
429.8929909601225
 20
1017.152577377027
 30
0.0
 10
429.8929909601225
 20
1017.152577377027
 30
0.0
 10
451.2130935616725
 20
1017.152577376071
 30
0.0
 10
468.4964055276019
 20
999.8692223448937
 30
0.0
 10
468.4964055266457
 20
978.5490766796509
 30
0.0
 10
468.4964055266457
 20
978.5490766796509
 30
0.0
 10
468.4964054592859
 20
-521.7919019491702
 30
0.0
 10
468.4964054592859
 20
-521.7919019491702
 30
0.0
 10
468.496405459089
 20
-526.2101507816141
 30
0.0
 10
464.9147119376866
 20
-529.7918873663884
 30
0.0
 10
460.4964631052421
 20
-529.7918873661908
 30
0.0
 10
460.4964631052421
 20
-529.7918873661908
 30
0.0
 10
375.6783845131654
 20
-529.7918873623804
 30
0.0
 10
375.6783845131654
 20
-529.7918873623804
 30
0.0
 10
371.8707357917859
 20
-529.7918873622117
 30
0.0
 10
368.5907034440925
 20
-527.1082010427499
 30
0.0
 10
367.8367873610072
 20
-523.3759568487692
 30
0.0
 10
367.8367873610072
 20
-523.3759568487692
 30
0.0
 10
358.5481424475884
 20
-477.3946119162717
 30
0.0
 10
358.5481424475884
 20
-477.3946119162717
 30
0.0
 10
356.4967818731994
 20
-467.2398484638575
 30
0.0
 10
347.5724342737606
 20
-459.9379685824682
 30
0.0
 10
337.2124723215979
 20
-459.937968582003
 30
0.0
 10
337.2124723215979
 20
-459.937968582003
 30
0.0
 10
149.7802653032976
 20
-459.937968573589
 30
0.0
 10
149.7802653032976
 20
-459.937968573589
 30
0.0
 10
139.4203248829818
 20
-459.9379685731231
 30
0.0
 10
130.4959772828884
 20
-467.2398484537084
 30
0.0
 10
128.4445951757408
 20
-477.3946119059391
 30
0.0
 10
128.4445951757408
 20
-477.3946119059391
 30
0.0
 10
119.1559717900388
 20
-523.3759568376037
 30
0.0
 10
119.1559717900388
 20
-523.3759568376037
 30
0.0
 10
118.402012642925
 20
-527.108201031517
 30
0.0
 10
115.1220018268383
 20
-529.7918873506829
 30
0.0
 10
111.3143746373063
 20
-529.7918873505134
 30
0.0
 10
111.3143746373063
 20
-529.7918873505134
 30
0.0
 10
26.49629604522956
 20
-529.791887346707
 30
0.0
 10
26.49629604522956
 20
-529.791887346707
 30
0.0
 10
22.07802568093699
 20
-529.7918873465054
 30
0.0
 10
18.49628909616418
 20
-526.2101507614141
 30
0.0
 10
18.49628909636246
 20
-521.7919019289669
 30
0.0
 10
18.49628909636246
 20
-521.7919019289669
 30
0.0
 10
18.49628916372257
 20
978.5490766998545
 30
0.0
 10
18.49628916372257
 20
978.5490766998545
 30
0.0
 10
18.49628916467999
 20
999.8692223650974
 30
0.0
 10
35.77964419585719
 20
1017.152577394723
 30
0.0
 10
57.09972526555972
 20
1017.152577393766
 30
0.0
  0
POLYLINE
  5
F6
330
1F
100
AcDbEntity
  8
Layer 1
 62
   179
420
  2301728
370
    25
100
AcDb2dPolyline
 66
     1
 10
0.0
 20
0.0
 30
0.0
  0
VERTEX
  5
F7
330
F6
100
AcDbEntity
  8
Layer 1
 62
   179
420
  2301728
370
    25
100
AcDbVertex
100
AcDb2dVertex
 10
429.3922381901718
 20
-511.3226635196347
 30
0.0
  0
VERTEX
  5
F8
330
F6
100
AcDbEntity
  8
Layer 1
 62
   179
420
  2301728
370
    25
100
AcDbVertex
100
AcDb2dVertex
 10
429.3922381937602
 20
-431.3226635396337
 30
0.0
  0
VERTEX
  5
F9
330
F6
100
AcDbEntity
  8
Layer 1
 62
   179
420
  2301728
370
    25
100
AcDbVertex
100
AcDb2dVertex
 10
411.1422381983251
 20
-431.3226635388154
 30
0.0
  0
VERTEX
  5
FA
330
F6
100
AcDbEntity
  8
Layer 1
 62
   179
420
  2301728
370
    25
100
AcDbVertex
100
AcDb2dVertex
 10
411.1422381947335
 20
-511.3226635188165
 30
0.0
  0
VERTEX
  5
FB
330
F6
100
AcDbEntity
  8
Layer 1
 62
   179
420
  2301728
370
    25
100
AcDbVertex
100
AcDb2dVertex
 10
429.3922381901718
 20
-511.3226635196347
 30
0.0
  0
SEQEND
  5
FC
330
F6
100
AcDbEntity
  8
Layer 1
 62
   179
420
  2301728
370
    25
  0
POLYLINE
  5
FD
330
1F
100
AcDbEntity
  8
Layer 1
 62
   179
420
  2301728
370
    25
100
AcDb2dPolyline
 66
     1
 10
0.0
 20
0.0
 30
0.0
  0
VERTEX
  5
FE
330
FD
100
AcDbEntity
  8
Layer 1
 62
   179
420
  2301728
370
    25
100
AcDbVertex
100
AcDb2dVertex
 10
75.8505026082539
 20
-511.3226635037597
 30
0.0
  0
VERTEX
  5
FF
330
FD
100
AcDbEntity
  8
Layer 1
 62
   179
420
  2301728
370
    25
100
AcDbVertex
100
AcDb2dVertex
 10
75.85050261184583
 20
-431.3226635237625
 30
0.0
  0
VERTEX
  5
100
330
FD
100
AcDbEntity
  8
Layer 1
 62
   179
420
  2301728
370
    25
100
AcDbVertex
100
AcDb2dVertex
 10
57.60050261640782
 20
-431.3226635229437
 30
0.0
  0
VERTEX
  5
101
330
FD
100
AcDbEntity
  8
Layer 1
 62
   179
420
  2301728
370
    25
100
AcDbVertex
100
AcDb2dVertex
 10
57.60050261281623
 20
-511.3226635029415
 30
0.0
  0
VERTEX
  5
102
330
FD
100
AcDbEntity
  8
Layer 1
 62
   179
420
  2301728
370
    25
100
AcDbVertex
100
AcDb2dVertex
 10
75.8505026082539
 20
-511.3226635037597
 30
0.0
  0
SEQEND
  5
103
330
FD
100
AcDbEntity
  8
Layer 1
 62
   179
420
  2301728
370
    25
  0
SPLINE
  5
104
330
1F
100
AcDbEntity
  8
Layer 1
 62
   179
420
  2301728
370
    25
100
AcDbSpline
210
0.0
220
0.0
230
1.0
 70
    11
 71
     3
 72
    17
 73
    13
 74
     0
 42
0.0000000001
 43
0.0000000001
 12
1.0
 22
0.0
 32
0.0
 13
1.0
 23
0.0
 33
0.0
 40
0.0
 40
0.0
 40
0.0
 40
0.0
 40
1.0
 40
1.0
 40
1.0
 40
2.0
 40
2.0
 40
2.0
 40
3.0
 40
3.0
 40
3.0
 40
4.0
 40
4.0
 40
4.0
 40
4.0
 10
349.0003863279354
 20
899.8577953220166
 30
0.0
 10
358.9415118218496
 20
899.8577953215719
 30
0.0
 10
367.0003863237977
 20
907.916669822793
 30
0.0
 10
367.0003863242424
 20
917.8577953167072
 30
0.0
 10
367.0003863246903
 20
927.7989208106246
 30
0.0
 10
358.9415118234655
 20
935.8577953125689
 30
0.0
 10
349.0003863295525
 20
935.857795313017
 30
0.0
 10
339.0592608356376
 20
935.8577953134615
 30
0.0
 10
331.0003863336901
 20
927.7989208122405
 30
0.0
 10
331.0003863332442
 20
917.8577953183262
 30
0.0
 10
331.0003863327976
 20
907.9166698244087
 30
0.0
 10
339.0592608340211
 20
899.8577953224645
 30
0.0
 10
349.0003863279354
 20
899.8577953220166
 30
0.0
  0
POLYLINE
  5
105
330
1F
100
AcDbEntity
  8
Layer 1
 62
   179
420
  2301728
370
    25
100
AcDb2dPolyline
 66
     1
 10
0.0
 20
0.0
 30
0.0
  0
VERTEX
  5
106
330
105
100
AcDbEntity
  8
Layer 1
 62
   179
420
  2301728
370
    25
100
AcDbVertex
100
AcDb2dVertex
 10
429.3922382576054
 20
990.6832950303451
 30
0.0
  0
VERTEX
  5
107
330
105
100
AcDbEntity
  8
Layer 1
 62
   179
420
  2301728
370
    25
100
AcDbVertex
100
AcDb2dVertex
 10
429.3922382540144
 20
910.6832950503475
 30
0.0
  0
VERTEX
  5
108
330
105
100
AcDbEntity
  8
Layer 1
 62
   179
420
  2301728
370
    25
100
AcDbVertex
100
AcDb2dVertex
 10
411.1422382585754
 20
910.683295051166
 30
0.0
  0
VERTEX
  5
109
330
105
100
AcDbEntity
  8
Layer 1
 62
   179
420
  2301728
370
    25
100
AcDbVertex
100
AcDb2dVertex
 10
411.142238262167
 20
990.6832950311635
 30
0.0
  0
VERTEX
  5
10A
330
105
100
AcDbEntity
  8
Layer 1
 62
   179
420
  2301728
370
    25
100
AcDbVertex
100
AcDb2dVertex
 10
429.3922382576054
 20
990.6832950303451
 30
0.0
  0
SEQEND
  5
10B
330
105
100
AcDbEntity
  8
Layer 1
 62
   179
420
  2301728
370
    25
  0
POLYLINE
  5
10C
330
1F
100
AcDbEntity
  8
Layer 1
 62
   179
420
  2301728
370
    25
100
AcDb2dPolyline
 66
     1
 10
0.0
 20
0.0
 30
0.0
  0
VERTEX
  5
10D
330
10C
100
AcDbEntity
  8
Layer 1
 62
   179
420
  2301728
370
    25
100
AcDbVertex
100
AcDb2dVertex
 10
108.4963704393034
 20
-420.8817030597763
 30
0.0
  0
VERTEX
  5
10E
330
10C
100
AcDbEntity
  8
Layer 1
 62
   179
420
  2301728
370
    25
100
AcDbVertex
100
AcDb2dVertex
 10
198.4963704168035
 20
-420.881703063819
 30
0.0
  0
VERTEX
  5
10F
330
10C
100
AcDbEntity
  8
Layer 1
 62
   179
420
  2301728
370
    25
100
AcDbVertex
100
AcDb2dVertex
 10
198.496370417623
 20
-402.63170306838
 30
0.0
  0
VERTEX
  5
110
330
10C
100
AcDbEntity
  8
Layer 1
 62
   179
420
  2301728
370
    25
100
AcDbVertex
100
AcDb2dVertex
 10
108.4963704401229
 20
-402.6317030643412
 30
0.0
  0
VERTEX
  5
111
330
10C
100
AcDbEntity
  8
Layer 1
 62
   179
420
  2301728
370
    25
100
AcDbVertex
100
AcDb2dVertex
 10
108.4963704393034
 20
-420.8817030597763
 30
0.0
  0
SEQEND
  5
112
330
10C
100
AcDbEntity
  8
Layer 1
 62
   179
420
  2301728
370
    25
  0
POLYLINE
  5
113
330
1F
100
AcDbEntity
  8
Layer 1
 62
   179
420
  2301728
370
    25
100
AcDb2dPolyline
 66
     1
 10
0.0
 20
0.0
 30
0.0
  0
VERTEX
  5
114
330
113
100
AcDbEntity
  8
Layer 1
 62
   179
420
  2301728
370
    25
100
AcDbVertex
100
AcDb2dVertex
 10
288.4963703943036
 20
-420.8817030678585
 30
0.0
  0
VERTEX
  5
115
330
113
100
AcDbEntity
  8
Layer 1
 62
   179
420
  2301728
370
    25
100
AcDbVertex
100
AcDb2dVertex
 10
378.4963703718037
 20
-420.8817030719012
 30
0.0
  0
VERTEX
  5
116
330
113
100
AcDbEntity
  8
Layer 1
 62
   179
420
  2301728
370
    25
100
AcDbVertex
100
AcDb2dVertex
 10
378.4963703726225
 20
-402.6317030764623
 30
0.0
  0
VERTEX
  5
117
330
113
100
AcDbEntity
  8
Layer 1
 62
   179
420
  2301728
370
    25
100
AcDbVertex
100
AcDb2dVertex
 10
288.4963703951231
 20
-402.6317030724234
 30
0.0
  0
VERTEX
  5
118
330
113
100
AcDbEntity
  8
Layer 1
 62
   179
420
  2301728
370
    25
100
AcDbVertex
100
AcDb2dVertex
 10
288.4963703943036
 20
-420.8817030678585
 30
0.0
  0
SEQEND
  5
119
330
113
100
AcDbEntity
  8
Layer 1
 62
   179
420
  2301728
370
    25
  0
SPLINE
  5
11A
330
1F
100
AcDbEntity
  8
Layer 1
 62
   179
420
  2301728
370
    25
100
AcDbSpline
210
0.0
220
0.0
230
1.0
 70
    11
 71
     3
 72
    89
 73
    85
 74
     0
 42
0.0000000001
 43
0.0000000001
 12
1.0
 22
0.0
 32
0.0
 13
1.0
 23
0.0
 33
0.0
 40
0.0
 40
0.0
 40
0.0
 40
0.0
 40
1.0
 40
1.0
 40
1.0
 40
2.0
 40
2.0
 40
2.0
 40
3.0
 40
3.0
 40
3.0
 40
4.0
 40
4.0
 40
4.0
 40
5.0
 40
5.0
 40
5.0
 40
6.0
 40
6.0
 40
6.0
 40
7.0
 40
7.0
 40
7.0
 40
8.0
 40
8.0
 40
8.0
 40
9.0
 40
9.0
 40
9.0
 40
10.0
 40
10.0
 40
10.0
 40
11.0
 40
11.0
 40
11.0
 40
12.0
 40
12.0
 40
12.0
 40
13.0
 40
13.0
 40
13.0
 40
14.0
 40
14.0
 40
14.0
 40
15.0
 40
15.0
 40
15.0
 40
16.0
 40
16.0
 40
16.0
 40
17.0
 40
17.0
 40
17.0
 40
18.0
 40
18.0
 40
18.0
 40
19.0
 40
19.0
 40
19.0
 40
20.0
 40
20.0
 40
20.0
 40
21.0
 40
21.0
 40
21.0
 40
22.0
 40
22.0
 40
22.0
 40
23.0
 40
23.0
 40
23.0
 40
24.0
 40
24.0
 40
24.0
 40
25.0
 40
25.0
 40
25.0
 40
26.0
 40
26.0
 40
26.0
 40
27.0
 40
27.0
 40
27.0
 40
28.0
 40
28.0
 40
28.0
 40
28.0
 10
112.7037248287125
 20
758.5366846637452
 30
0.0
 10
112.7037248287125
 20
758.5366846637452
 30
0.0
 10
112.703724829532
 20
776.7867334873076
 30
0.0
 10
112.703724829532
 20
776.7867334873076
 30
0.0
 10
112.703724829532
 20
776.7867334873076
 30
0.0
 10
112.7037248299516
 20
786.1356029782446
 30
0.0
 10
112.7037248299516
 20
786.1356029782446
 30
0.0
 10
112.703724830943
 20
808.2270193952462
 30
0.0
 10
130.6122785653348
 20
826.1355731280305
 30
0.0
 10
152.7036088549509
 20
826.135573127039
 30
0.0
 10
152.7036088549509
 20
826.135573127039
 30
0.0
 10
152.703694982338
 20
826.135573127039
 30
0.0
 10
152.703694982338
 20
826.135573127039
 30
0.0
 10
174.7951113993412
 20
826.135573126048
 30
0.0
 10
192.7036651321236
 20
808.2270193916546
 30
0.0
 10
192.7036651311322
 20
786.1356029746534
 30
0.0
 10
192.7036651311322
 20
786.1356029746534
 30
0.0
 10
192.7036651307125
 20
776.786733483716
 30
0.0
 10
192.7036651307125
 20
776.786733483716
 30
0.0
 10
192.7036651307125
 20
776.786733483716
 30
0.0
 10
192.7036651298931
 20
758.5366846601536
 30
0.0
 10
192.7036651298931
 20
758.5366846601536
 30
0.0
 10
192.7036651298931
 20
758.5366846601536
 30
0.0
 10
211.1729081537046
 20
758.5366846593245
 30
0.0
 10
211.1729081537046
 20
758.5366846593245
 30
0.0
 10
211.1729081537046
 20
758.5366846593245
 30
0.0
 10
211.1729081495374
 20
665.7186637135638
 30
0.0
 10
211.1729081495374
 20
665.7186637135638
 30
0.0
 10
211.1729081493667
 20
661.9110580558768
 30
0.0
 10
208.4892648935966
 20
658.6310257081868
 30
0.0
 10
204.7570206996178
 20
657.8770665614057
 30
0.0
 10
204.7570206996178
 20
657.8770665614057
 30
0.0
 10
158.7756757671197
 20
648.5884431798314
 30
0.0
 10
158.7756757671197
 20
648.5884431798314
 30
0.0
 10
148.6208261873177
 20
646.5370610735979
 30
0.0
 10
141.3190324333174
 20
637.6127134741607
 30
0.0
 10
141.3190324328515
 20
627.2527515219952
 30
0.0
 10
141.3190324328515
 20
627.2527515219952
 30
0.0
 10
141.31903239965
 20
-112.2766560486547
 30
0.0
 10
141.31903239965
 20
-112.2766560486547
 30
0.0
 10
141.3190323991842
 20
-122.6366180008173
 30
0.0
 10
148.6208261523836
 20
-131.56096560091
 30
0.0
 10
158.7756757320008
 20
-133.6123261762125
 30
0.0
 10
158.7756757320008
 20
-133.6123261762125
 30
0.0
 10
204.7570206636647
 20
-142.9009710937597
 30
0.0
 10
204.7570206636647
 20
-142.9009710937597
 30
0.0
 10
208.4892648575768
 20
-143.6549302408748
 30
0.0
 10
211.1729081130517
 20
-146.9349195251146
 30
0.0
 10
211.172908112881
 20
-150.7425682464938
 30
0.0
 10
211.172908112881
 20
-150.7425682464938
 30
0.0
 10
211.1729081087138
 20
-243.5606322559499
 30
0.0
 10
211.1729081087138
 20
-243.5606322559499
 30
0.0
 10
211.1729081087138
 20
-243.5606322559499
 30
0.0
 10
192.7036650849023
 20
-243.5606322551208
 30
0.0
 10
192.7036650849023
 20
-243.5606322551208
 30
0.0
 10
192.7036650849023
 20
-243.5606322551208
 30
0.0
 10
192.7036650840828
 20
-261.8106380149897
 30
0.0
 10
192.7036650840828
 20
-261.8106380149897
 30
0.0
 10
192.7036650840828
 20
-261.8106380149897
 30
0.0
 10
192.7036650836631
 20
-271.1595505696186
 30
0.0
 10
192.7036650836631
 20
-271.1595505696186
 30
0.0
 10
192.7036650826717
 20
-293.2509239229282
 30
0.0
 10
174.7951113482799
 20
-311.1595207194042
 30
0.0
 10
152.7036949312767
 20
-311.1595207184121
 30
0.0
 10
152.7036949312767
 20
-311.1595207184121
 30
0.0
 10
152.7036088038896
 20
-311.1595207184121
 30
0.0
 10
152.7036088038896
 20
-311.1595207184121
 30
0.0
 10
130.6122785142736
 20
-311.1595207174213
 30
0.0
 10
112.7037247814911
 20
-293.250923919336
 30
0.0
 10
112.7037247824826
 20
-271.1595505660264
 30
0.0
 10
112.7037247824826
 20
-271.1595505660264
 30
0.0
 10
112.7037247829022
 20
-261.8106380113975
 30
0.0
 10
112.7037247829022
 20
-261.8106380113975
 30
0.0
 10
112.7037247829022
 20
-261.8106380113975
 30
0.0
 10
112.7037247837217
 20
-243.5606322515285
 30
0.0
 10
112.7037247837217
 20
-243.5606322515285
 30
0.0
 10
112.7037247837217
 20
-243.5606322515285
 30
0.0
 10
94.23439563252305
 20
-243.5606322506995
 30
0.0
 10
94.23439563252305
 20
-243.5606322506995
 30
0.0
 10
94.23439563252305
 20
-243.5606322506995
 30
0.0
 10
94.23439567751386
 20
758.5366846645742
 30
0.0
 10
94.23439567751386
 20
758.5366846645742
 30
0.0
 10
94.23439567751386
 20
758.5366846645742
 30
0.0
 10
112.7037248287125
 20
758.5366846637452
 30
0.0
 10
112.7037248287125
 20
758.5366846637452
 30
0.0
  0
POLYLINE
  5
11B
330
1F
100
AcDbEntity
  8
Layer 1
 62
   179
420
  2301728
370
    25
100
AcDb2dPolyline
 66
     1
 10
0.0
 20
0.0
 30
0.0
  0
VERTEX
  5
11C
330
11B
100
AcDbEntity
  8
Layer 1
 62
   179
420
  2301728
370
    25
100
AcDbVertex
100
AcDb2dVertex
 10
143.5786825734847
 20
808.672166503297
 30
0.0
  0
VERTEX
  5
11D
330
11B
100
AcDbEntity
  8
Layer 1
 62
   179
420
  2301728
370
    25
100
AcDbVertex
100
AcDb2dVertex
 10
161.8286825689224
 20
808.672166502475
 30
0.0
  0
VERTEX
  5
11E
330
11B
100
AcDbEntity
  8
Layer 1
 62
   179
420
  2301728
370
    25
100
AcDbVertex
100
AcDb2dVertex
 10
161.8286825681029
 20
790.42216650704
 30
0.0
  0
VERTEX
  5
11F
330
11B
100
AcDbEntity
  8
Layer 1
 62
   179
420
  2301728
370
    25
100
AcDbVertex
100
AcDb2dVertex
 10
143.5786825726652
 20
790.4221665078587
 30
0.0
  0
VERTEX
  5
120
330
11B
100
AcDbEntity
  8
Layer 1
 62
   179
420
  2301728
370
    25
100
AcDbVertex
100
AcDb2dVertex
 10
143.5786825734847
 20
808.672166503297
 30
0.0
  0
SEQEND
  5
121
330
11B
100
AcDbEntity
  8
Layer 1
 62
   179
420
  2301728
370
    25
  0
POLYLINE
  5
122
330
1F
100
AcDbEntity
  8
Layer 1
 62
   179
420
  2301728
370
    25
100
AcDb2dPolyline
 66
     1
 10
0.0
 20
0.0
 30
0.0
  0
VERTEX
  5
123
330
122
100
AcDbEntity
  8
Layer 1
 62
   179
420
  2301728
370
    25
100
AcDbVertex
100
AcDb2dVertex
 10
161.8286825194294
 20
-293.6960952653549
 30
0.0
  0
VERTEX
  5
124
330
122
100
AcDbEntity
  8
Layer 1
 62
   179
420
  2301728
370
    25
100
AcDbVertex
100
AcDb2dVertex
 10
143.5786825239917
 20
-293.696095264536
 30
0.0
  0
VERTEX
  5
125
330
122
100
AcDbEntity
  8
Layer 1
 62
   179
420
  2301728
370
    25
100
AcDbVertex
100
AcDb2dVertex
 10
143.5786825248112
 20
-275.4460952690984
 30
0.0
  0
VERTEX
  5
126
330
122
100
AcDbEntity
  8
Layer 1
 62
   179
420
  2301728
370
    25
100
AcDbVertex
100
AcDb2dVertex
 10
161.8286825202482
 20
-275.4460952699172
 30
0.0
  0
VERTEX
  5
127
330
122
100
AcDbEntity
  8
Layer 1
 62
   179
420
  2301728
370
    25
100
AcDbVertex
100
AcDb2dVertex
 10
161.8286825194294
 20
-293.6960952653549
 30
0.0
  0
SEQEND
  5
128
330
122
100
AcDbEntity
  8
Layer 1
 62
   179
420
  2301728
370
    25
  0
SPLINE
  5
129
330
1F
100
AcDbEntity
  8
Layer 1
 62
   179
420
  2301728
370
    25
100
AcDbSpline
210
0.0
220
0.0
230
1.0
 70
    11
 71
     3
 72
    89
 73
    85
 74
     0
 42
0.0000000001
 43
0.0000000001
 12
1.0
 22
0.0
 32
0.0
 13
1.0
 23
0.0
 33
0.0
 40
0.0
 40
0.0
 40
0.0
 40
0.0
 40
1.0
 40
1.0
 40
1.0
 40
2.0
 40
2.0
 40
2.0
 40
3.0
 40
3.0
 40
3.0
 40
4.0
 40
4.0
 40
4.0
 40
5.0
 40
5.0
 40
5.0
 40
6.0
 40
6.0
 40
6.0
 40
7.0
 40
7.0
 40
7.0
 40
8.0
 40
8.0
 40
8.0
 40
9.0
 40
9.0
 40
9.0
 40
10.0
 40
10.0
 40
10.0
 40
11.0
 40
11.0
 40
11.0
 40
12.0
 40
12.0
 40
12.0
 40
13.0
 40
13.0
 40
13.0
 40
14.0
 40
14.0
 40
14.0
 40
15.0
 40
15.0
 40
15.0
 40
16.0
 40
16.0
 40
16.0
 40
17.0
 40
17.0
 40
17.0
 40
18.0
 40
18.0
 40
18.0
 40
19.0
 40
19.0
 40
19.0
 40
20.0
 40
20.0
 40
20.0
 40
21.0
 40
21.0
 40
21.0
 40
22.0
 40
22.0
 40
22.0
 40
23.0
 40
23.0
 40
23.0
 40
24.0
 40
24.0
 40
24.0
 40
25.0
 40
25.0
 40
25.0
 40
26.0
 40
26.0
 40
26.0
 40
27.0
 40
27.0
 40
27.0
 40
28.0
 40
28.0
 40
28.0
 40
28.0
 10
374.2890160433066
 20
-243.5606322632729
 30
0.0
 10
374.2890160433066
 20
-243.5606322632729
 30
0.0
 10
374.2890160424885
 20
-261.8106810868354
 30
0.0
 10
374.2890160424885
 20
-261.8106810868354
 30
0.0
 10
374.2890160424885
 20
-261.8106810868354
 30
0.0
 10
374.2890160420688
 20
-271.1595505777707
 30
0.0
 10
374.2890160420688
 20
-271.1595505777707
 30
0.0
 10
374.2890160410773
 20
-293.2509669947739
 30
0.0
 10
356.3804623066875
 20
-311.1595207275564
 30
0.0
 10
334.2891320170701
 20
-311.1595207265656
 30
0.0
 10
334.2891320170701
 20
-311.1595207265656
 30
0.0
 10
334.289045889683
 20
-311.1595207265656
 30
0.0
 10
334.289045889683
 20
-311.1595207265656
 30
0.0
 10
312.1976294726798
 20
-311.1595207255735
 30
0.0
 10
294.2890757398961
 20
-293.2509669911817
 30
0.0
 10
294.2890757408882
 20
-271.1595505741785
 30
0.0
 10
294.2890757408882
 20
-271.1595505741785
 30
0.0
 10
294.2890757413079
 20
-261.8106810832432
 30
0.0
 10
294.2890757413079
 20
-261.8106810832432
 30
0.0
 10
294.2890757413079
 20
-261.8106810832432
 30
0.0
 10
294.2890757421274
 20
-243.5606322596807
 30
0.0
 10
294.2890757421274
 20
-243.5606322596807
 30
0.0
 10
294.2890757421274
 20
-243.5606322596807
 30
0.0
 10
275.8198327183158
 20
-243.5606322588516
 30
0.0
 10
275.8198327183158
 20
-243.5606322588516
 30
0.0
 10
275.8198327183158
 20
-243.5606322588516
 30
0.0
 10
275.819832722483
 20
-150.7426113130891
 30
0.0
 10
275.819832722483
 20
-150.7426113130891
 30
0.0
 10
275.8198327226543
 20
-146.9350056554035
 30
0.0
 10
278.5034759784238
 20
-143.6549733077114
 30
0.0
 10
282.2357201724032
 20
-142.9010141609326
 30
0.0
 10
282.2357201724032
 20
-142.9010141609326
 30
0.0
 10
328.2170651049014
 20
-133.6123907793595
 30
0.0
 10
328.2170651049014
 20
-133.6123907793595
 30
0.0
 10
338.3719146847027
 20
-131.5610086731228
 30
0.0
 10
345.6737084387037
 20
-122.6366610736859
 30
0.0
 10
345.6737084391683
 20
-112.2766991215233
 30
0.0
 10
345.6737084391683
 20
-112.2766991215233
 30
0.0
 10
345.673708472371
 20
627.252708449127
 30
0.0
 10
345.673708472371
 20
627.252708449127
 30
0.0
 10
345.6737084728356
 20
637.6126704012921
 30
0.0
 10
338.3719147196368
 20
646.5370180013858
 30
0.0
 10
328.217065140019
 20
648.5883785766847
 30
0.0
 10
328.217065140019
 20
648.5883785766847
 30
0.0
 10
282.235720208355
 20
657.8770234942344
 30
0.0
 10
282.235720208355
 20
657.8770234942344
 30
0.0
 10
278.5034760144437
 20
658.6309826413473
 30
0.0
 10
275.8198327589681
 20
661.9109719255881
 30
0.0
 10
275.8198327591394
 20
665.7186206469679
 30
0.0
 10
275.8198327591394
 20
665.7186206469679
 30
0.0
 10
275.8198327633066
 20
758.5366846564215
 30
0.0
 10
275.8198327633066
 20
758.5366846564215
 30
0.0
 10
275.8198327633066
 20
758.5366846564215
 30
0.0
 10
294.2890757871181
 20
758.5366846555924
 30
0.0
 10
294.2890757871181
 20
758.5366846555924
 30
0.0
 10
294.2890757871181
 20
758.5366846555924
 30
0.0
 10
294.2890757879376
 20
776.7866904154619
 30
0.0
 10
294.2890757879376
 20
776.7866904154619
 30
0.0
 10
294.2890757879376
 20
776.7866904154619
 30
0.0
 10
294.2890757883573
 20
786.1356029700921
 30
0.0
 10
294.2890757883573
 20
786.1356029700921
 30
0.0
 10
294.2890757893493
 20
808.2269763234004
 30
0.0
 10
312.1976295237398
 20
826.1355731198777
 30
0.0
 10
334.289045940743
 20
826.1355731188867
 30
0.0
 10
334.289045940743
 20
826.1355731188867
 30
0.0
 10
334.2891320681301
 20
826.1355731188867
 30
0.0
 10
334.2891320681301
 20
826.1355731188867
 30
0.0
 10
356.3804623577449
 20
826.1355731178952
 30
0.0
 10
374.2890160905299
 20
808.2269763198095
 30
0.0
 10
374.2890160895384
 20
786.1356029665005
 30
0.0
 10
374.2890160895384
 20
786.1356029665005
 30
0.0
 10
374.2890160891181
 20
776.786690411871
 30
0.0
 10
374.2890160891181
 20
776.786690411871
 30
0.0
 10
374.2890160891181
 20
776.786690411871
 30
0.0
 10
374.2890160883
 20
758.5366846520008
 30
0.0
 10
374.2890160883
 20
758.5366846520008
 30
0.0
 10
374.2890160883
 20
758.5366846520008
 30
0.0
 10
392.7583452394986
 20
758.536684651172
 30
0.0
 10
392.7583452394986
 20
758.536684651172
 30
0.0
 10
392.7583452394986
 20
758.536684651172
 30
0.0
 10
392.7583451945052
 20
-243.560632264102
 30
0.0
 10
392.7583451945052
 20
-243.560632264102
 30
0.0
 10
392.7583451945052
 20
-243.560632264102
 30
0.0
 10
374.2890160433066
 20
-243.5606322632729
 30
0.0
 10
374.2890160433066
 20
-243.5606322632729
 30
0.0
  0
POLYLINE
  5
12A
330
1F
100
AcDbEntity
  8
Layer 1
 62
   179
420
  2301728
370
    25
100
AcDb2dPolyline
 66
     1
 10
0.0
 20
0.0
 30
0.0
  0
VERTEX
  5
12B
330
12A
100
AcDbEntity
  8
Layer 1
 62
   179
420
  2301728
370
    25
100
AcDbVertex
100
AcDb2dVertex
 10
343.4140582985351
 20
-293.6961141028216
 30
0.0
  0
VERTEX
  5
12C
330
12A
100
AcDbEntity
  8
Layer 1
 62
   179
420
  2301728
370
    25
100
AcDbVertex
100
AcDb2dVertex
 10
325.1640583030987
 20
-293.6961141020028
 30
0.0
  0
VERTEX
  5
12D
330
12A
100
AcDbEntity
  8
Layer 1
 62
   179
420
  2301728
370
    25
100
AcDbVertex
100
AcDb2dVertex
 10
325.1640583039175
 20
-275.4461141065651
 30
0.0
  0
VERTEX
  5
12E
330
12A
100
AcDbEntity
  8
Layer 1
 62
   179
420
  2301728
370
    25
100
AcDbVertex
100
AcDb2dVertex
 10
343.4140582993545
 20
-275.4461141073839
 30
0.0
  0
VERTEX
  5
12F
330
12A
100
AcDbEntity
  8
Layer 1
 62
   179
420
  2301728
370
    25
100
AcDbVertex
100
AcDb2dVertex
 10
343.4140582985351
 20
-293.6961141028216
 30
0.0
  0
SEQEND
  5
130
330
12A
100
AcDbEntity
  8
Layer 1
 62
   179
420
  2301728
370
    25
  0
POLYLINE
  5
131
330
1F
100
AcDbEntity
  8
Layer 1
 62
   179
420
  2301728
370
    25
100
AcDb2dPolyline
 66
     1
 10
0.0
 20
0.0
 30
0.0
  0
VERTEX
  5
132
330
131
100
AcDbEntity
  8
Layer 1
 62
   179
420
  2301728
370
    25
100
AcDbVertex
100
AcDb2dVertex
 10
325.1640583525904
 20
808.672147665828
 30
0.0
  0
VERTEX
  5
133
330
131
100
AcDbEntity
  8
Layer 1
 62
   179
420
  2301728
370
    25
100
AcDbVertex
100
AcDb2dVertex
 10
343.414058348028
 20
808.6721476650096
 30
0.0
  0
VERTEX
  5
134
330
131
100
AcDbEntity
  8
Layer 1
 62
   179
420
  2301728
370
    25
100
AcDbVertex
100
AcDb2dVertex
 10
343.4140583472092
 20
790.4221476695712
 30
0.0
  0
VERTEX
  5
135
330
131
100
AcDbEntity
  8
Layer 1
 62
   179
420
  2301728
370
    25
100
AcDbVertex
100
AcDb2dVertex
 10
325.1640583517715
 20
790.4221476703894
 30
0.0
  0
VERTEX
  5
136
330
131
100
AcDbEntity
  8
Layer 1
 62
   179
420
  2301728
370
    25
100
AcDbVertex
100
AcDb2dVertex
 10
325.1640583525904
 20
808.672147665828
 30
0.0
  0
SEQEND
  5
137
330
131
100
AcDbEntity
  8
Layer 1
 62
   179
420
  2301728
370
    25
  0
POLYLINE
  5
138
330
1F
100
AcDbEntity
  8
Layer 1
 62
   179
420
  2301728
370
    25
100
AcDb2dPolyline
 66
     1
 10
0.0
 20
0.0
 30
0.0
  0
VERTEX
  5
139
330
138
100
AcDbEntity
  8
Layer 1
 62
   179
420
  2301728
370
    25
100
AcDbVertex
100
AcDb2dVertex
 10
75.85050267568877
 20
990.6832950462201
 30
0.0
  0
VERTEX
  5
13A
330
138
100
AcDbEntity
  8
Layer 1
 62
   179
420
  2301728
370
    25
100
AcDbVertex
100
AcDb2dVertex
 10
75.85050267209719
 20
910.683295066219
 30
0.0
  0
VERTEX
  5
13B
330
138
100
AcDbEntity
  8
Layer 1
 62
   179
420
  2301728
370
    25
100
AcDbVertex
100
AcDb2dVertex
 10
57.60050267665951
 20
910.6832950670375
 30
0.0
  0
VERTEX
  5
13C
330
138
100
AcDbEntity
  8
Layer 1
 62
   179
420
  2301728
370
    25
100
AcDbVertex
100
AcDb2dVertex
 10
57.6005026802511
 20
990.6832950470385
 30
0.0
  0
VERTEX
  5
13D
330
138
100
AcDbEntity
  8
Layer 1
 62
   179
420
  2301728
370
    25
100
AcDbVertex
100
AcDb2dVertex
 10
75.85050267568877
 20
990.6832950462201
 30
0.0
  0
SEQEND
  5
13E
330
138
100
AcDbEntity
  8
Layer 1
 62
   179
420
  2301728
370
    25
  0
SPLINE
  5
13F
330
1F
100
AcDbEntity
  8
Layer 1
 62
   179
420
  2301728
370
    25
100
AcDbSpline
210
0.0
220
0.0
230
1.0
 70
    11
 71
     3
 72
    29
 73
    25
 74
     0
 42
0.0000000001
 43
0.0000000001
 12
1.0
 22
0.0
 32
0.0
 13
1.0
 23
0.0
 33
0.0
 40
0.0
 40
0.0
 40
0.0
 40
0.0
 40
1.0
 40
1.0
 40
1.0
 40
2.0
 40
2.0
 40
2.0
 40
3.0
 40
3.0
 40
3.0
 40
4.0
 40
4.0
 40
4.0
 40
5.0
 40
5.0
 40
5.0
 40
6.0
 40
6.0
 40
6.0
 40
7.0
 40
7.0
 40
7.0
 40
8.0
 40
8.0
 40
8.0
 40
8.0
 10
264.575305399286
 20
456.0912133395598
 30
0.0
 10
264.575305399286
 20
456.0912133395598
 30
0.0
 10
264.5753053741064
 20
45.38053424564004
 30
0.0
 10
264.5753053741064
 20
45.38053424564004
 30
0.0
 10
264.5753053737977
 20
40.34094095291875
 30
0.0
 10
268.6607029367516
 20
36.25554338766949
 30
0.0
 10
273.7002962294736
 20
36.25554338514697
 30
0.0
 10
273.7002962294736
 20
36.25554338514697
 30
0.0
 10
273.7003144901767
 20
36.25554338514697
 30
0.0
 10
273.7003144901767
 20
36.25554338514697
 30
0.0
 10
278.7399077989662
 20
36.25554338262477
 30
0.0
 10
282.8253053777495
 20
40.34094095924141
 30
0.0
 10
282.8253053779009
 20
45.38053426803084
 30
0.0
 10
282.8253053779009
 20
45.38053426803084
 30
0.0
 10
282.8253053902048
 20
456.0912133275831
 30
0.0
 10
282.8253053902048
 20
456.0912133275831
 30
0.0
 10
282.8253053903557
 20
461.1308066326469
 30
0.0
 10
278.7399078146775
 20
465.2162042064044
 30
0.0
 10
273.7003145096125
 20
465.216204203889
 30
0.0
 10
273.7003145096125
 20
465.216204203889
 30
0.0
 10
273.7002962596122
 20
465.216204203889
 30
0.0
 10
273.7002962596122
 20
465.216204203889
 30
0.0
 10
268.6607029645892
 20
465.2162042013668
 30
0.0
 10
264.5753053995947
 20
461.1308066345836
 30
0.0
 10
264.575305399286
 20
456.0912133395598
 30
0.0
  0
SPLINE
  5
140
330
1F
100
AcDbEntity
  8
Layer 1
 62
   179
420
  2301728
370
    25
100
AcDbSpline
210
0.0
220
0.0
230
1.0
 70
    11
 71
     3
 72
    29
 73
    25
 74
     0
 42
0.0000000001
 43
0.0000000001
 12
1.0
 22
0.0
 32
0.0
 13
1.0
 23
0.0
 33
0.0
 40
0.0
 40
0.0
 40
0.0
 40
0.0
 40
1.0
 40
1.0
 40
1.0
 40
2.0
 40
2.0
 40
2.0
 40
3.0
 40
3.0
 40
3.0
 40
4.0
 40
4.0
 40
4.0
 40
5.0
 40
5.0
 40
5.0
 40
6.0
 40
6.0
 40
6.0
 40
7.0
 40
7.0
 40
7.0
 40
8.0
 40
8.0
 40
8.0
 40
8.0
 10
204.1674355037918
 20
456.0912133308501
 30
0.0
 10
204.1674355037918
 20
456.0912133308501
 30
0.0
 10
204.167435489677
 20
45.3805342483525
 30
0.0
 10
204.167435489677
 20
45.3805342483525
 30
0.0
 10
204.1674354895038
 20
40.34094095559079
 30
0.0
 10
208.2528330525282
 20
36.25554339038163
 30
0.0
 10
213.29242634529
 20
36.25554338785879
 30
0.0
 10
213.29242634529
 20
36.25554338785879
 30
0.0
 10
213.2924446023906
 20
36.25554338785879
 30
0.0
 10
213.2924446023906
 20
36.25554338785879
 30
0.0
 10
218.3320379068267
 20
36.25554338533627
 30
0.0
 10
222.4174354821199
 20
40.34094095835202
 30
0.0
 10
222.4174354824067
 20
45.3805342627888
 30
0.0
 10
222.4174354824067
 20
45.3805342627888
 30
0.0
 10
222.4174355057761
 20
456.0912133301622
 30
0.0
 10
222.4174355057761
 20
456.0912133301622
 30
0.0
 10
222.4174355060623
 20
461.1308066311546
 30
0.0
 10
218.3320379368024
 20
465.2162042033105
 30
0.0
 10
213.2924446358084
 20
465.2162042065985
 30
0.0
 10
213.2924446358084
 20
465.2162042065985
 30
0.0
 10
213.2924263858081
 20
465.2162042065985
 30
0.0
 10
213.2924263858081
 20
465.2162042065985
 30
0.0
 10
208.2528330804107
 20
465.2162042098863
 30
0.0
 10
204.1674355039644
 20
461.1308066362452
 30
0.0
 10
204.1674355037918
 20
456.0912133308501
 30
0.0
  0
ENDSEC
  0
SECTION
  2
OBJECTS
  0
DICTIONARY
  5
C
330
0
100
AcDbDictionary
281
     1
  3
ACAD_GROUP
350
D
  3
ACAD_LAYOUT
350
1A
  3
ACAD_MATERIAL
350
3B
  3
ACAD_MLEADERSTYLE
350
142
  3
ACAD_MLINESTYLE
350
17
  3
ACAD_PLOTSETTINGS
350
19
  3
ACAD_PLOTSTYLENAME
350
E
  3
ACAD_TABLESTYLE
350
141
  3
ACAD_VISUALSTYLE
350
2A
  0
SUN
  5
3F
330
29
100
AcDbSun
 90
        1
290
     0
 63
     7
421
 16777215
 40
1.0
291
     1
 91
  2455826
 92
 54000000
292
     0
 70
     2
 71
   256
280
     1
  0
DICTIONARY
  5
D
102
{ACAD_REACTORS
330
C
102
}
330
C
100
AcDbDictionary
281
     1
  0
DICTIONARY
  5
1A
102
{ACAD_REACTORS
330
C
102
}
330
C
100
AcDbDictionary
281
     1
  3
Layout1
350
1E
  3
Layout2
350
26
  3
Model
350
22
  0
DICTIONARY
  5
3B
102
{ACAD_REACTORS
330
C
102
}
330
C
100
AcDbDictionary
281
     1
  3
ByBlock
350
3D
  3
ByLayer
350
3C
  3
Global
350
3E
  0
DICTIONARY
  5
142
102
{ACAD_REACTORS
330
C
102
}
330
C
100
AcDbDictionary
281
     1
  0
DICTIONARY
  5
17
102
{ACAD_REACTORS
330
C
102
}
330
C
100
AcDbDictionary
281
     1
  3
Standard
350
18
  0
DICTIONARY
  5
19
102
{ACAD_REACTORS
330
C
102
}
330
C
100
AcDbDictionary
281
     1
  0
ACDBDICTIONARYWDFLT
  5
E
102
{ACAD_REACTORS
330
C
102
}
330
C
100
AcDbDictionary
281
     1
  3
Normal
350
F
100
AcDbDictionaryWithDefault
340
F
  0
DICTIONARY
  5
141
102
{ACAD_REACTORS
330
C
102
}
330
C
100
AcDbDictionary
281
     1
  0
DICTIONARY
  5
2A
102
{ACAD_REACTORS
330
C
102
}
330
C
100
AcDbDictionary
281
     1
  3
2dWireframe
350
2F
  3
3D Hidden
350
31
  3
3dWireframe
350
30
  3
Basic
350
32
  3
Brighten
350
36
  3
ColorChange
350
3A
  3
Conceptual
350
34
  3
Dim
350
35
  3
Facepattern
350
39
  3
Flat
350
2B
  3
FlatWithEdges
350
2C
  3
Gouraud
350
2D
  3
GouraudWithEdges
350
2E
  3
Linepattern
350
38
  3
Realistic
350
33
  3
Thicken
350
37
  0
LAYOUT
  5
1E
102
{ACAD_REACTORS
330
1A
102
}
330
1A
100
AcDbPlotSettings
  1

  2
none_device
  4

  6

 40
0.0
 41
0.0
 42
0.0
 43
0.0
 44
0.0
 45
0.0
 46
0.0
 47
0.0
 48
0.0
 49
0.0
140
0.0
141
0.0
142
1.0
143
1.0
 70
   688
 72
     0
 73
     0
 74
     5
  7

 75
    16
 76
     0
 77
     2
 78
   300
147
1.0
148
0.0
149
0.0
100
AcDbLayout
  1
Layout1
 70
     1
 71
     1
 10
0.0
 20
0.0
 11
12.0
 21
9.0
 12
0.0
 22
0.0
 32
0.0
 14
1.000000000000000E+20
 24
1.000000000000000E+20
 34
1.000000000000000E+20
 15
-1.000000000000000E+20
 25
-1.000000000000000E+20
 35
-1.000000000000000E+20
146
0.0
 13
0.0
 23
0.0
 33
0.0
 16
1.0
 26
0.0
 36
0.0
 17
0.0
 27
1.0
 37
0.0
 76
     0
330
1B
  0
LAYOUT
  5
26
102
{ACAD_REACTORS
330
1A
102
}
330
1A
100
AcDbPlotSettings
  1

  2
none_device
  4

  6

 40
0.0
 41
0.0
 42
0.0
 43
0.0
 44
0.0
 45
0.0
 46
0.0
 47
0.0
 48
0.0
 49
0.0
140
0.0
141
0.0
142
1.0
143
1.0
 70
   688
 72
     0
 73
     0
 74
     5
  7

 75
    16
 76
     0
 77
     2
 78
   300
147
1.0
148
0.0
149
0.0
100
AcDbLayout
  1
Layout2
 70
     1
 71
     2
 10
0.0
 20
0.0
 11
0.0
 21
0.0
 12
0.0
 22
0.0
 32
0.0
 14
0.0
 24
0.0
 34
0.0
 15
0.0
 25
0.0
 35
0.0
146
0.0
 13
0.0
 23
0.0
 33
0.0
 16
1.0
 26
0.0
 36
0.0
 17
0.0
 27
1.0
 37
0.0
 76
     0
330
23
  0
LAYOUT
  5
22
102
{ACAD_REACTORS
330
1A
102
}
330
1A
100
AcDbPlotSettings
  1

  2
none_device
  4

  6

 40
0.0
 41
0.0
 42
0.0
 43
0.0
 44
0.0
 45
0.0
 46
0.0
 47
0.0
 48
0.0
 49
0.0
140
0.0
141
0.0
142
1.0
143
1.0
 70
  1712
 72
     0
 73
     0
 74
     0
  7

 75
     0
 76
     0
 77
     2
 78
   300
147
1.0
148
0.0
149
0.0
100
AcDbLayout
  1
Model
 70
     1
 71
     0
 10
0.0
 20
0.0
 11
12.0
 21
9.0
 12
0.0
 22
0.0
 32
0.0
 14
1.000000000000000E+20
 24
1.000000000000000E+20
 34
1.000000000000000E+20
 15
-1.000000000000000E+20
 25
-1.000000000000000E+20
 35
-1.000000000000000E+20
146
0.0
 13
0.0
 23
0.0
 33
0.0
 16
1.0
 26
0.0
 36
0.0
 17
0.0
 27
1.0
 37
0.0
 76
     0
330
1F
331
29
  0
MATERIAL
  5
3D
102
{ACAD_REACTORS
330
3B
102
}
330
3B
100
AcDbMaterial
  1
ByBlock
 72
     1
 94
      127
  0
MATERIAL
  5
3C
102
{ACAD_REACTORS
330
3B
102
}
330
3B
100
AcDbMaterial
  1
ByLayer
 72
     1
 94
      127
  0
MATERIAL
  5
3E
102
{ACAD_REACTORS
330
3B
102
}
330
3B
100
AcDbMaterial
  1
Global
 72
     1
 94
      127
  0
MLINESTYLE
  5
18
102
{ACAD_REACTORS
330
17
102
}
330
17
100
AcDbMlineStyle
  2
Standard
 70
     0
  3

 62
   256
 51
90.0
 52
90.0
 71
     2
 49
0.5
 62
   256
  6
BYLAYER
 49
-0.5
 62
   256
  6
BYLAYER
  0
ACDBPLACEHOLDER
  5
F
102
{ACAD_REACTORS
330
E
102
}
330
E
  0
VISUALSTYLE
  5
2F
102
{ACAD_REACTORS
330
2A
102
}
330
2A
100
AcDbVisualStyle
  2
2dWireframe
 70
     4
177
     2
291
     0
 71
     0
176
     1
 72
     2
176
     1
 73
     0
176
     1
 90
        0
176
     1
 40
-0.6
176
     1
 41
-30.0
176
     1
 62
     5
 63
     7
421
 16777215
176
     1
 74
     1
176
     1
 91
        4
176
     1
 64
     7
176
     1
 65
   257
176
     1
 75
     1
176
     1
175
     1
176
     1
 42
1.0
176
     1
 92
        0
176
     1
 66
   257
176
     1
 43
1.0
176
     1
 76
     1
176
     1
 77
     6
176
     1
 78
     2
176
     1
 67
     7
176
     1
 79
     5
176
     1
170
     0
176
     1
171
     0
176
     1
290
     0
176
     1
 93
        1
176
     1
 44
0.0
176
     1
173
     0
176
     1
  0
VISUALSTYLE
  5
31
102
{ACAD_REACTORS
330
2A
102
}
330
2A
100
AcDbVisualStyle
  2
3D Hidden
 70
     6
177
     2
291
     0
 71
     1
176
     1
 72
     2
176
     1
 73
     2
176
     1
 90
        0
176
     1
 40
-0.6
176
     1
 41
-30.0
176
     1
 62
     5
 63
     7
421
 16777215
176
     1
 74
     2
176
     1
 91
        2
176
     1
 64
     7
176
     1
 65
   257
176
     1
 75
     2
176
     1
175
     1
176
     1
 42
40.0
176
     1
 92
        0
176
     1
 66
   257
176
     1
 43
1.0
176
     1
 76
     1
176
     1
 77
     6
176
     1
 78
     2
176
     1
 67
     7
176
     1
 79
     3
176
     1
170
     0
176
     1
171
     0
176
     1
290
     0
176
     1
 93
        1
176
     1
 44
0.0
176
     1
173
     0
176
     1
  0
VISUALSTYLE
  5
30
102
{ACAD_REACTORS
330
2A
102
}
330
2A
100
AcDbVisualStyle
  2
3dWireframe
 70
     5
177
     2
291
     0
 71
     0
176
     1
 72
     2
176
     1
 73
     0
176
     1
 90
        0
176
     1
 40
-0.6
176
     1
 41
-30.0
176
     1
 62
     5
 63
     7
421
 16777215
176
     1
 74
     1
176
     1
 91
        4
176
     1
 64
     7
176
     1
 65
   257
176
     1
 75
     1
176
     1
175
     1
176
     1
 42
1.0
176
     1
 92
        0
176
     1
 66
   257
176
     1
 43
1.0
176
     1
 76
     1
176
     1
 77
     6
176
     1
 78
     2
176
     1
 67
     7
176
     1
 79
     5
176
     1
170
     0
176
     1
171
     0
176
     1
290
     0
176
     1
 93
        1
176
     1
 44
0.0
176
     1
173
     0
176
     1
  0
VISUALSTYLE
  5
32
102
{ACAD_REACTORS
330
2A
102
}
330
2A
100
AcDbVisualStyle
  2
Basic
 70
     7
177
     2
291
     1
 71
     1
176
     1
 72
     0
176
     1
 73
     1
176
     1
 90
        0
176
     1
 40
-0.6
176
     1
 41
-30.0
176
     1
 62
     5
 63
     7
421
 16777215
176
     1
 74
     0
176
     1
 91
        4
176
     1
 64
     7
176
     1
 65
   257
176
     1
 75
     1
176
     1
175
     1
176
     1
 42
1.0
176
     1
 92
        8
176
     1
 66
     7
176
     1
 43
1.0
176
     1
 76
     1
176
     1
 77
     6
176
     1
 78
     2
176
     1
 67
     7
176
     1
 79
     5
176
     1
170
     0
176
     1
171
     0
176
     1
290
     0
176
     1
 93
        1
176
     1
 44
0.0
176
     1
173
     0
176
     1
  0
VISUALSTYLE
  5
36
102
{ACAD_REACTORS
330
2A
102
}
330
2A
100
AcDbVisualStyle
  2
Brighten
 70
    12
177
     2
291
     1
 71
     2
176
     1
 72
     2
176
     1
 73
     0
176
     1
 90
        0
176
     1
 40
-0.6
176
     1
 41
-30.0
176
     1
 62
     5
 63
     7
421
 16777215
176
     1
 74
     1
176
     1
 91
        4
176
     1
 64
     7
176
     1
 65
   257
176
     1
 75
     1
176
     1
175
     1
176
     1
 42
1.0
176
     1
 92
        8
176
     1
 66
     7
176
     1
 43
1.0
176
     1
 76
     1
176
     1
 77
     6
176
     1
 78
     2
176
     1
 67
     7
176
     1
 79
     5
176
     1
170
     0
176
     1
171
     0
176
     1
290
     0
176
     1
 93
        1
176
     1
 44
50.0
176
     1
173
     0
176
     1
  0
VISUALSTYLE
  5
3A
102
{ACAD_REACTORS
330
2A
102
}
330
2A
100
AcDbVisualStyle
  2
ColorChange
 70
    16
177
     2
291
     1
 71
     2
176
     1
 72
     2
176
     1
 73
     3
176
     1
 90
        0
176
     1
 40
-0.6
176
     1
 41
-30.0
176
     1
 62
     5
 63
     8
421
  8421504
176
     1
 74
     1
176
     1
 91
        4
176
     1
 64
     7
176
     1
 65
   257
176
     1
 75
     1
176
     1
175
     1
176
     1
 42
1.0
176
     1
 92
        8
176
     1
 66
     8
424
  8421504
176
     1
 43
1.0
176
     1
 76
     1
176
     1
 77
     6
176
     1
 78
     2
176
     1
 67
     7
176
     1
 79
     5
176
     1
170
     0
176
     1
171
     0
176
     1
290
     0
176
     1
 93
        1
176
     1
 44
0.0
176
     1
173
     0
176
     1
  0
VISUALSTYLE
  5
34
102
{ACAD_REACTORS
330
2A
102
}
330
2A
100
AcDbVisualStyle
  2
Conceptual
 70
     9
177
     2
291
     0
 71
     3
176
     1
 72
     2
176
     1
 73
     0
176
     1
 90
        0
176
     1
 40
-0.6
176
     1
 41
-30.0
176
     1
 62
     5
 63
     7
421
 16777215
176
     1
 74
     2
176
     1
 91
        2
176
     1
 64
     7
176
     1
 65
   257
176
     1
 75
     1
176
     1
175
     1
176
     1
 42
40.0
176
     1
 92
        8
176
     1
 66
     7
176
     1
 43
1.0
176
     1
 76
     1
176
     1
 77
     6
176
     1
 78
     2
176
     1
 67
     7
176
     1
 79
     3
176
     1
170
     0
176
     1
171
     0
176
     1
290
     0
176
     1
 93
        1
176
     1
 44
0.0
176
     1
173
     0
176
     1
  0
VISUALSTYLE
  5
35
102
{ACAD_REACTORS
330
2A
102
}
330
2A
100
AcDbVisualStyle
  2
Dim
 70
    11
177
     2
291
     1
 71
     2
176
     1
 72
     2
176
     1
 73
     0
176
     1
 90
        0
176
     1
 40
-0.6
176
     1
 41
-30.0
176
     1
 62
     5
 63
     7
421
 16777215
176
     1
 74
     1
176
     1
 91
        4
176
     1
 64
     7
176
     1
 65
   257
176
     1
 75
     1
176
     1
175
     1
176
     1
 42
1.0
176
     1
 92
        8
176
     1
 66
     7
176
     1
 43
1.0
176
     1
 76
     1
176
     1
 77
     6
176
     1
 78
     2
176
     1
 67
     7
176
     1
 79
     5
176
     1
170
     0
176
     1
171
     0
176
     1
290
     0
176
     1
 93
        1
176
     1
 44
-50.0
176
     1
173
     0
176
     1
  0
VISUALSTYLE
  5
39
102
{ACAD_REACTORS
330
2A
102
}
330
2A
100
AcDbVisualStyle
  2
Facepattern
 70
    15
177
     2
291
     1
 71
     2
176
     1
 72
     2
176
     1
 73
     0
176
     1
 90
        0
176
     1
 40
-0.6
176
     1
 41
-30.0
176
     1
 62
     5
 63
     7
421
 16777215
176
     1
 74
     1
176
     1
 91
        4
176
     1
 64
     7
176
     1
 65
   257
176
     1
 75
     1
176
     1
175
     1
176
     1
 42
1.0
176
     1
 92
        8
176
     1
 66
     7
176
     1
 43
1.0
176
     1
 76
     1
176
     1
 77
     6
176
     1
 78
     2
176
     1
 67
     7
176
     1
 79
     5
176
     1
170
     0
176
     1
171
     0
176
     1
290
     0
176
     1
 93
        1
176
     1
 44
0.0
176
     1
173
     0
176
     1
  0
VISUALSTYLE
  5
2B
102
{ACAD_REACTORS
330
2A
102
}
330
2A
100
AcDbVisualStyle
  2
Flat
 70
     0
177
     2
291
     1
 71
     2
176
     1
 72
     1
176
     1
 73
     1
176
     1
 90
        2
176
     1
 40
-0.6
176
     1
 41
30.0
176
     1
 62
     5
 63
     7
421
 16777215
176
     1
 74
     0
176
     1
 91
        4
176
     1
 64
     7
176
     1
 65
   257
176
     1
 75
     1
176
     1
175
     1
176
     1
 42
1.0
176
     1
 92
        8
176
     1
 66
     7
176
     1
 43
1.0
176
     1
 76
     1
176
     1
 77
     6
176
     1
 78
     2
176
     1
 67
     7
176
     1
 79
     5
176
     1
170
     0
176
     1
171
     0
176
     1
290
     0
176
     1
 93
       13
176
     1
 44
0.0
176
     1
173
     0
176
     1
  0
VISUALSTYLE
  5
2C
102
{ACAD_REACTORS
330
2A
102
}
330
2A
100
AcDbVisualStyle
  2
FlatWithEdges
 70
     1
177
     2
291
     1
 71
     2
176
     1
 72
     1
176
     1
 73
     1
176
     1
 90
        2
176
     1
 40
-0.6
176
     1
 41
30.0
176
     1
 62
     5
 63
     7
421
 16777215
176
     1
 74
     1
176
     1
 91
        4
176
     1
 64
     7
176
     1
 65
   257
176
     1
 75
     1
176
     1
175
     1
176
     1
 42
1.0
176
     1
 92
        0
176
     1
 66
   257
176
     1
 43
1.0
176
     1
 76
     1
176
     1
 77
     6
176
     1
 78
     2
176
     1
 67
     7
176
     1
 79
     5
176
     1
170
     0
176
     1
171
     0
176
     1
290
     0
176
     1
 93
       13
176
     1
 44
0.0
176
     1
173
     0
176
     1
  0
VISUALSTYLE
  5
2D
102
{ACAD_REACTORS
330
2A
102
}
330
2A
100
AcDbVisualStyle
  2
Gouraud
 70
     2
177
     2
291
     1
 71
     2
176
     1
 72
     2
176
     1
 73
     1
176
     1
 90
        2
176
     1
 40
-0.6
176
     1
 41
30.0
176
     1
 62
     5
 63
     7
421
 16777215
176
     1
 74
     0
176
     1
 91
        4
176
     1
 64
     7
176
     1
 65
   257
176
     1
 75
     1
176
     1
175
     1
176
     1
 42
1.0
176
     1
 92
        0
176
     1
 66
     7
176
     1
 43
1.0
176
     1
 76
     1
176
     1
 77
     6
176
     1
 78
     2
176
     1
 67
     7
176
     1
 79
     5
176
     1
170
     0
176
     1
171
     0
176
     1
290
     0
176
     1
 93
       13
176
     1
 44
0.0
176
     1
173
     0
176
     1
  0
VISUALSTYLE
  5
2E
102
{ACAD_REACTORS
330
2A
102
}
330
2A
100
AcDbVisualStyle
  2
GouraudWithEdges
 70
     3
177
     2
291
     1
 71
     2
176
     1
 72
     2
176
     1
 73
     1
176
     1
 90
        2
176
     1
 40
-0.6
176
     1
 41
30.0
176
     1
 62
     5
 63
     7
421
 16777215
176
     1
 74
     1
176
     1
 91
        4
176
     1
 64
     7
176
     1
 65
   257
176
     1
 75
     1
176
     1
175
     1
176
     1
 42
1.0
176
     1
 92
        0
176
     1
 66
   257
176
     1
 43
1.0
176
     1
 76
     1
176
     1
 77
     6
176
     1
 78
     2
176
     1
 67
     7
176
     1
 79
     5
176
     1
170
     0
176
     1
171
     0
176
     1
290
     0
176
     1
 93
       13
176
     1
 44
0.0
176
     1
173
     0
176
     1
  0
VISUALSTYLE
  5
38
102
{ACAD_REACTORS
330
2A
102
}
330
2A
100
AcDbVisualStyle
  2
Linepattern
 70
    14
177
     2
291
     1
 71
     2
176
     1
 72
     2
176
     1
 73
     0
176
     1
 90
        0
176
     1
 40
-0.6
176
     1
 41
-30.0
176
     1
 62
     5
 63
     7
421
 16777215
176
     1
 74
     1
176
     1
 91
        4
176
     1
 64
     7
176
     1
 65
   257
176
     1
 75
     7
176
     1
175
     7
176
     1
 42
1.0
176
     1
 92
        8
176
     1
 66
     7
176
     1
 43
1.0
176
     1
 76
     1
176
     1
 77
     6
176
     1
 78
     2
176
     1
 67
     7
176
     1
 79
     5
176
     1
170
     0
176
     1
171
     0
176
     1
290
     0
176
     1
 93
        1
176
     1
 44
0.0
176
     1
173
     0
176
     1
  0
VISUALSTYLE
  5
33
102
{ACAD_REACTORS
330
2A
102
}
330
2A
100
AcDbVisualStyle
  2
Realistic
 70
     8
177
     2
291
     0
 71
     2
176
     1
 72
     2
176
     1
 73
     0
176
     1
 90
        0
176
     1
 40
-0.6
176
     1
 41
-30.0
176
     1
 62
     5
 63
     7
421
 16777215
176
     1
 74
     1
176
     1
 91
        0
176
     1
 64
     7
176
     1
 65
   257
176
     1
 75
     1
176
     1
175
     1
176
     1
 42
1.0
176
     1
 92
        8
176
     1
 66
     8
424
  7895160
176
     1
 43
1.0
176
     1
 76
     1
176
     1
 77
     6
176
     1
 78
     2
176
     1
 67
     7
176
     1
 79
     5
176
     1
170
     0
176
     1
171
     0
176
     1
290
     0
176
     1
 93
       13
176
     1
 44
0.0
176
     1
173
     0
176
     1
  0
VISUALSTYLE
  5
37
102
{ACAD_REACTORS
330
2A
102
}
330
2A
100
AcDbVisualStyle
  2
Thicken
 70
    13
177
     2
291
     1
 71
     2
176
     1
 72
     2
176
     1
 73
     0
176
     1
 90
        0
176
     1
 40
-0.6
176
     1
 41
-30.0
176
     1
 62
     5
 63
     7
421
 16777215
176
     1
 74
     1
176
     1
 91
        4
176
     1
 64
     7
176
     1
 65
   257
176
     1
 75
     1
176
     1
175
     1
176
     1
 42
1.0
176
     1
 92
       12
176
     1
 66
     7
176
     1
 43
1.0
176
     1
 76
     1
176
     1
 77
     6
176
     1
 78
     2
176
     1
 67
     7
176
     1
 79
     5
176
     1
170
     0
176
     1
171
     0
176
     1
290
     0
176
     1
 93
        1
176
     1
 44
0.0
176
     1
173
     0
176
     1
  0
ENDSEC
  0
EOF
