  0
SECTION
  2
HEADER
  9
$ACADVER
  1
AC1021
  9
$ACADMAINTVER
 70
    25
  9
$DWGCODEPAGE
  3
ANSI_1252
  9
$INSBASE
 10
0.0
 20
0.0
 30
0.0
  9
$EXTMIN
 10
1.000000000000000E+20
 20
1.000000000000000E+20
 30
1.000000000000000E+20
  9
$EXTMAX
 10
-1.000000000000000E+20
 20
-1.000000000000000E+20
 30
-1.000000000000000E+20
  9
$LIMMIN
 10
0.0
 20
0.0
  9
$LIMMAX
 10
12.0
 20
9.0
  9
$ORTHOMODE
 70
     0
  9
$REGENMODE
 70
     1
  9
$FILLMODE
 70
     1
  9
$QTEXTMODE
 70
     0
  9
$MIRRTEXT
 70
     1
  9
$LTSCALE
 40
1.0
  9
$ATTMODE
 70
     1
  9
$TEXTSIZE
 40
0.2
  9
$TRACEWID
 40
0.05
  9
$TEXTSTYLE
  7
Standard
  9
$CLAYER
  8
0
  9
$CELTYPE
  6
ByLayer
  9
$CECOLOR
 62
   256
  9
$CELTSCALE
 40
1.0
  9
$DISPSILH
 70
     0
  9
$DIMSCALE
 40
1.0
  9
$DIMASZ
 40
0.18
  9
$DIMEXO
 40
0.0625
  9
$DIMDLI
 40
0.38
  9
$DIMRND
 40
0.0
  9
$DIMDLE
 40
0.0
  9
$DIMEXE
 40
0.18
  9
$DIMTP
 40
0.0
  9
$DIMTM
 40
0.0
  9
$DIMTXT
 40
0.18
  9
$DIMCEN
 40
0.09
  9
$DIMTSZ
 40
0.0
  9
$DIMTOL
 70
     0
  9
$DIMLIM
 70
     0
  9
$DIMTIH
 70
     1
  9
$DIMTOH
 70
     1
  9
$DIMSE1
 70
     0
  9
$DIMSE2
 70
     0
  9
$DIMTAD
 70
     0
  9
$DIMZIN
 70
     0
  9
$DIMBLK
  1

  9
$DIMASO
 70
     1
  9
$DIMSHO
 70
     1
  9
$DIMPOST
  1

  9
$DIMAPOST
  1

  9
$DIMALT
 70
     0
  9
$DIMALTD
 70
     2
  9
$DIMALTF
 40
25.4
  9
$DIMLFAC
 40
1.0
  9
$DIMTOFL
 70
     0
  9
$DIMTVP
 40
0.0
  9
$DIMTIX
 70
     0
  9
$DIMSOXD
 70
     0
  9
$DIMSAH
 70
     0
  9
$DIMBLK1
  1

  9
$DIMBLK2
  1

  9
$DIMSTYLE
  2
STANDARD_ACAD
  9
$DIMCLRD
 70
     0
  9
$DIMCLRE
 70
     0
  9
$DIMCLRT
 70
     0
  9
$DIMTFAC
 40
1.0
  9
$DIMGAP
 40
0.09
  9
$DIMJUST
 70
     0
  9
$DIMSD1
 70
     0
  9
$DIMSD2
 70
     0
  9
$DIMTOLJ
 70
     1
  9
$DIMTZIN
 70
     0
  9
$DIMALTZ
 70
     0
  9
$DIMALTTZ
 70
     0
  9
$DIMUPT
 70
     0
  9
$DIMDEC
 70
     4
  9
$DIMTDEC
 70
     4
  9
$DIMALTU
 70
     2
  9
$DIMALTTD
 70
     2
  9
$DIMTXSTY
  7
Standard
  9
$DIMAUNIT
 70
     0
  9
$DIMADEC
 70
     0
  9
$DIMALTRND
 40
0.0
  9
$DIMAZIN
 70
     0
  9
$DIMDSEP
 70
    46
  9
$DIMATFIT
 70
     3
  9
$DIMFRAC
 70
     0
  9
$DIMLDRBLK
  1

  9
$DIMLUNIT
 70
     2
  9
$DIMLWD
 70
    -2
  9
$DIMLWE
 70
    -2
  9
$DIMTMOVE
 70
     2
  9
$DIMFXL
 40
1.0
  9
$DIMFXLON
 70
     0
  9
$DIMJOGANG
 40
0.7853981633974483
  9
$DIMTFILL
 70
     0
  9
$DIMTFILLCLR
 70
     0
  9
$DIMARCSYM
 70
     0
  9
$DIMLTYPE
  6

  9
$DIMLTEX1
  6

  9
$DIMLTEX2
  6

  9
$LUNITS
 70
     2
  9
$LUPREC
 70
     3
  9
$SKETCHINC
 40
0.1
  9
$FILLETRAD
 40
0.5
  9
$AUNITS
 70
     0
  9
$AUPREC
 70
     0
  9
$MENU
  1
.
  9
$ELEVATION
 40
0.0
  9
$PELEVATION
 40
0.0
  9
$THICKNESS
 40
0.0
  9
$LIMCHECK
 70
     0
  9
$CHAMFERA
 40
0.0
  9
$CHAMFERB
 40
0.0
  9
$CHAMFERC
 40
0.0
  9
$CHAMFERD
 40
0.0
  9
$SKPOLY
 70
     0
  9
$TDCREATE
 40
2458628.68749779
  9
$TDUCREATE
 40
2458628.458331123
  9
$TDUPDATE
 40
2458628.68751309
  9
$TDUUPDATE
 40
2458628.458346424
  9
$TDINDWG
 40
0.0000000116
  9
$TDUSRTIMER
 40
0.0000000116
  9
$USRTIMER
 70
     1
  9
$ANGBASE
 50
0.0
  9
$ANGDIR
 70
     0
  9
$PDMODE
 70
     0
  9
$PDSIZE
 40
0.0
  9
$PLINEWID
 40
0.0
  9
$SPLFRAME
 70
     0
  9
$SPLINETYPE
 70
     6
  9
$SPLINESEGS
 70
     8
  9
$HANDSEED
  5
6E7
  9
$SURFTAB1
 70
     6
  9
$SURFTAB2
 70
     6
  9
$SURFTYPE
 70
     6
  9
$SURFU
 70
     6
  9
$SURFV
 70
     6
  9
$UCSBASE
  2

  9
$UCSNAME
  2

  9
$UCSORG
 10
0.0
 20
0.0
 30
0.0
  9
$UCSXDIR
 10
1.0
 20
0.0
 30
0.0
  9
$UCSYDIR
 10
0.0
 20
1.0
 30
0.0
  9
$UCSORTHOREF
  2

  9
$UCSORTHOVIEW
 70
     0
  9
$UCSORGTOP
 10
0.0
 20
0.0
 30
0.0
  9
$UCSORGBOTTOM
 10
0.0
 20
0.0
 30
0.0
  9
$UCSORGLEFT
 10
0.0
 20
0.0
 30
0.0
  9
$UCSORGRIGHT
 10
0.0
 20
0.0
 30
0.0
  9
$UCSORGFRONT
 10
0.0
 20
0.0
 30
0.0
  9
$UCSORGBACK
 10
0.0
 20
0.0
 30
0.0
  9
$PUCSBASE
  2

  9
$PUCSNAME
  2

  9
$PUCSORG
 10
0.0
 20
0.0
 30
0.0
  9
$PUCSXDIR
 10
1.0
 20
0.0
 30
0.0
  9
$PUCSYDIR
 10
0.0
 20
1.0
 30
0.0
  9
$PUCSORTHOREF
  2

  9
$PUCSORTHOVIEW
 70
     0
  9
$PUCSORGTOP
 10
0.0
 20
0.0
 30
0.0
  9
$PUCSORGBOTTOM
 10
0.0
 20
0.0
 30
0.0
  9
$PUCSORGLEFT
 10
0.0
 20
0.0
 30
0.0
  9
$PUCSORGRIGHT
 10
0.0
 20
0.0
 30
0.0
  9
$PUCSORGFRONT
 10
0.0
 20
0.0
 30
0.0
  9
$PUCSORGBACK
 10
0.0
 20
0.0
 30
0.0
  9
$USERI1
 70
     0
  9
$USERI2
 70
     0
  9
$USERI3
 70
     0
  9
$USERI4
 70
     0
  9
$USERI5
 70
     0
  9
$USERR1
 40
0.0
  9
$USERR2
 40
0.0
  9
$USERR3
 40
0.0
  9
$USERR4
 40
0.0
  9
$USERR5
 40
0.0
  9
$WORLDVIEW
 70
     1
  9
$SHADEDGE
 70
     3
  9
$SHADEDIF
 70
    70
  9
$TILEMODE
 70
     1
  9
$MAXACTVP
 70
    64
  9
$PINSBASE
 10
0.0
 20
0.0
 30
0.0
  9
$PLIMCHECK
 70
     0
  9
$PEXTMIN
 10
1.000000000000000E+20
 20
1.000000000000000E+20
 30
1.000000000000000E+20
  9
$PEXTMAX
 10
-1.000000000000000E+20
 20
-1.000000000000000E+20
 30
-1.000000000000000E+20
  9
$PLIMMIN
 10
0.0
 20
0.0
  9
$PLIMMAX
 10
12.0
 20
9.0
  9
$UNITMODE
 70
     0
  9
$VISRETAIN
 70
     1
  9
$PLINEGEN
 70
     0
  9
$PSLTSCALE
 70
     1
  9
$TREEDEPTH
 70
  3020
  9
$CMLSTYLE
  2
Standard
  9
$CMLJUST
 70
     0
  9
$CMLSCALE
 40
1.0
  9
$PROXYGRAPHICS
 70
     1
  9
$MEASUREMENT
 70
     1
  9
$CELWEIGHT
370
    -1
  9
$ENDCAPS
280
     0
  9
$JOINSTYLE
280
     0
  9
$LWDISPLAY
290
     0
  9
$INSUNITS
 70
     4
  9
$HYPERLINKBASE
  1

  9
$STYLESHEET
  1

  9
$XEDIT
290
     1
  9
$CEPSNTYPE
380
     0
  9
$PSTYLEMODE
290
     1
  9
$FINGERPRINTGUID
  2
{3ebfd0fc-1630-4429-ad40-840f5c3b6d01}
  9
$VERSIONGUID
  2
{FAEB1C32-E019-11D5-929B-00C0DF256EC4}
  9
$EXTNAMES
290
     1
  9
$PSVPSCALE
 40
0.0
  9
$OLESTARTUP
290
     0
  9
$SORTENTS
280
   127
  9
$INDEXCTL
280
     0
  9
$HIDETEXT
280
     1
  9
$XCLIPFRAME
290
     0
  9
$HALOGAP
280
     0
  9
$OBSCOLOR
 70
   257
  9
$OBSLTYPE
280
     0
  9
$INTERSECTIONDISPLAY
280
     0
  9
$INTERSECTIONCOLOR
 70
   257
  9
$DIMASSOC
280
     2
  9
$PROJECTNAME
  1

  9
$CAMERADISPLAY
290
     0
  9
$LENSLENGTH
 40
50.0
  9
$CAMERAHEIGHT
 40
0.0
  9
$STEPSPERSEC
 40
2.0
  9
$STEPSIZE
 40
6.0
  9
$3DDWFPREC
 40
2.0
  9
$PSOLWIDTH
 40
0.25
  9
$PSOLHEIGHT
 40
4.0
  9
$LOFTANG1
 40
1.570796326794897
  9
$LOFTANG2
 40
1.570796326794897
  9
$LOFTMAG1
 40
0.0
  9
$LOFTMAG2
 40
0.0
  9
$LOFTPARAM
 70
     7
  9
$LOFTNORMALS
280
     1
  9
$LATITUDE
 40
37.795
  9
$LONGITUDE
 40
-122.394
  9
$NORTHDIRECTION
 40
0.0
  9
$TIMEZONE
 70
 -8000
  9
$LIGHTGLYPHDISPLAY
280
     1
  9
$TILEMODELIGHTSYNCH
280
     1
  9
$CMATERIAL
347
44
  9
$SOLIDHIST
280
     0
  9
$SHOWHIST
280
     1
  9
$DWFFRAME
280
     2
  9
$DGNFRAME
280
     2
  9
$REALWORLDSCALE
290
     1
  9
$INTERFERECOLOR
 62
   256
  9
$CSHADOW
280
     0
  9
$SHADOWPLANELOCATION
 40
0.0
  0
ENDSEC
  0
SECTION
  2
CLASSES
  0
CLASS
  1
ACDBDICTIONARYWDFLT
  2
AcDbDictionaryWithDefault
  3
ObjectDBX Classes
 90
        0
 91
        3
280
     0
281
     0
  0
CLASS
  1
VISUALSTYLE
  2
AcDbVisualStyle
  3
ObjectDBX Classes
 90
     4095
 91
        3
280
     0
281
     0
  0
CLASS
  1
MATERIAL
  2
AcDbMaterial
  3
ObjectDBX Classes
 90
     1153
 91
        3
280
     0
281
     0
  0
CLASS
  1
SCALE
  2
AcDbScale
  3
ObjectDBX Classes
 90
     1153
 91
        3
280
     0
281
     0
  0
CLASS
  1
TABLESTYLE
  2
AcDbTableStyle
  3
ObjectDBX Classes
 90
     4095
 91
        3
280
     0
281
     0
  0
CLASS
  1
MLEADERSTYLE
  2
AcDbMLeaderStyle
  3
ACDB_MLEADERSTYLE_CLASS
 90
     4095
 91
        3
280
     0
281
     0
  0
CLASS
  1
SUN
  2
AcDbSun
  3
SCENEOE
 90
     1153
 91
        3
280
     0
281
     0
  0
CLASS
  1
DICTIONARYVAR
  2
AcDbDictionaryVar
  3
ObjectDBX Classes
 90
        0
 91
        3
280
     0
281
     0
  0
CLASS
  1
CELLSTYLEMAP
  2
AcDbCellStyleMap
  3
ObjectDBX Classes
 90
     1152
 91
        3
280
     0
281
     0
  0
ENDSEC
  0
SECTION
  2
TABLES
  0
TABLE
  2
VPORT
  5
8
330
0
100
AcDbSymbolTable
 70
     1
  0
VPORT
  5
29
330
8
100
AcDbSymbolTableRecord
100
AcDbViewportTableRecord
  2
*Active
 70
     0
 10
0.0
 20
0.0
 11
1.0
 21
1.0
 12
10.42990654205607
 22
4.5
 13
0.0
 23
0.0
 14
0.5
 24
0.5
 15
0.5
 25
0.5
 16
0.0
 26
0.0
 36
1.0
 17
0.0
 27
0.0
 37
0.0
 40
9.0
 41
1.972972972850329
 42
50.0
 43
0.0
 44
0.0
 50
0.0
 51
0.0
 71
     0
 72
   100
 73
     1
 74
     3
 75
     0
 76
     0
 77
     0
 78
     0
281
     0
 65
     1
110
0.0
120
0.0
130
0.0
111
1.0
121
0.0
131
0.0
112
0.0
122
1.0
132
0.0
 79
     0
146
0.0
348
2F
 60
     3
 61
     5
292
     1
282
     1
141
0.0
142
0.0
 63
   250
361
6D
  0
ENDTAB
  0
TABLE
  2
LTYPE
  5
5
330
0
100
AcDbSymbolTable
 70
     1
  0
LTYPE
  5
14
330
5
100
AcDbSymbolTableRecord
100
AcDbLinetypeTableRecord
  2
ByBlock
 70
     0
  3

 72
    65
 73
     0
 40
0.0
  0
LTYPE
  5
15
330
5
100
AcDbSymbolTableRecord
100
AcDbLinetypeTableRecord
  2
ByLayer
 70
     0
  3

 72
    65
 73
     0
 40
0.0
  0
LTYPE
  5
16
330
5
100
AcDbSymbolTableRecord
100
AcDbLinetypeTableRecord
  2
Continuous
 70
     0
  3
Solid line
 72
    65
 73
     0
 40
0.0
  0
ENDTAB
  0
TABLE
  2
LAYER
  5
2
330
0
100
AcDbSymbolTable
 70
     1
  0
LAYER
  5
10
330
2
100
AcDbSymbolTableRecord
100
AcDbLayerTableRecord
  2
0
 70
     0
 62
    18
420
        0
  6
Continuous
370
    -3
390
F
347
46
  0
ENDTAB
  0
TABLE
  2
STYLE
  5
3
330
0
100
AcDbSymbolTable
 70
     1
  0
STYLE
  5
11
330
3
100
AcDbSymbolTableRecord
100
AcDbTextStyleTableRecord
  2
Standard
 70
     0
 40
0.0
 41
1.0
 50
0.0
 71
     0
 42
0.2
  3
txt
  4

  0
ENDTAB
  0
TABLE
  2
VIEW
  5
6
330
0
100
AcDbSymbolTable
 70
     0
  0
ENDTAB
  0
TABLE
  2
UCS
  5
7
330
0
100
AcDbSymbolTable
 70
     0
  0
ENDTAB
  0
TABLE
  2
APPID
  5
9
330
0
100
AcDbSymbolTable
 70
     2
  0
APPID
  5
12
330
9
100
AcDbSymbolTableRecord
100
AcDbRegAppTableRecord
  2
ACAD
 70
     0
  0
APPID
  5
6DF
330
9
100
AcDbSymbolTableRecord
100
AcDbRegAppTableRecord
  2
ACAD_MLEADERVER
 70
     0
  0
ENDTAB
  0
TABLE
  2
DIMSTYLE
  5
A
330
0
100
AcDbSymbolTable
 70
     1
100
AcDbDimStyleTable
  0
DIMSTYLE
105
27
330
A
100
AcDbSymbolTableRecord
100
AcDbDimStyleTableRecord
  2
STANDARD_ACAD
 70
     0
178
     0
340
11
  0
ENDTAB
  0
TABLE
  2
BLOCK_RECORD
  5
1
330
0
100
AcDbSymbolTable
 70
     1
  0
BLOCK_RECORD
  5
1F
330
1
100
AcDbSymbolTableRecord
100
AcDbBlockTableRecord
  2
*Model_Space
340
22
 70
     0
280
     1
281
     0
  0
BLOCK_RECORD
  5
1B
330
1
100
AcDbSymbolTableRecord
100
AcDbBlockTableRecord
  2
*Paper_Space
340
1E
 70
     0
280
     1
281
     0
  0
BLOCK_RECORD
  5
23
330
1
100
AcDbSymbolTableRecord
100
AcDbBlockTableRecord
  2
*Paper_Space0
340
26
 70
     0
280
     1
281
     0
  0
ENDTAB
  0
ENDSEC
  0
SECTION
  2
BLOCKS
  0
BLOCK
  5
20
330
1F
100
AcDbEntity
  8
0
100
AcDbBlockBegin
  2
*Model_Space
 70
     0
 10
0.0
 20
0.0
 30
0.0
  3
*Model_Space
  1

  0
ENDBLK
  5
21
330
1F
100
AcDbEntity
  8
0
100
AcDbBlockEnd
  0
BLOCK
  5
1C
330
1B
100
AcDbEntity
 67
     1
  8
0
100
AcDbBlockBegin
  2
*Paper_Space
 70
     0
 10
0.0
 20
0.0
 30
0.0
  3
*Paper_Space
  1

  0
ENDBLK
  5
1D
330
1B
100
AcDbEntity
 67
     1
  8
0
100
AcDbBlockEnd
  0
BLOCK
  5
24
330
23
100
AcDbEntity
  8
0
100
AcDbBlockBegin
  2
*Paper_Space0
 70
     0
 10
0.0
 20
0.0
 30
0.0
  3
*Paper_Space0
  1

  0
ENDBLK
  5
25
330
23
100
AcDbEntity
  8
0
100
AcDbBlockEnd
  0
ENDSEC
  0
SECTION
  2
ENTITIES
  0
POLYLINE
  5
6E
330
1F
100
AcDbEntity
  8
0
100
AcDb2dPolyline
 66
     1
 10
0.0
 20
0.0
 30
0.0
 70
     1
  0
VERTEX
  5
6F
330
6E
100
AcDbEntity
  8
0
100
AcDbVertex
100
AcDb2dVertex
 10
164.1270058981118
 20
142.5049614476748
 30
0.0
  0
VERTEX
  5
70
330
6E
100
AcDbEntity
  8
0
100
AcDbVertex
100
AcDb2dVertex
 10
164.1270058981118
 20
137.5049614476748
 30
0.0
  0
VERTEX
  5
71
330
6E
100
AcDbEntity
  8
0
100
AcDbVertex
100
AcDb2dVertex
 10
167.7270058981118
 20
137.5049614476748
 30
0.0
  0
VERTEX
  5
72
330
6E
100
AcDbEntity
  8
0
100
AcDbVertex
100
AcDb2dVertex
 10
167.7270058981118
 20
142.5049614476748
 30
0.0
  0
VERTEX
  5
73
330
6E
100
AcDbEntity
  8
0
100
AcDbVertex
100
AcDb2dVertex
 10
191.734562930888
 20
142.5049614476748
 30
0.0
  0
VERTEX
  5
74
330
6E
100
AcDbEntity
  8
0
100
AcDbVertex
100
AcDb2dVertex
 10
179.7307844145
 20
121.7138071744867
 30
0.0
  0
VERTEX
  5
75
330
6E
100
AcDbEntity
  8
0
100
AcDbVertex
100
AcDb2dVertex
 10
175.4006573955778
 20
124.2138071744867
 30
0.0
  0
VERTEX
  5
76
330
6E
100
AcDbEntity
  8
0
100
AcDbVertex
100
AcDb2dVertex
 10
173.6006573955777
 20
121.0961157208627
 30
0.0
  0
VERTEX
  5
77
330
6E
100
AcDbEntity
  8
0
100
AcDbVertex
100
AcDb2dVertex
 10
177.9307844145
 20
118.5961157208627
 30
0.0
  0
VERTEX
  5
78
330
6E
100
AcDbEntity
  8
0
100
AcDbVertex
100
AcDb2dVertex
 10
165.9270058981118
 20
97.80496144767477
 30
0.0
  0
VERTEX
  5
79
330
6E
100
AcDbEntity
  8
0
100
AcDbVertex
100
AcDb2dVertex
 10
153.9232273817237
 20
118.5961157208627
 30
0.0
  0
VERTEX
  5
7A
330
6E
100
AcDbEntity
  8
0
100
AcDbVertex
100
AcDb2dVertex
 10
158.2533544006459
 20
121.0961157208627
 30
0.0
  0
VERTEX
  5
7B
330
6E
100
AcDbEntity
  8
0
100
AcDbVertex
100
AcDb2dVertex
 10
156.4533544006459
 20
124.2138071744867
 30
0.0
  0
VERTEX
  5
7C
330
6E
100
AcDbEntity
  8
0
100
AcDbVertex
100
AcDb2dVertex
 10
152.1232273817237
 20
121.7138071744867
 30
0.0
  0
VERTEX
  5
7D
330
6E
100
AcDbEntity
  8
0
100
AcDbVertex
100
AcDb2dVertex
 10
140.1194488653355
 20
142.5049614476748
 30
0.0
  0
SEQEND
  5
7E
330
6E
100
AcDbEntity
  8
0
  0
POLYLINE
  5
7F
330
1F
100
AcDbEntity
  8
0
100
AcDb2dPolyline
 66
     1
 10
0.0
 20
0.0
 30
0.0
 70
     1
  0
VERTEX
  5
80
330
7F
100
AcDbEntity
  8
0
100
AcDbVertex
100
AcDb2dVertex
 10
135.81889569282
 20
98.21989822582336
 30
0.0
  0
VERTEX
  5
81
330
7F
100
AcDbEntity
  8
0
100
AcDbVertex
100
AcDb2dVertex
 10
135.81889569282
 20
103.2198982258234
 30
0.0
  0
VERTEX
  5
82
330
7F
100
AcDbEntity
  8
0
100
AcDbVertex
100
AcDb2dVertex
 10
132.21889569282
 20
103.2198982258234
 30
0.0
  0
VERTEX
  5
83
330
7F
100
AcDbEntity
  8
0
100
AcDbVertex
100
AcDb2dVertex
 10
132.21889569282
 20
98.21989822582336
 30
0.0
  0
VERTEX
  5
84
330
7F
100
AcDbEntity
  8
0
100
AcDbVertex
100
AcDb2dVertex
 10
108.2113386600438
 20
98.21989822582336
 30
0.0
  0
VERTEX
  5
85
330
7F
100
AcDbEntity
  8
0
100
AcDbVertex
100
AcDb2dVertex
 10
120.2151171764319
 20
119.0110524990114
 30
0.0
  0
VERTEX
  5
86
330
7F
100
AcDbEntity
  8
0
100
AcDbVertex
100
AcDb2dVertex
 10
124.5452441953541
 20
116.5110524990114
 30
0.0
  0
VERTEX
  5
87
330
7F
100
AcDbEntity
  8
0
100
AcDbVertex
100
AcDb2dVertex
 10
126.3452441953541
 20
119.6287439526354
 30
0.0
  0
VERTEX
  5
88
330
7F
100
AcDbEntity
  8
0
100
AcDbVertex
100
AcDb2dVertex
 10
122.0151171764319
 20
122.1287439526354
 30
0.0
  0
VERTEX
  5
89
330
7F
100
AcDbEntity
  8
0
100
AcDbVertex
100
AcDb2dVertex
 10
134.01889569282
 20
142.9198982258233
 30
0.0
  0
VERTEX
  5
8A
330
7F
100
AcDbEntity
  8
0
100
AcDbVertex
100
AcDb2dVertex
 10
146.0226742092082
 20
122.1287439526354
 30
0.0
  0
VERTEX
  5
8B
330
7F
100
AcDbEntity
  8
0
100
AcDbVertex
100
AcDb2dVertex
 10
141.6925471902859
 20
119.6287439526354
 30
0.0
  0
VERTEX
  5
8C
330
7F
100
AcDbEntity
  8
0
100
AcDbVertex
100
AcDb2dVertex
 10
143.492547190286
 20
116.5110524990114
 30
0.0
  0
VERTEX
  5
8D
330
7F
100
AcDbEntity
  8
0
100
AcDbVertex
100
AcDb2dVertex
 10
147.8226742092082
 20
119.0110524990114
 30
0.0
  0
VERTEX
  5
8E
330
7F
100
AcDbEntity
  8
0
100
AcDbVertex
100
AcDb2dVertex
 10
159.8264527255963
 20
98.21989822582336
 30
0.0
  0
SEQEND
  5
8F
330
7F
100
AcDbEntity
  8
0
  0
POLYLINE
  5
90
330
1F
100
AcDbEntity
  8
0
100
AcDb2dPolyline
 66
     1
 10
0.0
 20
0.0
 30
0.0
 70
     1
  0
VERTEX
  5
91
330
90
100
AcDbEntity
  8
0
100
AcDbVertex
100
AcDb2dVertex
 10
100.1014003352874
 20
142.5049614476748
 30
0.0
  0
VERTEX
  5
92
330
90
100
AcDbEntity
  8
0
100
AcDbVertex
100
AcDb2dVertex
 10
100.1014003352874
 20
137.5049614476748
 30
0.0
  0
VERTEX
  5
93
330
90
100
AcDbEntity
  8
0
100
AcDbVertex
100
AcDb2dVertex
 10
103.7014003352874
 20
137.5049614476748
 30
0.0
  0
VERTEX
  5
94
330
90
100
AcDbEntity
  8
0
100
AcDbVertex
100
AcDb2dVertex
 10
103.7014003352874
 20
142.5049614476748
 30
0.0
  0
VERTEX
  5
95
330
90
100
AcDbEntity
  8
0
100
AcDbVertex
100
AcDb2dVertex
 10
127.7089573680636
 20
142.5049614476748
 30
0.0
  0
VERTEX
  5
96
330
90
100
AcDbEntity
  8
0
100
AcDbVertex
100
AcDb2dVertex
 10
115.7051788516756
 20
121.7138071744867
 30
0.0
  0
VERTEX
  5
97
330
90
100
AcDbEntity
  8
0
100
AcDbVertex
100
AcDb2dVertex
 10
111.3750518327533
 20
124.2138071744867
 30
0.0
  0
VERTEX
  5
98
330
90
100
AcDbEntity
  8
0
100
AcDbVertex
100
AcDb2dVertex
 10
109.5750518327533
 20
121.0961157208627
 30
0.0
  0
VERTEX
  5
99
330
90
100
AcDbEntity
  8
0
100
AcDbVertex
100
AcDb2dVertex
 10
113.9051788516755
 20
118.5961157208627
 30
0.0
  0
VERTEX
  5
9A
330
90
100
AcDbEntity
  8
0
100
AcDbVertex
100
AcDb2dVertex
 10
101.9014003352874
 20
97.80496144767477
 30
0.0
  0
VERTEX
  5
9B
330
90
100
AcDbEntity
  8
0
100
AcDbVertex
100
AcDb2dVertex
 10
89.89762181889927
 20
118.5961157208627
 30
0.0
  0
VERTEX
  5
9C
330
90
100
AcDbEntity
  8
0
100
AcDbVertex
100
AcDb2dVertex
 10
94.22774883782148
 20
121.0961157208627
 30
0.0
  0
VERTEX
  5
9D
330
90
100
AcDbEntity
  8
0
100
AcDbVertex
100
AcDb2dVertex
 10
92.42774883782147
 20
124.2138071744867
 30
0.0
  0
VERTEX
  5
9E
330
90
100
AcDbEntity
  8
0
100
AcDbVertex
100
AcDb2dVertex
 10
88.09762181889926
 20
121.7138071744867
 30
0.0
  0
VERTEX
  5
9F
330
90
100
AcDbEntity
  8
0
100
AcDbVertex
100
AcDb2dVertex
 10
76.09384330251112
 20
142.5049614476748
 30
0.0
  0
SEQEND
  5
A0
330
90
100
AcDbEntity
  8
0
  0
POLYLINE
  5
A1
330
1F
100
AcDbEntity
  8
0
100
AcDb2dPolyline
 66
     1
 10
0.0
 20
0.0
 30
0.0
 70
     1
  0
VERTEX
  5
A2
330
A1
100
AcDbEntity
  8
0
100
AcDbVertex
100
AcDb2dVertex
 10
71.79329012999563
 20
98.21989822582336
 30
0.0
  0
VERTEX
  5
A3
330
A1
100
AcDbEntity
  8
0
100
AcDbVertex
100
AcDb2dVertex
 10
71.79329012999563
 20
103.2198982258234
 30
0.0
  0
VERTEX
  5
A4
330
A1
100
AcDbEntity
  8
0
100
AcDbVertex
100
AcDb2dVertex
 10
68.1932901299956
 20
103.2198982258234
 30
0.0
  0
VERTEX
  5
A5
330
A1
100
AcDbEntity
  8
0
100
AcDbVertex
100
AcDb2dVertex
 10
68.1932901299956
 20
98.21989822582336
 30
0.0
  0
VERTEX
  5
A6
330
A1
100
AcDbEntity
  8
0
100
AcDbVertex
100
AcDb2dVertex
 10
44.18573309721938
 20
98.21989822582336
 30
0.0
  0
VERTEX
  5
A7
330
A1
100
AcDbEntity
  8
0
100
AcDbVertex
100
AcDb2dVertex
 10
56.18951161360746
 20
119.0110524990114
 30
0.0
  0
VERTEX
  5
A8
330
A1
100
AcDbEntity
  8
0
100
AcDbVertex
100
AcDb2dVertex
 10
60.51963863252968
 20
116.5110524990114
 30
0.0
  0
VERTEX
  5
A9
330
A1
100
AcDbEntity
  8
0
100
AcDbVertex
100
AcDb2dVertex
 10
62.31963863252969
 20
119.6287439526354
 30
0.0
  0
VERTEX
  5
AA
330
A1
100
AcDbEntity
  8
0
100
AcDbVertex
100
AcDb2dVertex
 10
57.98951161360748
 20
122.1287439526354
 30
0.0
  0
VERTEX
  5
AB
330
A1
100
AcDbEntity
  8
0
100
AcDbVertex
100
AcDb2dVertex
 10
69.99329012999561
 20
142.9198982258233
 30
0.0
  0
VERTEX
  5
AC
330
A1
100
AcDbEntity
  8
0
100
AcDbVertex
100
AcDb2dVertex
 10
81.99706864638375
 20
122.1287439526354
 30
0.0
  0
VERTEX
  5
AD
330
A1
100
AcDbEntity
  8
0
100
AcDbVertex
100
AcDb2dVertex
 10
77.66694162746154
 20
119.6287439526354
 30
0.0
  0
VERTEX
  5
AE
330
A1
100
AcDbEntity
  8
0
100
AcDbVertex
100
AcDb2dVertex
 10
79.46694162746155
 20
116.5110524990114
 30
0.0
  0
VERTEX
  5
AF
330
A1
100
AcDbEntity
  8
0
100
AcDbVertex
100
AcDb2dVertex
 10
83.79706864638376
 20
119.0110524990114
 30
0.0
  0
VERTEX
  5
B0
330
A1
100
AcDbEntity
  8
0
100
AcDbVertex
100
AcDb2dVertex
 10
95.8008471627719
 20
98.21989822582336
 30
0.0
  0
SEQEND
  5
B1
330
A1
100
AcDbEntity
  8
0
  0
POLYLINE
  5
B2
330
1F
100
AcDbEntity
  8
0
100
AcDb2dPolyline
 66
     1
 10
0.0
 20
0.0
 30
0.0
 70
     1
  0
VERTEX
  5
B3
330
B2
100
AcDbEntity
  8
0
100
AcDbVertex
100
AcDb2dVertex
 10
36.07579477246298
 20
142.5049614476748
 30
0.0
  0
VERTEX
  5
B4
330
B2
100
AcDbEntity
  8
0
100
AcDbVertex
100
AcDb2dVertex
 10
36.07579477246298
 20
137.5049614476748
 30
0.0
  0
VERTEX
  5
B5
330
B2
100
AcDbEntity
  8
0
100
AcDbVertex
100
AcDb2dVertex
 10
39.67579477246301
 20
137.5049614476748
 30
0.0
  0
VERTEX
  5
B6
330
B2
100
AcDbEntity
  8
0
100
AcDbVertex
100
AcDb2dVertex
 10
39.67579477246301
 20
142.5049614476748
 30
0.0
  0
VERTEX
  5
B7
330
B2
100
AcDbEntity
  8
0
100
AcDbVertex
100
AcDb2dVertex
 10
63.68335180523923
 20
142.5049614476748
 30
0.0
  0
VERTEX
  5
B8
330
B2
100
AcDbEntity
  8
0
100
AcDbVertex
100
AcDb2dVertex
 10
51.67957328885115
 20
121.7138071744867
 30
0.0
  0
VERTEX
  5
B9
330
B2
100
AcDbEntity
  8
0
100
AcDbVertex
100
AcDb2dVertex
 10
47.34944626992893
 20
124.2138071744867
 30
0.0
  0
VERTEX
  5
BA
330
B2
100
AcDbEntity
  8
0
100
AcDbVertex
100
AcDb2dVertex
 10
45.54944626992892
 20
121.0961157208627
 30
0.0
  0
VERTEX
  5
BB
330
B2
100
AcDbEntity
  8
0
100
AcDbVertex
100
AcDb2dVertex
 10
49.87957328885113
 20
118.5961157208627
 30
0.0
  0
VERTEX
  5
BC
330
B2
100
AcDbEntity
  8
0
100
AcDbVertex
100
AcDb2dVertex
 10
37.875794772463
 20
97.80496144767477
 30
0.0
  0
VERTEX
  5
BD
330
B2
100
AcDbEntity
  8
0
100
AcDbVertex
100
AcDb2dVertex
 10
25.87201625607486
 20
118.5961157208627
 30
0.0
  0
VERTEX
  5
BE
330
B2
100
AcDbEntity
  8
0
100
AcDbVertex
100
AcDb2dVertex
 10
30.20214327499707
 20
121.0961157208627
 30
0.0
  0
VERTEX
  5
BF
330
B2
100
AcDbEntity
  8
0
100
AcDbVertex
100
AcDb2dVertex
 10
28.40214327499706
 20
124.2138071744867
 30
0.0
  0
VERTEX
  5
C0
330
B2
100
AcDbEntity
  8
0
100
AcDbVertex
100
AcDb2dVertex
 10
24.07201625607485
 20
121.7138071744867
 30
0.0
  0
VERTEX
  5
C1
330
B2
100
AcDbEntity
  8
0
100
AcDbVertex
100
AcDb2dVertex
 10
12.06823773968671
 20
142.5049614476748
 30
0.0
  0
SEQEND
  5
C2
330
B2
100
AcDbEntity
  8
0
  0
POLYLINE
  5
C3
330
1F
100
AcDbEntity
  8
0
100
AcDb2dPolyline
 66
     1
 10
0.0
 20
0.0
 30
0.0
 70
     1
  0
VERTEX
  5
C4
330
C3
100
AcDbEntity
  8
0
100
AcDbVertex
100
AcDb2dVertex
 10
7.767684567171216
 20
98.21989822582336
 30
0.0
  0
VERTEX
  5
C5
330
C3
100
AcDbEntity
  8
0
100
AcDbVertex
100
AcDb2dVertex
 10
7.767684567171216
 20
103.2198982258234
 30
0.0
  0
VERTEX
  5
C6
330
C3
100
AcDbEntity
  8
0
100
AcDbVertex
100
AcDb2dVertex
 10
4.167684567171193
 20
103.2198982258234
 30
0.0
  0
VERTEX
  5
C7
330
C3
100
AcDbEntity
  8
0
100
AcDbVertex
100
AcDb2dVertex
 10
4.167684567171193
 20
98.21989822582336
 30
0.0
  0
VERTEX
  5
C8
330
C3
100
AcDbEntity
  8
0
100
AcDbVertex
100
AcDb2dVertex
 10
-19.83987246560503
 20
98.21989822582336
 30
0.0
  0
VERTEX
  5
C9
330
C3
100
AcDbEntity
  8
0
100
AcDbVertex
100
AcDb2dVertex
 10
-7.836093949216945
 20
119.0110524990114
 30
0.0
  0
VERTEX
  5
CA
330
C3
100
AcDbEntity
  8
0
100
AcDbVertex
100
AcDb2dVertex
 10
-3.505966930294733
 20
116.5110524990114
 30
0.0
  0
VERTEX
  5
CB
330
C3
100
AcDbEntity
  8
0
100
AcDbVertex
100
AcDb2dVertex
 10
-1.705966930294721
 20
119.6287439526354
 30
0.0
  0
VERTEX
  5
CC
330
C3
100
AcDbEntity
  8
0
100
AcDbVertex
100
AcDb2dVertex
 10
-6.036093949216934
 20
122.1287439526354
 30
0.0
  0
VERTEX
  5
CD
330
C3
100
AcDbEntity
  8
0
100
AcDbVertex
100
AcDb2dVertex
 10
5.967684567171204
 20
142.9198982258233
 30
0.0
  0
VERTEX
  5
CE
330
C3
100
AcDbEntity
  8
0
100
AcDbVertex
100
AcDb2dVertex
 10
17.97146308355934
 20
122.1287439526354
 30
0.0
  0
VERTEX
  5
CF
330
C3
100
AcDbEntity
  8
0
100
AcDbVertex
100
AcDb2dVertex
 10
13.64133606463713
 20
119.6287439526354
 30
0.0
  0
VERTEX
  5
D0
330
C3
100
AcDbEntity
  8
0
100
AcDbVertex
100
AcDb2dVertex
 10
15.44133606463714
 20
116.5110524990114
 30
0.0
  0
VERTEX
  5
D1
330
C3
100
AcDbEntity
  8
0
100
AcDbVertex
100
AcDb2dVertex
 10
19.77146308355935
 20
119.0110524990114
 30
0.0
  0
VERTEX
  5
D2
330
C3
100
AcDbEntity
  8
0
100
AcDbVertex
100
AcDb2dVertex
 10
31.77524159994749
 20
98.21989822582336
 30
0.0
  0
SEQEND
  5
D3
330
C3
100
AcDbEntity
  8
0
  0
POLYLINE
  5
D4
330
1F
100
AcDbEntity
  8
0
100
AcDb2dPolyline
 66
     1
 10
0.0
 20
0.0
 30
0.0
 70
     1
  0
VERTEX
  5
D5
330
D4
100
AcDbEntity
  8
0
100
AcDbVertex
100
AcDb2dVertex
 10
-27.94981079036143
 20
142.5049614476748
 30
0.0
  0
VERTEX
  5
D6
330
D4
100
AcDbEntity
  8
0
100
AcDbVertex
100
AcDb2dVertex
 10
-27.94981079036143
 20
137.5049614476748
 30
0.0
  0
VERTEX
  5
D7
330
D4
100
AcDbEntity
  8
0
100
AcDbVertex
100
AcDb2dVertex
 10
-24.3498107903614
 20
137.5049614476748
 30
0.0
  0
VERTEX
  5
D8
330
D4
100
AcDbEntity
  8
0
100
AcDbVertex
100
AcDb2dVertex
 10
-24.3498107903614
 20
142.5049614476748
 30
0.0
  0
VERTEX
  5
D9
330
D4
100
AcDbEntity
  8
0
100
AcDbVertex
100
AcDb2dVertex
 10
-0.3422537575851834
 20
142.5049614476748
 30
0.0
  0
VERTEX
  5
DA
330
D4
100
AcDbEntity
  8
0
100
AcDbVertex
100
AcDb2dVertex
 10
-12.34603227397326
 20
121.7138071744867
 30
0.0
  0
VERTEX
  5
DB
330
D4
100
AcDbEntity
  8
0
100
AcDbVertex
100
AcDb2dVertex
 10
-16.67615929289548
 20
124.2138071744867
 30
0.0
  0
VERTEX
  5
DC
330
D4
100
AcDbEntity
  8
0
100
AcDbVertex
100
AcDb2dVertex
 10
-18.47615929289549
 20
121.0961157208627
 30
0.0
  0
VERTEX
  5
DD
330
D4
100
AcDbEntity
  8
0
100
AcDbVertex
100
AcDb2dVertex
 10
-14.14603227397328
 20
118.5961157208627
 30
0.0
  0
VERTEX
  5
DE
330
D4
100
AcDbEntity
  8
0
100
AcDbVertex
100
AcDb2dVertex
 10
-26.14981079036141
 20
97.80496144767477
 30
0.0
  0
VERTEX
  5
DF
330
D4
100
AcDbEntity
  8
0
100
AcDbVertex
100
AcDb2dVertex
 10
-38.15358930674955
 20
118.5961157208627
 30
0.0
  0
VERTEX
  5
E0
330
D4
100
AcDbEntity
  8
0
100
AcDbVertex
100
AcDb2dVertex
 10
-33.82346228782734
 20
121.0961157208627
 30
0.0
  0
VERTEX
  5
E1
330
D4
100
AcDbEntity
  8
0
100
AcDbVertex
100
AcDb2dVertex
 10
-35.62346228782735
 20
124.2138071744867
 30
0.0
  0
VERTEX
  5
E2
330
D4
100
AcDbEntity
  8
0
100
AcDbVertex
100
AcDb2dVertex
 10
-39.95358930674956
 20
121.7138071744867
 30
0.0
  0
VERTEX
  5
E3
330
D4
100
AcDbEntity
  8
0
100
AcDbVertex
100
AcDb2dVertex
 10
-51.9573678231377
 20
142.5049614476748
 30
0.0
  0
SEQEND
  5
E4
330
D4
100
AcDbEntity
  8
0
  0
POLYLINE
  5
E5
330
1F
100
AcDbEntity
  8
0
100
AcDb2dPolyline
 66
     1
 10
0.0
 20
0.0
 30
0.0
 70
     1
  0
VERTEX
  5
E6
330
E5
100
AcDbEntity
  8
0
100
AcDbVertex
100
AcDb2dVertex
 10
-56.25792099565319
 20
98.21989822582336
 30
0.0
  0
VERTEX
  5
E7
330
E5
100
AcDbEntity
  8
0
100
AcDbVertex
100
AcDb2dVertex
 10
-56.25792099565319
 20
103.2198982258234
 30
0.0
  0
VERTEX
  5
E8
330
E5
100
AcDbEntity
  8
0
100
AcDbVertex
100
AcDb2dVertex
 10
-59.85792099565322
 20
103.2198982258234
 30
0.0
  0
VERTEX
  5
E9
330
E5
100
AcDbEntity
  8
0
100
AcDbVertex
100
AcDb2dVertex
 10
-59.85792099565322
 20
98.21989822582336
 30
0.0
  0
VERTEX
  5
EA
330
E5
100
AcDbEntity
  8
0
100
AcDbVertex
100
AcDb2dVertex
 10
-83.86547802842944
 20
98.21989822582336
 30
0.0
  0
VERTEX
  5
EB
330
E5
100
AcDbEntity
  8
0
100
AcDbVertex
100
AcDb2dVertex
 10
-71.86169951204135
 20
119.0110524990114
 30
0.0
  0
VERTEX
  5
EC
330
E5
100
AcDbEntity
  8
0
100
AcDbVertex
100
AcDb2dVertex
 10
-67.53157249311914
 20
116.5110524990114
 30
0.0
  0
VERTEX
  5
ED
330
E5
100
AcDbEntity
  8
0
100
AcDbVertex
100
AcDb2dVertex
 10
-65.73157249311913
 20
119.6287439526354
 30
0.0
  0
VERTEX
  5
EE
330
E5
100
AcDbEntity
  8
0
100
AcDbVertex
100
AcDb2dVertex
 10
-70.06169951204134
 20
122.1287439526354
 30
0.0
  0
VERTEX
  5
EF
330
E5
100
AcDbEntity
  8
0
100
AcDbVertex
100
AcDb2dVertex
 10
-58.05792099565321
 20
142.9198982258233
 30
0.0
  0
VERTEX
  5
F0
330
E5
100
AcDbEntity
  8
0
100
AcDbVertex
100
AcDb2dVertex
 10
-46.05414247926507
 20
122.1287439526354
 30
0.0
  0
VERTEX
  5
F1
330
E5
100
AcDbEntity
  8
0
100
AcDbVertex
100
AcDb2dVertex
 10
-50.38426949818728
 20
119.6287439526354
 30
0.0
  0
VERTEX
  5
F2
330
E5
100
AcDbEntity
  8
0
100
AcDbVertex
100
AcDb2dVertex
 10
-48.58426949818727
 20
116.5110524990114
 30
0.0
  0
VERTEX
  5
F3
330
E5
100
AcDbEntity
  8
0
100
AcDbVertex
100
AcDb2dVertex
 10
-44.25414247926506
 20
119.0110524990114
 30
0.0
  0
VERTEX
  5
F4
330
E5
100
AcDbEntity
  8
0
100
AcDbVertex
100
AcDb2dVertex
 10
-32.25036396287692
 20
98.21989822582336
 30
0.0
  0
SEQEND
  5
F5
330
E5
100
AcDbEntity
  8
0
  0
POLYLINE
  5
F6
330
1F
100
AcDbEntity
  8
0
100
AcDb2dPolyline
 66
     1
 10
0.0
 20
0.0
 30
0.0
 70
     1
  0
VERTEX
  5
F7
330
F6
100
AcDbEntity
  8
0
100
AcDbVertex
100
AcDb2dVertex
 10
-91.97541635318584
 20
142.5049614476748
 30
0.0
  0
VERTEX
  5
F8
330
F6
100
AcDbEntity
  8
0
100
AcDbVertex
100
AcDb2dVertex
 10
-91.97541635318584
 20
137.5049614476748
 30
0.0
  0
VERTEX
  5
F9
330
F6
100
AcDbEntity
  8
0
100
AcDbVertex
100
AcDb2dVertex
 10
-88.37541635318581
 20
137.5049614476748
 30
0.0
  0
VERTEX
  5
FA
330
F6
100
AcDbEntity
  8
0
100
AcDbVertex
100
AcDb2dVertex
 10
-88.37541635318581
 20
142.5049614476748
 30
0.0
  0
VERTEX
  5
FB
330
F6
100
AcDbEntity
  8
0
100
AcDbVertex
100
AcDb2dVertex
 10
-64.3678593204096
 20
142.5049614476748
 30
0.0
  0
VERTEX
  5
FC
330
F6
100
AcDbEntity
  8
0
100
AcDbVertex
100
AcDb2dVertex
 10
-76.37163783679767
 20
121.7138071744867
 30
0.0
  0
VERTEX
  5
FD
330
F6
100
AcDbEntity
  8
0
100
AcDbVertex
100
AcDb2dVertex
 10
-80.70176485571989
 20
124.2138071744867
 30
0.0
  0
VERTEX
  5
FE
330
F6
100
AcDbEntity
  8
0
100
AcDbVertex
100
AcDb2dVertex
 10
-82.5017648557199
 20
121.0961157208627
 30
0.0
  0
VERTEX
  5
FF
330
F6
100
AcDbEntity
  8
0
100
AcDbVertex
100
AcDb2dVertex
 10
-78.17163783679769
 20
118.5961157208627
 30
0.0
  0
VERTEX
  5
100
330
F6
100
AcDbEntity
  8
0
100
AcDbVertex
100
AcDb2dVertex
 10
-90.17541635318582
 20
97.80496144767477
 30
0.0
  0
VERTEX
  5
101
330
F6
100
AcDbEntity
  8
0
100
AcDbVertex
100
AcDb2dVertex
 10
-102.179194869574
 20
118.5961157208627
 30
0.0
  0
VERTEX
  5
102
330
F6
100
AcDbEntity
  8
0
100
AcDbVertex
100
AcDb2dVertex
 10
-97.84906785065175
 20
121.0961157208627
 30
0.0
  0
VERTEX
  5
103
330
F6
100
AcDbEntity
  8
0
100
AcDbVertex
100
AcDb2dVertex
 10
-99.64906785065176
 20
124.2138071744867
 30
0.0
  0
VERTEX
  5
104
330
F6
100
AcDbEntity
  8
0
100
AcDbVertex
100
AcDb2dVertex
 10
-103.979194869574
 20
121.7138071744867
 30
0.0
  0
VERTEX
  5
105
330
F6
100
AcDbEntity
  8
0
100
AcDbVertex
100
AcDb2dVertex
 10
-115.9829733859621
 20
142.5049614476748
 30
0.0
  0
SEQEND
  5
106
330
F6
100
AcDbEntity
  8
0
  0
POLYLINE
  5
107
330
1F
100
AcDbEntity
  8
0
100
AcDb2dPolyline
 66
     1
 10
0.0
 20
0.0
 30
0.0
 70
     1
  0
VERTEX
  5
108
330
107
100
AcDbEntity
  8
0
100
AcDbVertex
100
AcDb2dVertex
 10
-120.2835265584776
 20
98.21989822582336
 30
0.0
  0
VERTEX
  5
109
330
107
100
AcDbEntity
  8
0
100
AcDbVertex
100
AcDb2dVertex
 10
-120.2835265584776
 20
103.2198982258234
 30
0.0
  0
VERTEX
  5
10A
330
107
100
AcDbEntity
  8
0
100
AcDbVertex
100
AcDb2dVertex
 10
-123.8835265584776
 20
103.2198982258234
 30
0.0
  0
VERTEX
  5
10B
330
107
100
AcDbEntity
  8
0
100
AcDbVertex
100
AcDb2dVertex
 10
-123.8835265584776
 20
98.21989822582336
 30
0.0
  0
VERTEX
  5
10C
330
107
100
AcDbEntity
  8
0
100
AcDbVertex
100
AcDb2dVertex
 10
-147.8910835912538
 20
98.21989822582336
 30
0.0
  0
VERTEX
  5
10D
330
107
100
AcDbEntity
  8
0
100
AcDbVertex
100
AcDb2dVertex
 10
-135.8873050748658
 20
119.0110524990114
 30
0.0
  0
VERTEX
  5
10E
330
107
100
AcDbEntity
  8
0
100
AcDbVertex
100
AcDb2dVertex
 10
-131.5571780559436
 20
116.5110524990114
 30
0.0
  0
VERTEX
  5
10F
330
107
100
AcDbEntity
  8
0
100
AcDbVertex
100
AcDb2dVertex
 10
-129.7571780559435
 20
119.6287439526354
 30
0.0
  0
VERTEX
  5
110
330
107
100
AcDbEntity
  8
0
100
AcDbVertex
100
AcDb2dVertex
 10
-134.0873050748658
 20
122.1287439526354
 30
0.0
  0
VERTEX
  5
111
330
107
100
AcDbEntity
  8
0
100
AcDbVertex
100
AcDb2dVertex
 10
-122.0835265584776
 20
142.9198982258233
 30
0.0
  0
VERTEX
  5
112
330
107
100
AcDbEntity
  8
0
100
AcDbVertex
100
AcDb2dVertex
 10
-110.0797480420895
 20
122.1287439526354
 30
0.0
  0
VERTEX
  5
113
330
107
100
AcDbEntity
  8
0
100
AcDbVertex
100
AcDb2dVertex
 10
-114.4098750610117
 20
119.6287439526354
 30
0.0
  0
VERTEX
  5
114
330
107
100
AcDbEntity
  8
0
100
AcDbVertex
100
AcDb2dVertex
 10
-112.6098750610117
 20
116.5110524990114
 30
0.0
  0
VERTEX
  5
115
330
107
100
AcDbEntity
  8
0
100
AcDbVertex
100
AcDb2dVertex
 10
-108.2797480420895
 20
119.0110524990114
 30
0.0
  0
VERTEX
  5
116
330
107
100
AcDbEntity
  8
0
100
AcDbVertex
100
AcDb2dVertex
 10
-96.27596952570133
 20
98.21989822582336
 30
0.0
  0
SEQEND
  5
117
330
107
100
AcDbEntity
  8
0
  0
POLYLINE
  5
118
330
1F
100
AcDbEntity
  8
0
100
AcDb2dPolyline
 66
     1
 10
0.0
 20
0.0
 30
0.0
 70
     1
  0
VERTEX
  5
119
330
118
100
AcDbEntity
  8
0
100
AcDbVertex
100
AcDb2dVertex
 10
-156.0010219160102
 20
142.5049614476748
 30
0.0
  0
VERTEX
  5
11A
330
118
100
AcDbEntity
  8
0
100
AcDbVertex
100
AcDb2dVertex
 10
-156.0010219160102
 20
137.5049614476748
 30
0.0
  0
VERTEX
  5
11B
330
118
100
AcDbEntity
  8
0
100
AcDbVertex
100
AcDb2dVertex
 10
-152.4010219160102
 20
137.5049614476748
 30
0.0
  0
VERTEX
  5
11C
330
118
100
AcDbEntity
  8
0
100
AcDbVertex
100
AcDb2dVertex
 10
-152.4010219160102
 20
142.5049614476748
 30
0.0
  0
VERTEX
  5
11D
330
118
100
AcDbEntity
  8
0
100
AcDbVertex
100
AcDb2dVertex
 10
-128.393464883234
 20
142.5049614476748
 30
0.0
  0
VERTEX
  5
11E
330
118
100
AcDbEntity
  8
0
100
AcDbVertex
100
AcDb2dVertex
 10
-140.3972433996221
 20
121.7138071744867
 30
0.0
  0
VERTEX
  5
11F
330
118
100
AcDbEntity
  8
0
100
AcDbVertex
100
AcDb2dVertex
 10
-144.7273704185443
 20
124.2138071744867
 30
0.0
  0
VERTEX
  5
120
330
118
100
AcDbEntity
  8
0
100
AcDbVertex
100
AcDb2dVertex
 10
-146.5273704185443
 20
121.0961157208627
 30
0.0
  0
VERTEX
  5
121
330
118
100
AcDbEntity
  8
0
100
AcDbVertex
100
AcDb2dVertex
 10
-142.1972433996221
 20
118.5961157208627
 30
0.0
  0
VERTEX
  5
122
330
118
100
AcDbEntity
  8
0
100
AcDbVertex
100
AcDb2dVertex
 10
-154.2010219160102
 20
97.80496144767477
 30
0.0
  0
VERTEX
  5
123
330
118
100
AcDbEntity
  8
0
100
AcDbVertex
100
AcDb2dVertex
 10
-166.2048004323984
 20
118.5961157208627
 30
0.0
  0
VERTEX
  5
124
330
118
100
AcDbEntity
  8
0
100
AcDbVertex
100
AcDb2dVertex
 10
-161.8746734134762
 20
121.0961157208627
 30
0.0
  0
VERTEX
  5
125
330
118
100
AcDbEntity
  8
0
100
AcDbVertex
100
AcDb2dVertex
 10
-163.6746734134762
 20
124.2138071744867
 30
0.0
  0
VERTEX
  5
126
330
118
100
AcDbEntity
  8
0
100
AcDbVertex
100
AcDb2dVertex
 10
-168.0048004323984
 20
121.7138071744867
 30
0.0
  0
VERTEX
  5
127
330
118
100
AcDbEntity
  8
0
100
AcDbVertex
100
AcDb2dVertex
 10
-180.0085789487865
 20
142.5049614476748
 30
0.0
  0
SEQEND
  5
128
330
118
100
AcDbEntity
  8
0
  0
POLYLINE
  5
129
330
1F
100
AcDbEntity
  8
0
100
AcDb2dPolyline
 66
     1
 10
0.0
 20
0.0
 30
0.0
 70
     1
  0
VERTEX
  5
12A
330
129
100
AcDbEntity
  8
0
100
AcDbVertex
100
AcDb2dVertex
 10
-184.309132121302
 20
98.21989822582336
 30
0.0
  0
VERTEX
  5
12B
330
129
100
AcDbEntity
  8
0
100
AcDbVertex
100
AcDb2dVertex
 10
-184.309132121302
 20
103.2198982258234
 30
0.0
  0
VERTEX
  5
12C
330
129
100
AcDbEntity
  8
0
100
AcDbVertex
100
AcDb2dVertex
 10
-187.909132121302
 20
103.2198982258234
 30
0.0
  0
VERTEX
  5
12D
330
129
100
AcDbEntity
  8
0
100
AcDbVertex
100
AcDb2dVertex
 10
-187.909132121302
 20
98.21989822582336
 30
0.0
  0
VERTEX
  5
12E
330
129
100
AcDbEntity
  8
0
100
AcDbVertex
100
AcDb2dVertex
 10
-211.9166891540783
 20
98.21989822582336
 30
0.0
  0
VERTEX
  5
12F
330
129
100
AcDbEntity
  8
0
100
AcDbVertex
100
AcDb2dVertex
 10
-199.9129106376902
 20
119.0110524990114
 30
0.0
  0
VERTEX
  5
130
330
129
100
AcDbEntity
  8
0
100
AcDbVertex
100
AcDb2dVertex
 10
-195.582783618768
 20
116.5110524990114
 30
0.0
  0
VERTEX
  5
131
330
129
100
AcDbEntity
  8
0
100
AcDbVertex
100
AcDb2dVertex
 10
-193.782783618768
 20
119.6287439526354
 30
0.0
  0
VERTEX
  5
132
330
129
100
AcDbEntity
  8
0
100
AcDbVertex
100
AcDb2dVertex
 10
-198.1129106376902
 20
122.1287439526354
 30
0.0
  0
VERTEX
  5
133
330
129
100
AcDbEntity
  8
0
100
AcDbVertex
100
AcDb2dVertex
 10
-186.109132121302
 20
142.9198982258233
 30
0.0
  0
VERTEX
  5
134
330
129
100
AcDbEntity
  8
0
100
AcDbVertex
100
AcDb2dVertex
 10
-174.1053536049139
 20
122.1287439526354
 30
0.0
  0
VERTEX
  5
135
330
129
100
AcDbEntity
  8
0
100
AcDbVertex
100
AcDb2dVertex
 10
-178.4354806238361
 20
119.6287439526354
 30
0.0
  0
VERTEX
  5
136
330
129
100
AcDbEntity
  8
0
100
AcDbVertex
100
AcDb2dVertex
 10
-176.6354806238361
 20
116.5110524990114
 30
0.0
  0
VERTEX
  5
137
330
129
100
AcDbEntity
  8
0
100
AcDbVertex
100
AcDb2dVertex
 10
-172.3053536049139
 20
119.0110524990114
 30
0.0
  0
VERTEX
  5
138
330
129
100
AcDbEntity
  8
0
100
AcDbVertex
100
AcDb2dVertex
 10
-160.3015750885257
 20
98.21989822582336
 30
0.0
  0
SEQEND
  5
139
330
129
100
AcDbEntity
  8
0
  0
POLYLINE
  5
13A
330
1F
100
AcDbEntity
  8
0
100
AcDb2dPolyline
 66
     1
 10
0.0
 20
0.0
 30
0.0
 70
     1
  0
VERTEX
  5
13B
330
13A
100
AcDbEntity
  8
0
100
AcDbVertex
100
AcDb2dVertex
 10
-220.0266274788347
 20
142.5049614476748
 30
0.0
  0
VERTEX
  5
13C
330
13A
100
AcDbEntity
  8
0
100
AcDbVertex
100
AcDb2dVertex
 10
-220.0266274788347
 20
137.5049614476748
 30
0.0
  0
VERTEX
  5
13D
330
13A
100
AcDbEntity
  8
0
100
AcDbVertex
100
AcDb2dVertex
 10
-216.4266274788346
 20
137.5049614476748
 30
0.0
  0
VERTEX
  5
13E
330
13A
100
AcDbEntity
  8
0
100
AcDbVertex
100
AcDb2dVertex
 10
-216.4266274788346
 20
142.5049614476748
 30
0.0
  0
VERTEX
  5
13F
330
13A
100
AcDbEntity
  8
0
100
AcDbVertex
100
AcDb2dVertex
 10
-192.4190704460584
 20
142.5049614476748
 30
0.0
  0
VERTEX
  5
140
330
13A
100
AcDbEntity
  8
0
100
AcDbVertex
100
AcDb2dVertex
 10
-204.4228489624465
 20
121.7138071744867
 30
0.0
  0
VERTEX
  5
141
330
13A
100
AcDbEntity
  8
0
100
AcDbVertex
100
AcDb2dVertex
 10
-208.7529759813687
 20
124.2138071744867
 30
0.0
  0
VERTEX
  5
142
330
13A
100
AcDbEntity
  8
0
100
AcDbVertex
100
AcDb2dVertex
 10
-210.5529759813687
 20
121.0961157208627
 30
0.0
  0
VERTEX
  5
143
330
13A
100
AcDbEntity
  8
0
100
AcDbVertex
100
AcDb2dVertex
 10
-206.2228489624465
 20
118.5961157208627
 30
0.0
  0
VERTEX
  5
144
330
13A
100
AcDbEntity
  8
0
100
AcDbVertex
100
AcDb2dVertex
 10
-218.2266274788346
 20
97.80496144767477
 30
0.0
  0
VERTEX
  5
145
330
13A
100
AcDbEntity
  8
0
100
AcDbVertex
100
AcDb2dVertex
 10
-230.2304059952228
 20
118.5961157208627
 30
0.0
  0
VERTEX
  5
146
330
13A
100
AcDbEntity
  8
0
100
AcDbVertex
100
AcDb2dVertex
 10
-225.9002789763006
 20
121.0961157208627
 30
0.0
  0
VERTEX
  5
147
330
13A
100
AcDbEntity
  8
0
100
AcDbVertex
100
AcDb2dVertex
 10
-227.7002789763006
 20
124.2138071744867
 30
0.0
  0
VERTEX
  5
148
330
13A
100
AcDbEntity
  8
0
100
AcDbVertex
100
AcDb2dVertex
 10
-232.0304059952228
 20
121.7138071744867
 30
0.0
  0
VERTEX
  5
149
330
13A
100
AcDbEntity
  8
0
100
AcDbVertex
100
AcDb2dVertex
 10
-244.0341845116109
 20
142.5049614476748
 30
0.0
  0
SEQEND
  5
14A
330
13A
100
AcDbEntity
  8
0
  0
POLYLINE
  5
14B
330
1F
100
AcDbEntity
  8
0
100
AcDb2dPolyline
 66
     1
 10
0.0
 20
0.0
 30
0.0
 70
     1
  0
VERTEX
  5
14C
330
14B
100
AcDbEntity
  8
0
100
AcDbVertex
100
AcDb2dVertex
 10
-248.3347376841264
 20
98.21989822582336
 30
0.0
  0
VERTEX
  5
14D
330
14B
100
AcDbEntity
  8
0
100
AcDbVertex
100
AcDb2dVertex
 10
-248.3347376841264
 20
103.2198982258234
 30
0.0
  0
VERTEX
  5
14E
330
14B
100
AcDbEntity
  8
0
100
AcDbVertex
100
AcDb2dVertex
 10
-251.9347376841264
 20
103.2198982258234
 30
0.0
  0
VERTEX
  5
14F
330
14B
100
AcDbEntity
  8
0
100
AcDbVertex
100
AcDb2dVertex
 10
-251.9347376841264
 20
98.21989822582336
 30
0.0
  0
VERTEX
  5
150
330
14B
100
AcDbEntity
  8
0
100
AcDbVertex
100
AcDb2dVertex
 10
-275.9422947169027
 20
98.21989822582336
 30
0.0
  0
VERTEX
  5
151
330
14B
100
AcDbEntity
  8
0
100
AcDbVertex
100
AcDb2dVertex
 10
-263.9385162005146
 20
119.0110524990114
 30
0.0
  0
VERTEX
  5
152
330
14B
100
AcDbEntity
  8
0
100
AcDbVertex
100
AcDb2dVertex
 10
-259.6083891815924
 20
116.5110524990114
 30
0.0
  0
VERTEX
  5
153
330
14B
100
AcDbEntity
  8
0
100
AcDbVertex
100
AcDb2dVertex
 10
-257.8083891815924
 20
119.6287439526354
 30
0.0
  0
VERTEX
  5
154
330
14B
100
AcDbEntity
  8
0
100
AcDbVertex
100
AcDb2dVertex
 10
-262.1385162005146
 20
122.1287439526354
 30
0.0
  0
VERTEX
  5
155
330
14B
100
AcDbEntity
  8
0
100
AcDbVertex
100
AcDb2dVertex
 10
-250.1347376841264
 20
142.9198982258233
 30
0.0
  0
VERTEX
  5
156
330
14B
100
AcDbEntity
  8
0
100
AcDbVertex
100
AcDb2dVertex
 10
-238.1309591677383
 20
122.1287439526354
 30
0.0
  0
VERTEX
  5
157
330
14B
100
AcDbEntity
  8
0
100
AcDbVertex
100
AcDb2dVertex
 10
-242.4610861866605
 20
119.6287439526354
 30
0.0
  0
VERTEX
  5
158
330
14B
100
AcDbEntity
  8
0
100
AcDbVertex
100
AcDb2dVertex
 10
-240.6610861866605
 20
116.5110524990114
 30
0.0
  0
VERTEX
  5
159
330
14B
100
AcDbEntity
  8
0
100
AcDbVertex
100
AcDb2dVertex
 10
-236.3309591677383
 20
119.0110524990114
 30
0.0
  0
VERTEX
  5
15A
330
14B
100
AcDbEntity
  8
0
100
AcDbVertex
100
AcDb2dVertex
 10
-224.3271806513501
 20
98.21989822582336
 30
0.0
  0
SEQEND
  5
15B
330
14B
100
AcDbEntity
  8
0
  0
POLYLINE
  5
15C
330
1F
100
AcDbEntity
  8
0
100
AcDb2dPolyline
 66
     1
 10
0.0
 20
0.0
 30
0.0
 70
     1
  0
VERTEX
  5
15D
330
15C
100
AcDbEntity
  8
0
100
AcDbVertex
100
AcDb2dVertex
 10
-284.0522330416591
 20
142.5049614476748
 30
0.0
  0
VERTEX
  5
15E
330
15C
100
AcDbEntity
  8
0
100
AcDbVertex
100
AcDb2dVertex
 10
-284.0522330416591
 20
137.5049614476748
 30
0.0
  0
VERTEX
  5
15F
330
15C
100
AcDbEntity
  8
0
100
AcDbVertex
100
AcDb2dVertex
 10
-280.452233041659
 20
137.5049614476748
 30
0.0
  0
VERTEX
  5
160
330
15C
100
AcDbEntity
  8
0
100
AcDbVertex
100
AcDb2dVertex
 10
-280.452233041659
 20
142.5049614476748
 30
0.0
  0
VERTEX
  5
161
330
15C
100
AcDbEntity
  8
0
100
AcDbVertex
100
AcDb2dVertex
 10
-256.4446760088828
 20
142.5049614476748
 30
0.0
  0
VERTEX
  5
162
330
15C
100
AcDbEntity
  8
0
100
AcDbVertex
100
AcDb2dVertex
 10
-268.4484545252709
 20
121.7138071744867
 30
0.0
  0
VERTEX
  5
163
330
15C
100
AcDbEntity
  8
0
100
AcDbVertex
100
AcDb2dVertex
 10
-272.7785815441931
 20
124.2138071744867
 30
0.0
  0
VERTEX
  5
164
330
15C
100
AcDbEntity
  8
0
100
AcDbVertex
100
AcDb2dVertex
 10
-274.5785815441931
 20
121.0961157208627
 30
0.0
  0
VERTEX
  5
165
330
15C
100
AcDbEntity
  8
0
100
AcDbVertex
100
AcDb2dVertex
 10
-270.2484545252709
 20
118.5961157208627
 30
0.0
  0
VERTEX
  5
166
330
15C
100
AcDbEntity
  8
0
100
AcDbVertex
100
AcDb2dVertex
 10
-282.2522330416591
 20
97.80496144767477
 30
0.0
  0
VERTEX
  5
167
330
15C
100
AcDbEntity
  8
0
100
AcDbVertex
100
AcDb2dVertex
 10
-294.2560115580472
 20
118.5961157208627
 30
0.0
  0
VERTEX
  5
168
330
15C
100
AcDbEntity
  8
0
100
AcDbVertex
100
AcDb2dVertex
 10
-289.925884539125
 20
121.0961157208627
 30
0.0
  0
VERTEX
  5
169
330
15C
100
AcDbEntity
  8
0
100
AcDbVertex
100
AcDb2dVertex
 10
-291.725884539125
 20
124.2138071744867
 30
0.0
  0
VERTEX
  5
16A
330
15C
100
AcDbEntity
  8
0
100
AcDbVertex
100
AcDb2dVertex
 10
-296.0560115580472
 20
121.7138071744867
 30
0.0
  0
VERTEX
  5
16B
330
15C
100
AcDbEntity
  8
0
100
AcDbVertex
100
AcDb2dVertex
 10
-308.0597900744353
 20
142.5049614476748
 30
0.0
  0
SEQEND
  5
16C
330
15C
100
AcDbEntity
  8
0
  0
POLYLINE
  5
16D
330
1F
100
AcDbEntity
  8
0
100
AcDb2dPolyline
 66
     1
 10
0.0
 20
0.0
 30
0.0
 70
     1
  0
VERTEX
  5
16E
330
16D
100
AcDbEntity
  8
0
100
AcDbVertex
100
AcDb2dVertex
 10
-312.3603432469508
 20
98.21989822582336
 30
0.0
  0
VERTEX
  5
16F
330
16D
100
AcDbEntity
  8
0
100
AcDbVertex
100
AcDb2dVertex
 10
-312.3603432469508
 20
103.2198982258234
 30
0.0
  0
VERTEX
  5
170
330
16D
100
AcDbEntity
  8
0
100
AcDbVertex
100
AcDb2dVertex
 10
-315.9603432469509
 20
103.2198982258234
 30
0.0
  0
VERTEX
  5
171
330
16D
100
AcDbEntity
  8
0
100
AcDbVertex
100
AcDb2dVertex
 10
-315.9603432469509
 20
98.21989822582336
 30
0.0
  0
VERTEX
  5
172
330
16D
100
AcDbEntity
  8
0
100
AcDbVertex
100
AcDb2dVertex
 10
-339.9679002797271
 20
98.21989822582336
 30
0.0
  0
VERTEX
  5
173
330
16D
100
AcDbEntity
  8
0
100
AcDbVertex
100
AcDb2dVertex
 10
-327.964121763339
 20
119.0110524990114
 30
0.0
  0
VERTEX
  5
174
330
16D
100
AcDbEntity
  8
0
100
AcDbVertex
100
AcDb2dVertex
 10
-323.6339947444168
 20
116.5110524990114
 30
0.0
  0
VERTEX
  5
175
330
16D
100
AcDbEntity
  8
0
100
AcDbVertex
100
AcDb2dVertex
 10
-321.8339947444168
 20
119.6287439526354
 30
0.0
  0
VERTEX
  5
176
330
16D
100
AcDbEntity
  8
0
100
AcDbVertex
100
AcDb2dVertex
 10
-326.164121763339
 20
122.1287439526354
 30
0.0
  0
VERTEX
  5
177
330
16D
100
AcDbEntity
  8
0
100
AcDbVertex
100
AcDb2dVertex
 10
-314.1603432469508
 20
142.9198982258233
 30
0.0
  0
VERTEX
  5
178
330
16D
100
AcDbEntity
  8
0
100
AcDbVertex
100
AcDb2dVertex
 10
-302.1565647305627
 20
122.1287439526354
 30
0.0
  0
VERTEX
  5
179
330
16D
100
AcDbEntity
  8
0
100
AcDbVertex
100
AcDb2dVertex
 10
-306.4866917494849
 20
119.6287439526354
 30
0.0
  0
VERTEX
  5
17A
330
16D
100
AcDbEntity
  8
0
100
AcDbVertex
100
AcDb2dVertex
 10
-304.6866917494849
 20
116.5110524990114
 30
0.0
  0
VERTEX
  5
17B
330
16D
100
AcDbEntity
  8
0
100
AcDbVertex
100
AcDb2dVertex
 10
-300.3565647305627
 20
119.0110524990114
 30
0.0
  0
VERTEX
  5
17C
330
16D
100
AcDbEntity
  8
0
100
AcDbVertex
100
AcDb2dVertex
 10
-288.3527862141746
 20
98.21989822582336
 30
0.0
  0
SEQEND
  5
17D
330
16D
100
AcDbEntity
  8
0
  0
POLYLINE
  5
17E
330
1F
100
AcDbEntity
  8
0
100
AcDb2dPolyline
 66
     1
 10
0.0
 20
0.0
 30
0.0
 70
     1
  0
VERTEX
  5
17F
330
17E
100
AcDbEntity
  8
0
100
AcDbVertex
100
AcDb2dVertex
 10
-348.0778386044835
 20
142.5049614476748
 30
0.0
  0
VERTEX
  5
180
330
17E
100
AcDbEntity
  8
0
100
AcDbVertex
100
AcDb2dVertex
 10
-348.0778386044835
 20
137.5049614476748
 30
0.0
  0
VERTEX
  5
181
330
17E
100
AcDbEntity
  8
0
100
AcDbVertex
100
AcDb2dVertex
 10
-344.4778386044835
 20
137.5049614476748
 30
0.0
  0
VERTEX
  5
182
330
17E
100
AcDbEntity
  8
0
100
AcDbVertex
100
AcDb2dVertex
 10
-344.4778386044835
 20
142.5049614476748
 30
0.0
  0
VERTEX
  5
183
330
17E
100
AcDbEntity
  8
0
100
AcDbVertex
100
AcDb2dVertex
 10
-320.4702815717072
 20
142.5049614476748
 30
0.0
  0
VERTEX
  5
184
330
17E
100
AcDbEntity
  8
0
100
AcDbVertex
100
AcDb2dVertex
 10
-332.4740600880953
 20
121.7138071744867
 30
0.0
  0
VERTEX
  5
185
330
17E
100
AcDbEntity
  8
0
100
AcDbVertex
100
AcDb2dVertex
 10
-336.8041871070175
 20
124.2138071744867
 30
0.0
  0
VERTEX
  5
186
330
17E
100
AcDbEntity
  8
0
100
AcDbVertex
100
AcDb2dVertex
 10
-338.6041871070175
 20
121.0961157208627
 30
0.0
  0
VERTEX
  5
187
330
17E
100
AcDbEntity
  8
0
100
AcDbVertex
100
AcDb2dVertex
 10
-334.2740600880953
 20
118.5961157208627
 30
0.0
  0
VERTEX
  5
188
330
17E
100
AcDbEntity
  8
0
100
AcDbVertex
100
AcDb2dVertex
 10
-346.2778386044835
 20
97.80496144767477
 30
0.0
  0
VERTEX
  5
189
330
17E
100
AcDbEntity
  8
0
100
AcDbVertex
100
AcDb2dVertex
 10
-358.2816171208716
 20
118.5961157208627
 30
0.0
  0
VERTEX
  5
18A
330
17E
100
AcDbEntity
  8
0
100
AcDbVertex
100
AcDb2dVertex
 10
-353.9514901019494
 20
121.0961157208627
 30
0.0
  0
VERTEX
  5
18B
330
17E
100
AcDbEntity
  8
0
100
AcDbVertex
100
AcDb2dVertex
 10
-355.7514901019494
 20
124.2138071744867
 30
0.0
  0
VERTEX
  5
18C
330
17E
100
AcDbEntity
  8
0
100
AcDbVertex
100
AcDb2dVertex
 10
-360.0816171208716
 20
121.7138071744867
 30
0.0
  0
VERTEX
  5
18D
330
17E
100
AcDbEntity
  8
0
100
AcDbVertex
100
AcDb2dVertex
 10
-372.0853956372598
 20
142.5049614476748
 30
0.0
  0
SEQEND
  5
18E
330
17E
100
AcDbEntity
  8
0
  0
POLYLINE
  5
18F
330
1F
100
AcDbEntity
  8
0
100
AcDb2dPolyline
 66
     1
 10
0.0
 20
0.0
 30
0.0
 70
     1
  0
VERTEX
  5
190
330
18F
100
AcDbEntity
  8
0
100
AcDbVertex
100
AcDb2dVertex
 10
-376.3859488097752
 20
98.21989822582336
 30
0.0
  0
VERTEX
  5
191
330
18F
100
AcDbEntity
  8
0
100
AcDbVertex
100
AcDb2dVertex
 10
-376.3859488097752
 20
103.2198982258234
 30
0.0
  0
VERTEX
  5
192
330
18F
100
AcDbEntity
  8
0
100
AcDbVertex
100
AcDb2dVertex
 10
-379.9859488097753
 20
103.2198982258234
 30
0.0
  0
VERTEX
  5
193
330
18F
100
AcDbEntity
  8
0
100
AcDbVertex
100
AcDb2dVertex
 10
-379.9859488097753
 20
98.21989822582336
 30
0.0
  0
VERTEX
  5
194
330
18F
100
AcDbEntity
  8
0
100
AcDbVertex
100
AcDb2dVertex
 10
-403.9935058425515
 20
98.21989822582336
 30
0.0
  0
VERTEX
  5
195
330
18F
100
AcDbEntity
  8
0
100
AcDbVertex
100
AcDb2dVertex
 10
-391.9897273261634
 20
119.0110524990114
 30
0.0
  0
VERTEX
  5
196
330
18F
100
AcDbEntity
  8
0
100
AcDbVertex
100
AcDb2dVertex
 10
-387.6596003072412
 20
116.5110524990114
 30
0.0
  0
VERTEX
  5
197
330
18F
100
AcDbEntity
  8
0
100
AcDbVertex
100
AcDb2dVertex
 10
-385.8596003072412
 20
119.6287439526354
 30
0.0
  0
VERTEX
  5
198
330
18F
100
AcDbEntity
  8
0
100
AcDbVertex
100
AcDb2dVertex
 10
-390.1897273261634
 20
122.1287439526354
 30
0.0
  0
VERTEX
  5
199
330
18F
100
AcDbEntity
  8
0
100
AcDbVertex
100
AcDb2dVertex
 10
-378.1859488097753
 20
142.9198982258233
 30
0.0
  0
VERTEX
  5
19A
330
18F
100
AcDbEntity
  8
0
100
AcDbVertex
100
AcDb2dVertex
 10
-366.1821702933871
 20
122.1287439526354
 30
0.0
  0
VERTEX
  5
19B
330
18F
100
AcDbEntity
  8
0
100
AcDbVertex
100
AcDb2dVertex
 10
-370.5122973123093
 20
119.6287439526354
 30
0.0
  0
VERTEX
  5
19C
330
18F
100
AcDbEntity
  8
0
100
AcDbVertex
100
AcDb2dVertex
 10
-368.7122973123093
 20
116.5110524990114
 30
0.0
  0
VERTEX
  5
19D
330
18F
100
AcDbEntity
  8
0
100
AcDbVertex
100
AcDb2dVertex
 10
-364.3821702933871
 20
119.0110524990114
 30
0.0
  0
VERTEX
  5
19E
330
18F
100
AcDbEntity
  8
0
100
AcDbVertex
100
AcDb2dVertex
 10
-352.378391776999
 20
98.21989822582336
 30
0.0
  0
SEQEND
  5
19F
330
18F
100
AcDbEntity
  8
0
  0
POLYLINE
  5
1A0
330
1F
100
AcDbEntity
  8
0
100
AcDb2dPolyline
 66
     1
 10
0.0
 20
0.0
 30
0.0
 70
     1
  0
VERTEX
  5
1A1
330
1A0
100
AcDbEntity
  8
0
100
AcDbVertex
100
AcDb2dVertex
 10
160.4613693688881
 20
156.9812670334821
 30
0.0
  0
VERTEX
  5
1A2
330
1A0
100
AcDbEntity
  8
0
100
AcDbVertex
100
AcDb2dVertex
 10
160.4613693688881
 20
166.9812670334821
 30
0.0
  0
VERTEX
  5
1A3
330
1A0
100
AcDbEntity
  8
0
100
AcDbVertex
100
AcDb2dVertex
 10
177.7613693688881
 20
166.9812670334821
 30
0.0
  0
VERTEX
  5
1A4
330
1A0
100
AcDbEntity
  8
0
100
AcDbVertex
100
AcDb2dVertex
 10
177.761369368888
 20
156.9812670334821
 30
0.0
  0
VERTEX
  5
1A5
330
1A0
100
AcDbEntity
  8
0
100
AcDbVertex
100
AcDb2dVertex
 10
177.761369368888
 20
146.8312670334821
 30
0.0
  0
VERTEX
  5
1A6
330
1A0
100
AcDbEntity
  8
0
100
AcDbVertex
100
AcDb2dVertex
 10
97.46136936888809
 20
146.8312670334821
 30
0.0
  0
VERTEX
  5
1A7
330
1A0
100
AcDbEntity
  8
0
100
AcDbVertex
100
AcDb2dVertex
 10
97.46136936888809
 20
156.9812670334821
 30
0.0
  0
VERTEX
  5
1A8
330
1A0
100
AcDbEntity
  8
0
100
AcDbVertex
100
AcDb2dVertex
 10
97.46136936888809
 20
166.9812670334821
 30
0.0
  0
VERTEX
  5
1A9
330
1A0
100
AcDbEntity
  8
0
100
AcDbVertex
100
AcDb2dVertex
 10
114.761369368888
 20
166.9812670334821
 30
0.0
  0
VERTEX
  5
1AA
330
1A0
100
AcDbEntity
  8
0
100
AcDbVertex
100
AcDb2dVertex
 10
114.761369368888
 20
156.9812670334821
 30
0.0
  0
VERTEX
  5
1AB
330
1A0
100
AcDbEntity
  8
0
100
AcDbVertex
100
AcDb2dVertex
 10
118.4613693688881
 20
156.9812670334821
 30
0.0
  0
VERTEX
  5
1AC
330
1A0
100
AcDbEntity
  8
0
100
AcDbVertex
100
AcDb2dVertex
 10
118.4613693688881
 20
166.9812670334821
 30
0.0
  0
VERTEX
  5
1AD
330
1A0
100
AcDbEntity
  8
0
100
AcDbVertex
100
AcDb2dVertex
 10
135.761369368888
 20
166.9812670334821
 30
0.0
  0
VERTEX
  5
1AE
330
1A0
100
AcDbEntity
  8
0
100
AcDbVertex
100
AcDb2dVertex
 10
135.761369368888
 20
156.9812670334821
 30
0.0
  0
VERTEX
  5
1AF
330
1A0
100
AcDbEntity
  8
0
100
AcDbVertex
100
AcDb2dVertex
 10
139.4613693688881
 20
156.9812670334821
 30
0.0
  0
VERTEX
  5
1B0
330
1A0
100
AcDbEntity
  8
0
100
AcDbVertex
100
AcDb2dVertex
 10
139.4613693688881
 20
166.9812670334821
 30
0.0
  0
VERTEX
  5
1B1
330
1A0
100
AcDbEntity
  8
0
100
AcDbVertex
100
AcDb2dVertex
 10
156.7613693688881
 20
166.9812670334821
 30
0.0
  0
VERTEX
  5
1B2
330
1A0
100
AcDbEntity
  8
0
100
AcDbVertex
100
AcDb2dVertex
 10
156.7613693688881
 20
156.9812670334821
 30
0.0
  0
SEQEND
  5
1B3
330
1A0
100
AcDbEntity
  8
0
  0
POLYLINE
  5
1B4
330
1F
100
AcDbEntity
  8
0
100
AcDb2dPolyline
 66
     1
 10
0.0
 20
0.0
 30
0.0
 70
     1
  0
VERTEX
  5
1B5
330
1B4
100
AcDbEntity
  8
0
100
AcDbVertex
100
AcDb2dVertex
 10
77.1984944773937
 20
156.9812670334821
 30
0.0
  0
VERTEX
  5
1B6
330
1B4
100
AcDbEntity
  8
0
100
AcDbVertex
100
AcDb2dVertex
 10
77.1984944773937
 20
166.9812670334821
 30
0.0
  0
VERTEX
  5
1B7
330
1B4
100
AcDbEntity
  8
0
100
AcDbVertex
100
AcDb2dVertex
 10
94.4984944773937
 20
166.9812670334821
 30
0.0
  0
VERTEX
  5
1B8
330
1B4
100
AcDbEntity
  8
0
100
AcDbVertex
100
AcDb2dVertex
 10
94.49849447739365
 20
156.9812670334821
 30
0.0
  0
VERTEX
  5
1B9
330
1B4
100
AcDbEntity
  8
0
100
AcDbVertex
100
AcDb2dVertex
 10
94.49849447739365
 20
146.8312670334821
 30
0.0
  0
VERTEX
  5
1BA
330
1B4
100
AcDbEntity
  8
0
100
AcDbVertex
100
AcDb2dVertex
 10
14.19849447739369
 20
146.8312670334821
 30
0.0
  0
VERTEX
  5
1BB
330
1B4
100
AcDbEntity
  8
0
100
AcDbVertex
100
AcDb2dVertex
 10
14.19849447739369
 20
156.9812670334821
 30
0.0
  0
VERTEX
  5
1BC
330
1B4
100
AcDbEntity
  8
0
100
AcDbVertex
100
AcDb2dVertex
 10
14.19849447739369
 20
166.9812670334821
 30
0.0
  0
VERTEX
  5
1BD
330
1B4
100
AcDbEntity
  8
0
100
AcDbVertex
100
AcDb2dVertex
 10
31.49849447739365
 20
166.9812670334821
 30
0.0
  0
VERTEX
  5
1BE
330
1B4
100
AcDbEntity
  8
0
100
AcDbVertex
100
AcDb2dVertex
 10
31.49849447739365
 20
156.9812670334821
 30
0.0
  0
VERTEX
  5
1BF
330
1B4
100
AcDbEntity
  8
0
100
AcDbVertex
100
AcDb2dVertex
 10
35.19849447739369
 20
156.9812670334821
 30
0.0
  0
VERTEX
  5
1C0
330
1B4
100
AcDbEntity
  8
0
100
AcDbVertex
100
AcDb2dVertex
 10
35.19849447739369
 20
166.9812670334821
 30
0.0
  0
VERTEX
  5
1C1
330
1B4
100
AcDbEntity
  8
0
100
AcDbVertex
100
AcDb2dVertex
 10
52.49849447739365
 20
166.9812670334821
 30
0.0
  0
VERTEX
  5
1C2
330
1B4
100
AcDbEntity
  8
0
100
AcDbVertex
100
AcDb2dVertex
 10
52.49849447739365
 20
156.9812670334821
 30
0.0
  0
VERTEX
  5
1C3
330
1B4
100
AcDbEntity
  8
0
100
AcDbVertex
100
AcDb2dVertex
 10
56.19849447739369
 20
156.9812670334821
 30
0.0
  0
VERTEX
  5
1C4
330
1B4
100
AcDbEntity
  8
0
100
AcDbVertex
100
AcDb2dVertex
 10
56.19849447739369
 20
166.9812670334821
 30
0.0
  0
VERTEX
  5
1C5
330
1B4
100
AcDbEntity
  8
0
100
AcDbVertex
100
AcDb2dVertex
 10
73.4984944773937
 20
166.9812670334821
 30
0.0
  0
VERTEX
  5
1C6
330
1B4
100
AcDbEntity
  8
0
100
AcDbVertex
100
AcDb2dVertex
 10
73.4984944773937
 20
156.9812670334821
 30
0.0
  0
SEQEND
  5
1C7
330
1B4
100
AcDbEntity
  8
0
  0
POLYLINE
  5
1C8
330
1F
100
AcDbEntity
  8
0
100
AcDb2dPolyline
 66
     1
 10
0.0
 20
0.0
 30
0.0
 70
     1
  0
VERTEX
  5
1C9
330
1C8
100
AcDbEntity
  8
0
100
AcDbVertex
100
AcDb2dVertex
 10
-6.064380414100697
 20
156.9812670334821
 30
0.0
  0
VERTEX
  5
1CA
330
1C8
100
AcDbEntity
  8
0
100
AcDbVertex
100
AcDb2dVertex
 10
-6.064380414100697
 20
166.9812670334821
 30
0.0
  0
VERTEX
  5
1CB
330
1C8
100
AcDbEntity
  8
0
100
AcDbVertex
100
AcDb2dVertex
 10
11.23561958589931
 20
166.9812670334821
 30
0.0
  0
VERTEX
  5
1CC
330
1C8
100
AcDbEntity
  8
0
100
AcDbVertex
100
AcDb2dVertex
 10
11.23561958589926
 20
156.9812670334821
 30
0.0
  0
VERTEX
  5
1CD
330
1C8
100
AcDbEntity
  8
0
100
AcDbVertex
100
AcDb2dVertex
 10
11.23561958589926
 20
146.8312670334821
 30
0.0
  0
VERTEX
  5
1CE
330
1C8
100
AcDbEntity
  8
0
100
AcDbVertex
100
AcDb2dVertex
 10
-69.0643804141007
 20
146.8312670334821
 30
0.0
  0
VERTEX
  5
1CF
330
1C8
100
AcDbEntity
  8
0
100
AcDbVertex
100
AcDb2dVertex
 10
-69.0643804141007
 20
156.9812670334821
 30
0.0
  0
VERTEX
  5
1D0
330
1C8
100
AcDbEntity
  8
0
100
AcDbVertex
100
AcDb2dVertex
 10
-69.0643804141007
 20
166.9812670334821
 30
0.0
  0
VERTEX
  5
1D1
330
1C8
100
AcDbEntity
  8
0
100
AcDbVertex
100
AcDb2dVertex
 10
-51.76438041410074
 20
166.9812670334821
 30
0.0
  0
VERTEX
  5
1D2
330
1C8
100
AcDbEntity
  8
0
100
AcDbVertex
100
AcDb2dVertex
 10
-51.76438041410074
 20
156.9812670334821
 30
0.0
  0
VERTEX
  5
1D3
330
1C8
100
AcDbEntity
  8
0
100
AcDbVertex
100
AcDb2dVertex
 10
-48.0643804141007
 20
156.9812670334821
 30
0.0
  0
VERTEX
  5
1D4
330
1C8
100
AcDbEntity
  8
0
100
AcDbVertex
100
AcDb2dVertex
 10
-48.0643804141007
 20
166.9812670334821
 30
0.0
  0
VERTEX
  5
1D5
330
1C8
100
AcDbEntity
  8
0
100
AcDbVertex
100
AcDb2dVertex
 10
-30.76438041410074
 20
166.9812670334821
 30
0.0
  0
VERTEX
  5
1D6
330
1C8
100
AcDbEntity
  8
0
100
AcDbVertex
100
AcDb2dVertex
 10
-30.76438041410074
 20
156.9812670334821
 30
0.0
  0
VERTEX
  5
1D7
330
1C8
100
AcDbEntity
  8
0
100
AcDbVertex
100
AcDb2dVertex
 10
-27.0643804141007
 20
156.9812670334821
 30
0.0
  0
VERTEX
  5
1D8
330
1C8
100
AcDbEntity
  8
0
100
AcDbVertex
100
AcDb2dVertex
 10
-27.0643804141007
 20
166.9812670334821
 30
0.0
  0
VERTEX
  5
1D9
330
1C8
100
AcDbEntity
  8
0
100
AcDbVertex
100
AcDb2dVertex
 10
-9.764380414100685
 20
166.9812670334821
 30
0.0
  0
VERTEX
  5
1DA
330
1C8
100
AcDbEntity
  8
0
100
AcDbVertex
100
AcDb2dVertex
 10
-9.764380414100685
 20
156.9812670334821
 30
0.0
  0
SEQEND
  5
1DB
330
1C8
100
AcDbEntity
  8
0
  0
POLYLINE
  5
1DC
330
1F
100
AcDbEntity
  8
0
100
AcDb2dPolyline
 66
     1
 10
0.0
 20
0.0
 30
0.0
 70
     1
  0
VERTEX
  5
1DD
330
1DC
100
AcDbEntity
  8
0
100
AcDbVertex
100
AcDb2dVertex
 10
-89.32725530559509
 20
156.9812670334821
 30
0.0
  0
VERTEX
  5
1DE
330
1DC
100
AcDbEntity
  8
0
100
AcDbVertex
100
AcDb2dVertex
 10
-89.32725530559509
 20
166.9812670334821
 30
0.0
  0
VERTEX
  5
1DF
330
1DC
100
AcDbEntity
  8
0
100
AcDbVertex
100
AcDb2dVertex
 10
-72.02725530559508
 20
166.9812670334821
 30
0.0
  0
VERTEX
  5
1E0
330
1DC
100
AcDbEntity
  8
0
100
AcDbVertex
100
AcDb2dVertex
 10
-72.02725530559513
 20
156.9812670334821
 30
0.0
  0
VERTEX
  5
1E1
330
1DC
100
AcDbEntity
  8
0
100
AcDbVertex
100
AcDb2dVertex
 10
-72.02725530559513
 20
146.8312670334821
 30
0.0
  0
VERTEX
  5
1E2
330
1DC
100
AcDbEntity
  8
0
100
AcDbVertex
100
AcDb2dVertex
 10
-152.3272553055951
 20
146.8312670334821
 30
0.0
  0
VERTEX
  5
1E3
330
1DC
100
AcDbEntity
  8
0
100
AcDbVertex
100
AcDb2dVertex
 10
-152.3272553055951
 20
156.9812670334821
 30
0.0
  0
VERTEX
  5
1E4
330
1DC
100
AcDbEntity
  8
0
100
AcDbVertex
100
AcDb2dVertex
 10
-152.3272553055951
 20
166.9812670334821
 30
0.0
  0
VERTEX
  5
1E5
330
1DC
100
AcDbEntity
  8
0
100
AcDbVertex
100
AcDb2dVertex
 10
-135.0272553055951
 20
166.9812670334821
 30
0.0
  0
VERTEX
  5
1E6
330
1DC
100
AcDbEntity
  8
0
100
AcDbVertex
100
AcDb2dVertex
 10
-135.0272553055951
 20
156.9812670334821
 30
0.0
  0
VERTEX
  5
1E7
330
1DC
100
AcDbEntity
  8
0
100
AcDbVertex
100
AcDb2dVertex
 10
-131.3272553055951
 20
156.9812670334821
 30
0.0
  0
VERTEX
  5
1E8
330
1DC
100
AcDbEntity
  8
0
100
AcDbVertex
100
AcDb2dVertex
 10
-131.3272553055951
 20
166.9812670334821
 30
0.0
  0
VERTEX
  5
1E9
330
1DC
100
AcDbEntity
  8
0
100
AcDbVertex
100
AcDb2dVertex
 10
-114.0272553055951
 20
166.9812670334821
 30
0.0
  0
VERTEX
  5
1EA
330
1DC
100
AcDbEntity
  8
0
100
AcDbVertex
100
AcDb2dVertex
 10
-114.0272553055951
 20
156.9812670334821
 30
0.0
  0
VERTEX
  5
1EB
330
1DC
100
AcDbEntity
  8
0
100
AcDbVertex
100
AcDb2dVertex
 10
-110.3272553055951
 20
156.9812670334821
 30
0.0
  0
VERTEX
  5
1EC
330
1DC
100
AcDbEntity
  8
0
100
AcDbVertex
100
AcDb2dVertex
 10
-110.3272553055951
 20
166.9812670334821
 30
0.0
  0
VERTEX
  5
1ED
330
1DC
100
AcDbEntity
  8
0
100
AcDbVertex
100
AcDb2dVertex
 10
-93.02725530559508
 20
166.9812670334821
 30
0.0
  0
VERTEX
  5
1EE
330
1DC
100
AcDbEntity
  8
0
100
AcDbVertex
100
AcDb2dVertex
 10
-93.02725530559508
 20
156.9812670334821
 30
0.0
  0
SEQEND
  5
1EF
330
1DC
100
AcDbEntity
  8
0
  0
POLYLINE
  5
1F0
330
1F
100
AcDbEntity
  8
0
100
AcDb2dPolyline
 66
     1
 10
0.0
 20
0.0
 30
0.0
 70
     1
  0
VERTEX
  5
1F1
330
1F0
100
AcDbEntity
  8
0
100
AcDbVertex
100
AcDb2dVertex
 10
-172.5901301970895
 20
156.9812670334821
 30
0.0
  0
VERTEX
  5
1F2
330
1F0
100
AcDbEntity
  8
0
100
AcDbVertex
100
AcDb2dVertex
 10
-172.5901301970895
 20
166.9812670334821
 30
0.0
  0
VERTEX
  5
1F3
330
1F0
100
AcDbEntity
  8
0
100
AcDbVertex
100
AcDb2dVertex
 10
-155.2901301970895
 20
166.9812670334821
 30
0.0
  0
VERTEX
  5
1F4
330
1F0
100
AcDbEntity
  8
0
100
AcDbVertex
100
AcDb2dVertex
 10
-155.2901301970895
 20
156.9812670334821
 30
0.0
  0
VERTEX
  5
1F5
330
1F0
100
AcDbEntity
  8
0
100
AcDbVertex
100
AcDb2dVertex
 10
-155.2901301970895
 20
146.8312670334821
 30
0.0
  0
VERTEX
  5
1F6
330
1F0
100
AcDbEntity
  8
0
100
AcDbVertex
100
AcDb2dVertex
 10
-235.5901301970895
 20
146.8312670334821
 30
0.0
  0
VERTEX
  5
1F7
330
1F0
100
AcDbEntity
  8
0
100
AcDbVertex
100
AcDb2dVertex
 10
-235.5901301970895
 20
156.9812670334821
 30
0.0
  0
VERTEX
  5
1F8
330
1F0
100
AcDbEntity
  8
0
100
AcDbVertex
100
AcDb2dVertex
 10
-235.5901301970895
 20
166.9812670334821
 30
0.0
  0
VERTEX
  5
1F9
330
1F0
100
AcDbEntity
  8
0
100
AcDbVertex
100
AcDb2dVertex
 10
-218.2901301970895
 20
166.9812670334821
 30
0.0
  0
VERTEX
  5
1FA
330
1F0
100
AcDbEntity
  8
0
100
AcDbVertex
100
AcDb2dVertex
 10
-218.2901301970895
 20
156.9812670334821
 30
0.0
  0
VERTEX
  5
1FB
330
1F0
100
AcDbEntity
  8
0
100
AcDbVertex
100
AcDb2dVertex
 10
-214.5901301970895
 20
156.9812670334821
 30
0.0
  0
VERTEX
  5
1FC
330
1F0
100
AcDbEntity
  8
0
100
AcDbVertex
100
AcDb2dVertex
 10
-214.5901301970895
 20
166.9812670334821
 30
0.0
  0
VERTEX
  5
1FD
330
1F0
100
AcDbEntity
  8
0
100
AcDbVertex
100
AcDb2dVertex
 10
-197.2901301970895
 20
166.9812670334821
 30
0.0
  0
VERTEX
  5
1FE
330
1F0
100
AcDbEntity
  8
0
100
AcDbVertex
100
AcDb2dVertex
 10
-197.2901301970895
 20
156.9812670334821
 30
0.0
  0
VERTEX
  5
1FF
330
1F0
100
AcDbEntity
  8
0
100
AcDbVertex
100
AcDb2dVertex
 10
-193.5901301970895
 20
156.9812670334821
 30
0.0
  0
VERTEX
  5
200
330
1F0
100
AcDbEntity
  8
0
100
AcDbVertex
100
AcDb2dVertex
 10
-193.5901301970895
 20
166.9812670334821
 30
0.0
  0
VERTEX
  5
201
330
1F0
100
AcDbEntity
  8
0
100
AcDbVertex
100
AcDb2dVertex
 10
-176.2901301970895
 20
166.9812670334821
 30
0.0
  0
VERTEX
  5
202
330
1F0
100
AcDbEntity
  8
0
100
AcDbVertex
100
AcDb2dVertex
 10
-176.2901301970895
 20
156.9812670334821
 30
0.0
  0
SEQEND
  5
203
330
1F0
100
AcDbEntity
  8
0
  0
POLYLINE
  5
204
330
1F
100
AcDbEntity
  8
0
100
AcDb2dPolyline
 66
     1
 10
0.0
 20
0.0
 30
0.0
 70
     1
  0
VERTEX
  5
205
330
204
100
AcDbEntity
  8
0
100
AcDbVertex
100
AcDb2dVertex
 10
-255.8530050885839
 20
156.9812670334821
 30
0.0
  0
VERTEX
  5
206
330
204
100
AcDbEntity
  8
0
100
AcDbVertex
100
AcDb2dVertex
 10
-255.8530050885839
 20
166.9812670334821
 30
0.0
  0
VERTEX
  5
207
330
204
100
AcDbEntity
  8
0
100
AcDbVertex
100
AcDb2dVertex
 10
-238.5530050885839
 20
166.9812670334821
 30
0.0
  0
VERTEX
  5
208
330
204
100
AcDbEntity
  8
0
100
AcDbVertex
100
AcDb2dVertex
 10
-238.5530050885839
 20
156.9812670334821
 30
0.0
  0
VERTEX
  5
209
330
204
100
AcDbEntity
  8
0
100
AcDbVertex
100
AcDb2dVertex
 10
-238.5530050885839
 20
146.8312670334821
 30
0.0
  0
VERTEX
  5
20A
330
204
100
AcDbEntity
  8
0
100
AcDbVertex
100
AcDb2dVertex
 10
-318.8530050885839
 20
146.8312670334821
 30
0.0
  0
VERTEX
  5
20B
330
204
100
AcDbEntity
  8
0
100
AcDbVertex
100
AcDb2dVertex
 10
-318.8530050885839
 20
156.9812670334821
 30
0.0
  0
VERTEX
  5
20C
330
204
100
AcDbEntity
  8
0
100
AcDbVertex
100
AcDb2dVertex
 10
-318.8530050885839
 20
166.9812670334821
 30
0.0
  0
VERTEX
  5
20D
330
204
100
AcDbEntity
  8
0
100
AcDbVertex
100
AcDb2dVertex
 10
-301.5530050885839
 20
166.9812670334821
 30
0.0
  0
VERTEX
  5
20E
330
204
100
AcDbEntity
  8
0
100
AcDbVertex
100
AcDb2dVertex
 10
-301.5530050885839
 20
156.9812670334821
 30
0.0
  0
VERTEX
  5
20F
330
204
100
AcDbEntity
  8
0
100
AcDbVertex
100
AcDb2dVertex
 10
-297.8530050885839
 20
156.9812670334821
 30
0.0
  0
VERTEX
  5
210
330
204
100
AcDbEntity
  8
0
100
AcDbVertex
100
AcDb2dVertex
 10
-297.8530050885839
 20
166.9812670334821
 30
0.0
  0
VERTEX
  5
211
330
204
100
AcDbEntity
  8
0
100
AcDbVertex
100
AcDb2dVertex
 10
-280.5530050885839
 20
166.9812670334821
 30
0.0
  0
VERTEX
  5
212
330
204
100
AcDbEntity
  8
0
100
AcDbVertex
100
AcDb2dVertex
 10
-280.5530050885839
 20
156.9812670334821
 30
0.0
  0
VERTEX
  5
213
330
204
100
AcDbEntity
  8
0
100
AcDbVertex
100
AcDb2dVertex
 10
-276.8530050885839
 20
156.9812670334821
 30
0.0
  0
VERTEX
  5
214
330
204
100
AcDbEntity
  8
0
100
AcDbVertex
100
AcDb2dVertex
 10
-276.8530050885839
 20
166.9812670334821
 30
0.0
  0
VERTEX
  5
215
330
204
100
AcDbEntity
  8
0
100
AcDbVertex
100
AcDb2dVertex
 10
-259.5530050885839
 20
166.9812670334821
 30
0.0
  0
VERTEX
  5
216
330
204
100
AcDbEntity
  8
0
100
AcDbVertex
100
AcDb2dVertex
 10
-259.5530050885839
 20
156.9812670334821
 30
0.0
  0
SEQEND
  5
217
330
204
100
AcDbEntity
  8
0
  0
POLYLINE
  5
218
330
1F
100
AcDbEntity
  8
0
100
AcDb2dPolyline
 66
     1
 10
0.0
 20
0.0
 30
0.0
 70
     1
  0
VERTEX
  5
219
330
218
100
AcDbEntity
  8
0
100
AcDbVertex
100
AcDb2dVertex
 10
-339.1158799800783
 20
156.9812670334821
 30
0.0
  0
VERTEX
  5
21A
330
218
100
AcDbEntity
  8
0
100
AcDbVertex
100
AcDb2dVertex
 10
-339.1158799800783
 20
166.9812670334821
 30
0.0
  0
VERTEX
  5
21B
330
218
100
AcDbEntity
  8
0
100
AcDbVertex
100
AcDb2dVertex
 10
-321.8158799800783
 20
166.9812670334821
 30
0.0
  0
VERTEX
  5
21C
330
218
100
AcDbEntity
  8
0
100
AcDbVertex
100
AcDb2dVertex
 10
-321.8158799800783
 20
156.9812670334821
 30
0.0
  0
VERTEX
  5
21D
330
218
100
AcDbEntity
  8
0
100
AcDbVertex
100
AcDb2dVertex
 10
-321.8158799800783
 20
146.8312670334821
 30
0.0
  0
VERTEX
  5
21E
330
218
100
AcDbEntity
  8
0
100
AcDbVertex
100
AcDb2dVertex
 10
-402.1158799800783
 20
146.8312670334821
 30
0.0
  0
VERTEX
  5
21F
330
218
100
AcDbEntity
  8
0
100
AcDbVertex
100
AcDb2dVertex
 10
-402.1158799800783
 20
156.9812670334821
 30
0.0
  0
VERTEX
  5
220
330
218
100
AcDbEntity
  8
0
100
AcDbVertex
100
AcDb2dVertex
 10
-402.1158799800783
 20
166.9812670334821
 30
0.0
  0
VERTEX
  5
221
330
218
100
AcDbEntity
  8
0
100
AcDbVertex
100
AcDb2dVertex
 10
-384.8158799800783
 20
166.9812670334821
 30
0.0
  0
VERTEX
  5
222
330
218
100
AcDbEntity
  8
0
100
AcDbVertex
100
AcDb2dVertex
 10
-384.8158799800783
 20
156.9812670334821
 30
0.0
  0
VERTEX
  5
223
330
218
100
AcDbEntity
  8
0
100
AcDbVertex
100
AcDb2dVertex
 10
-381.1158799800783
 20
156.9812670334821
 30
0.0
  0
VERTEX
  5
224
330
218
100
AcDbEntity
  8
0
100
AcDbVertex
100
AcDb2dVertex
 10
-381.1158799800783
 20
166.9812670334821
 30
0.0
  0
VERTEX
  5
225
330
218
100
AcDbEntity
  8
0
100
AcDbVertex
100
AcDb2dVertex
 10
-363.8158799800783
 20
166.9812670334821
 30
0.0
  0
VERTEX
  5
226
330
218
100
AcDbEntity
  8
0
100
AcDbVertex
100
AcDb2dVertex
 10
-363.8158799800783
 20
156.9812670334821
 30
0.0
  0
VERTEX
  5
227
330
218
100
AcDbEntity
  8
0
100
AcDbVertex
100
AcDb2dVertex
 10
-360.1158799800783
 20
156.9812670334821
 30
0.0
  0
VERTEX
  5
228
330
218
100
AcDbEntity
  8
0
100
AcDbVertex
100
AcDb2dVertex
 10
-360.1158799800783
 20
166.9812670334821
 30
0.0
  0
VERTEX
  5
229
330
218
100
AcDbEntity
  8
0
100
AcDbVertex
100
AcDb2dVertex
 10
-342.8158799800783
 20
166.9812670334821
 30
0.0
  0
VERTEX
  5
22A
330
218
100
AcDbEntity
  8
0
100
AcDbVertex
100
AcDb2dVertex
 10
-342.8158799800783
 20
156.9812670334821
 30
0.0
  0
SEQEND
  5
22B
330
218
100
AcDbEntity
  8
0
  0
POLYLINE
  5
22C
330
1F
100
AcDbEntity
  8
0
100
AcDb2dPolyline
 66
     1
 10
0.0
 20
0.0
 30
0.0
 70
     1
  0
VERTEX
  5
22D
330
22C
100
AcDbEntity
  8
0
100
AcDbVertex
100
AcDb2dVertex
 10
160.4613693688881
 20
277.213547265195
 30
0.0
  0
VERTEX
  5
22E
330
22C
100
AcDbEntity
  8
0
100
AcDbVertex
100
AcDb2dVertex
 10
160.4613693688881
 20
287.213547265195
 30
0.0
  0
VERTEX
  5
22F
330
22C
100
AcDbEntity
  8
0
100
AcDbVertex
100
AcDb2dVertex
 10
177.7613693688881
 20
287.213547265195
 30
0.0
  0
VERTEX
  5
230
330
22C
100
AcDbEntity
  8
0
100
AcDbVertex
100
AcDb2dVertex
 10
177.761369368888
 20
277.213547265195
 30
0.0
  0
VERTEX
  5
231
330
22C
100
AcDbEntity
  8
0
100
AcDbVertex
100
AcDb2dVertex
 10
177.761369368888
 20
267.063547265195
 30
0.0
  0
VERTEX
  5
232
330
22C
100
AcDbEntity
  8
0
100
AcDbVertex
100
AcDb2dVertex
 10
97.46136936888809
 20
267.063547265195
 30
0.0
  0
VERTEX
  5
233
330
22C
100
AcDbEntity
  8
0
100
AcDbVertex
100
AcDb2dVertex
 10
97.46136936888809
 20
277.213547265195
 30
0.0
  0
VERTEX
  5
234
330
22C
100
AcDbEntity
  8
0
100
AcDbVertex
100
AcDb2dVertex
 10
97.46136936888809
 20
287.213547265195
 30
0.0
  0
VERTEX
  5
235
330
22C
100
AcDbEntity
  8
0
100
AcDbVertex
100
AcDb2dVertex
 10
114.761369368888
 20
287.213547265195
 30
0.0
  0
VERTEX
  5
236
330
22C
100
AcDbEntity
  8
0
100
AcDbVertex
100
AcDb2dVertex
 10
114.761369368888
 20
277.213547265195
 30
0.0
  0
VERTEX
  5
237
330
22C
100
AcDbEntity
  8
0
100
AcDbVertex
100
AcDb2dVertex
 10
118.4613693688881
 20
277.213547265195
 30
0.0
  0
VERTEX
  5
238
330
22C
100
AcDbEntity
  8
0
100
AcDbVertex
100
AcDb2dVertex
 10
118.4613693688881
 20
287.213547265195
 30
0.0
  0
VERTEX
  5
239
330
22C
100
AcDbEntity
  8
0
100
AcDbVertex
100
AcDb2dVertex
 10
135.761369368888
 20
287.213547265195
 30
0.0
  0
VERTEX
  5
23A
330
22C
100
AcDbEntity
  8
0
100
AcDbVertex
100
AcDb2dVertex
 10
135.761369368888
 20
277.213547265195
 30
0.0
  0
VERTEX
  5
23B
330
22C
100
AcDbEntity
  8
0
100
AcDbVertex
100
AcDb2dVertex
 10
139.4613693688881
 20
277.213547265195
 30
0.0
  0
VERTEX
  5
23C
330
22C
100
AcDbEntity
  8
0
100
AcDbVertex
100
AcDb2dVertex
 10
139.4613693688881
 20
287.213547265195
 30
0.0
  0
VERTEX
  5
23D
330
22C
100
AcDbEntity
  8
0
100
AcDbVertex
100
AcDb2dVertex
 10
156.7613693688881
 20
287.213547265195
 30
0.0
  0
VERTEX
  5
23E
330
22C
100
AcDbEntity
  8
0
100
AcDbVertex
100
AcDb2dVertex
 10
156.7613693688881
 20
277.213547265195
 30
0.0
  0
SEQEND
  5
23F
330
22C
100
AcDbEntity
  8
0
  0
POLYLINE
  5
240
330
1F
100
AcDbEntity
  8
0
100
AcDb2dPolyline
 66
     1
 10
0.0
 20
0.0
 30
0.0
 70
     1
  0
VERTEX
  5
241
330
240
100
AcDbEntity
  8
0
100
AcDbVertex
100
AcDb2dVertex
 10
77.1984944773937
 20
277.213547265195
 30
0.0
  0
VERTEX
  5
242
330
240
100
AcDbEntity
  8
0
100
AcDbVertex
100
AcDb2dVertex
 10
77.1984944773937
 20
287.213547265195
 30
0.0
  0
VERTEX
  5
243
330
240
100
AcDbEntity
  8
0
100
AcDbVertex
100
AcDb2dVertex
 10
94.4984944773937
 20
287.213547265195
 30
0.0
  0
VERTEX
  5
244
330
240
100
AcDbEntity
  8
0
100
AcDbVertex
100
AcDb2dVertex
 10
94.49849447739365
 20
277.213547265195
 30
0.0
  0
VERTEX
  5
245
330
240
100
AcDbEntity
  8
0
100
AcDbVertex
100
AcDb2dVertex
 10
94.49849447739365
 20
267.063547265195
 30
0.0
  0
VERTEX
  5
246
330
240
100
AcDbEntity
  8
0
100
AcDbVertex
100
AcDb2dVertex
 10
14.19849447739369
 20
267.063547265195
 30
0.0
  0
VERTEX
  5
247
330
240
100
AcDbEntity
  8
0
100
AcDbVertex
100
AcDb2dVertex
 10
14.19849447739369
 20
277.213547265195
 30
0.0
  0
VERTEX
  5
248
330
240
100
AcDbEntity
  8
0
100
AcDbVertex
100
AcDb2dVertex
 10
14.19849447739369
 20
287.213547265195
 30
0.0
  0
VERTEX
  5
249
330
240
100
AcDbEntity
  8
0
100
AcDbVertex
100
AcDb2dVertex
 10
31.49849447739365
 20
287.213547265195
 30
0.0
  0
VERTEX
  5
24A
330
240
100
AcDbEntity
  8
0
100
AcDbVertex
100
AcDb2dVertex
 10
31.49849447739365
 20
277.213547265195
 30
0.0
  0
VERTEX
  5
24B
330
240
100
AcDbEntity
  8
0
100
AcDbVertex
100
AcDb2dVertex
 10
35.19849447739369
 20
277.213547265195
 30
0.0
  0
VERTEX
  5
24C
330
240
100
AcDbEntity
  8
0
100
AcDbVertex
100
AcDb2dVertex
 10
35.19849447739369
 20
287.213547265195
 30
0.0
  0
VERTEX
  5
24D
330
240
100
AcDbEntity
  8
0
100
AcDbVertex
100
AcDb2dVertex
 10
52.49849447739365
 20
287.213547265195
 30
0.0
  0
VERTEX
  5
24E
330
240
100
AcDbEntity
  8
0
100
AcDbVertex
100
AcDb2dVertex
 10
52.49849447739365
 20
277.213547265195
 30
0.0
  0
VERTEX
  5
24F
330
240
100
AcDbEntity
  8
0
100
AcDbVertex
100
AcDb2dVertex
 10
56.19849447739369
 20
277.213547265195
 30
0.0
  0
VERTEX
  5
250
330
240
100
AcDbEntity
  8
0
100
AcDbVertex
100
AcDb2dVertex
 10
56.19849447739369
 20
287.213547265195
 30
0.0
  0
VERTEX
  5
251
330
240
100
AcDbEntity
  8
0
100
AcDbVertex
100
AcDb2dVertex
 10
73.4984944773937
 20
287.213547265195
 30
0.0
  0
VERTEX
  5
252
330
240
100
AcDbEntity
  8
0
100
AcDbVertex
100
AcDb2dVertex
 10
73.4984944773937
 20
277.213547265195
 30
0.0
  0
SEQEND
  5
253
330
240
100
AcDbEntity
  8
0
  0
POLYLINE
  5
254
330
1F
100
AcDbEntity
  8
0
100
AcDb2dPolyline
 66
     1
 10
0.0
 20
0.0
 30
0.0
 70
     1
  0
VERTEX
  5
255
330
254
100
AcDbEntity
  8
0
100
AcDbVertex
100
AcDb2dVertex
 10
-6.064380414100697
 20
277.213547265195
 30
0.0
  0
VERTEX
  5
256
330
254
100
AcDbEntity
  8
0
100
AcDbVertex
100
AcDb2dVertex
 10
-6.064380414100697
 20
287.213547265195
 30
0.0
  0
VERTEX
  5
257
330
254
100
AcDbEntity
  8
0
100
AcDbVertex
100
AcDb2dVertex
 10
11.23561958589931
 20
287.213547265195
 30
0.0
  0
VERTEX
  5
258
330
254
100
AcDbEntity
  8
0
100
AcDbVertex
100
AcDb2dVertex
 10
11.23561958589926
 20
277.213547265195
 30
0.0
  0
VERTEX
  5
259
330
254
100
AcDbEntity
  8
0
100
AcDbVertex
100
AcDb2dVertex
 10
11.23561958589926
 20
267.063547265195
 30
0.0
  0
VERTEX
  5
25A
330
254
100
AcDbEntity
  8
0
100
AcDbVertex
100
AcDb2dVertex
 10
-69.0643804141007
 20
267.063547265195
 30
0.0
  0
VERTEX
  5
25B
330
254
100
AcDbEntity
  8
0
100
AcDbVertex
100
AcDb2dVertex
 10
-69.0643804141007
 20
277.213547265195
 30
0.0
  0
VERTEX
  5
25C
330
254
100
AcDbEntity
  8
0
100
AcDbVertex
100
AcDb2dVertex
 10
-69.0643804141007
 20
287.213547265195
 30
0.0
  0
VERTEX
  5
25D
330
254
100
AcDbEntity
  8
0
100
AcDbVertex
100
AcDb2dVertex
 10
-51.76438041410074
 20
287.213547265195
 30
0.0
  0
VERTEX
  5
25E
330
254
100
AcDbEntity
  8
0
100
AcDbVertex
100
AcDb2dVertex
 10
-51.76438041410074
 20
277.213547265195
 30
0.0
  0
VERTEX
  5
25F
330
254
100
AcDbEntity
  8
0
100
AcDbVertex
100
AcDb2dVertex
 10
-48.0643804141007
 20
277.213547265195
 30
0.0
  0
VERTEX
  5
260
330
254
100
AcDbEntity
  8
0
100
AcDbVertex
100
AcDb2dVertex
 10
-48.0643804141007
 20
287.213547265195
 30
0.0
  0
VERTEX
  5
261
330
254
100
AcDbEntity
  8
0
100
AcDbVertex
100
AcDb2dVertex
 10
-30.76438041410074
 20
287.213547265195
 30
0.0
  0
VERTEX
  5
262
330
254
100
AcDbEntity
  8
0
100
AcDbVertex
100
AcDb2dVertex
 10
-30.76438041410074
 20
277.213547265195
 30
0.0
  0
VERTEX
  5
263
330
254
100
AcDbEntity
  8
0
100
AcDbVertex
100
AcDb2dVertex
 10
-27.0643804141007
 20
277.213547265195
 30
0.0
  0
VERTEX
  5
264
330
254
100
AcDbEntity
  8
0
100
AcDbVertex
100
AcDb2dVertex
 10
-27.0643804141007
 20
287.213547265195
 30
0.0
  0
VERTEX
  5
265
330
254
100
AcDbEntity
  8
0
100
AcDbVertex
100
AcDb2dVertex
 10
-9.764380414100685
 20
287.213547265195
 30
0.0
  0
VERTEX
  5
266
330
254
100
AcDbEntity
  8
0
100
AcDbVertex
100
AcDb2dVertex
 10
-9.764380414100685
 20
277.213547265195
 30
0.0
  0
SEQEND
  5
267
330
254
100
AcDbEntity
  8
0
  0
POLYLINE
  5
268
330
1F
100
AcDbEntity
  8
0
100
AcDb2dPolyline
 66
     1
 10
0.0
 20
0.0
 30
0.0
 70
     1
  0
VERTEX
  5
269
330
268
100
AcDbEntity
  8
0
100
AcDbVertex
100
AcDb2dVertex
 10
-89.32725530559509
 20
277.213547265195
 30
0.0
  0
VERTEX
  5
26A
330
268
100
AcDbEntity
  8
0
100
AcDbVertex
100
AcDb2dVertex
 10
-89.32725530559509
 20
287.213547265195
 30
0.0
  0
VERTEX
  5
26B
330
268
100
AcDbEntity
  8
0
100
AcDbVertex
100
AcDb2dVertex
 10
-72.02725530559508
 20
287.213547265195
 30
0.0
  0
VERTEX
  5
26C
330
268
100
AcDbEntity
  8
0
100
AcDbVertex
100
AcDb2dVertex
 10
-72.02725530559513
 20
277.213547265195
 30
0.0
  0
VERTEX
  5
26D
330
268
100
AcDbEntity
  8
0
100
AcDbVertex
100
AcDb2dVertex
 10
-72.02725530559513
 20
267.063547265195
 30
0.0
  0
VERTEX
  5
26E
330
268
100
AcDbEntity
  8
0
100
AcDbVertex
100
AcDb2dVertex
 10
-152.3272553055951
 20
267.063547265195
 30
0.0
  0
VERTEX
  5
26F
330
268
100
AcDbEntity
  8
0
100
AcDbVertex
100
AcDb2dVertex
 10
-152.3272553055951
 20
277.213547265195
 30
0.0
  0
VERTEX
  5
270
330
268
100
AcDbEntity
  8
0
100
AcDbVertex
100
AcDb2dVertex
 10
-152.3272553055951
 20
287.213547265195
 30
0.0
  0
VERTEX
  5
271
330
268
100
AcDbEntity
  8
0
100
AcDbVertex
100
AcDb2dVertex
 10
-135.0272553055951
 20
287.213547265195
 30
0.0
  0
VERTEX
  5
272
330
268
100
AcDbEntity
  8
0
100
AcDbVertex
100
AcDb2dVertex
 10
-135.0272553055951
 20
277.213547265195
 30
0.0
  0
VERTEX
  5
273
330
268
100
AcDbEntity
  8
0
100
AcDbVertex
100
AcDb2dVertex
 10
-131.3272553055951
 20
277.213547265195
 30
0.0
  0
VERTEX
  5
274
330
268
100
AcDbEntity
  8
0
100
AcDbVertex
100
AcDb2dVertex
 10
-131.3272553055951
 20
287.213547265195
 30
0.0
  0
VERTEX
  5
275
330
268
100
AcDbEntity
  8
0
100
AcDbVertex
100
AcDb2dVertex
 10
-114.0272553055951
 20
287.213547265195
 30
0.0
  0
VERTEX
  5
276
330
268
100
AcDbEntity
  8
0
100
AcDbVertex
100
AcDb2dVertex
 10
-114.0272553055951
 20
277.213547265195
 30
0.0
  0
VERTEX
  5
277
330
268
100
AcDbEntity
  8
0
100
AcDbVertex
100
AcDb2dVertex
 10
-110.3272553055951
 20
277.213547265195
 30
0.0
  0
VERTEX
  5
278
330
268
100
AcDbEntity
  8
0
100
AcDbVertex
100
AcDb2dVertex
 10
-110.3272553055951
 20
287.213547265195
 30
0.0
  0
VERTEX
  5
279
330
268
100
AcDbEntity
  8
0
100
AcDbVertex
100
AcDb2dVertex
 10
-93.02725530559508
 20
287.213547265195
 30
0.0
  0
VERTEX
  5
27A
330
268
100
AcDbEntity
  8
0
100
AcDbVertex
100
AcDb2dVertex
 10
-93.02725530559508
 20
277.213547265195
 30
0.0
  0
SEQEND
  5
27B
330
268
100
AcDbEntity
  8
0
  0
POLYLINE
  5
27C
330
1F
100
AcDbEntity
  8
0
100
AcDb2dPolyline
 66
     1
 10
0.0
 20
0.0
 30
0.0
 70
     1
  0
VERTEX
  5
27D
330
27C
100
AcDbEntity
  8
0
100
AcDbVertex
100
AcDb2dVertex
 10
-172.5901301970895
 20
277.213547265195
 30
0.0
  0
VERTEX
  5
27E
330
27C
100
AcDbEntity
  8
0
100
AcDbVertex
100
AcDb2dVertex
 10
-172.5901301970895
 20
287.213547265195
 30
0.0
  0
VERTEX
  5
27F
330
27C
100
AcDbEntity
  8
0
100
AcDbVertex
100
AcDb2dVertex
 10
-155.2901301970895
 20
287.213547265195
 30
0.0
  0
VERTEX
  5
280
330
27C
100
AcDbEntity
  8
0
100
AcDbVertex
100
AcDb2dVertex
 10
-155.2901301970895
 20
277.213547265195
 30
0.0
  0
VERTEX
  5
281
330
27C
100
AcDbEntity
  8
0
100
AcDbVertex
100
AcDb2dVertex
 10
-155.2901301970895
 20
267.063547265195
 30
0.0
  0
VERTEX
  5
282
330
27C
100
AcDbEntity
  8
0
100
AcDbVertex
100
AcDb2dVertex
 10
-235.5901301970895
 20
267.063547265195
 30
0.0
  0
VERTEX
  5
283
330
27C
100
AcDbEntity
  8
0
100
AcDbVertex
100
AcDb2dVertex
 10
-235.5901301970895
 20
277.213547265195
 30
0.0
  0
VERTEX
  5
284
330
27C
100
AcDbEntity
  8
0
100
AcDbVertex
100
AcDb2dVertex
 10
-235.5901301970895
 20
287.213547265195
 30
0.0
  0
VERTEX
  5
285
330
27C
100
AcDbEntity
  8
0
100
AcDbVertex
100
AcDb2dVertex
 10
-218.2901301970895
 20
287.213547265195
 30
0.0
  0
VERTEX
  5
286
330
27C
100
AcDbEntity
  8
0
100
AcDbVertex
100
AcDb2dVertex
 10
-218.2901301970895
 20
277.213547265195
 30
0.0
  0
VERTEX
  5
287
330
27C
100
AcDbEntity
  8
0
100
AcDbVertex
100
AcDb2dVertex
 10
-214.5901301970895
 20
277.213547265195
 30
0.0
  0
VERTEX
  5
288
330
27C
100
AcDbEntity
  8
0
100
AcDbVertex
100
AcDb2dVertex
 10
-214.5901301970895
 20
287.213547265195
 30
0.0
  0
VERTEX
  5
289
330
27C
100
AcDbEntity
  8
0
100
AcDbVertex
100
AcDb2dVertex
 10
-197.2901301970895
 20
287.213547265195
 30
0.0
  0
VERTEX
  5
28A
330
27C
100
AcDbEntity
  8
0
100
AcDbVertex
100
AcDb2dVertex
 10
-197.2901301970895
 20
277.213547265195
 30
0.0
  0
VERTEX
  5
28B
330
27C
100
AcDbEntity
  8
0
100
AcDbVertex
100
AcDb2dVertex
 10
-193.5901301970895
 20
277.213547265195
 30
0.0
  0
VERTEX
  5
28C
330
27C
100
AcDbEntity
  8
0
100
AcDbVertex
100
AcDb2dVertex
 10
-193.5901301970895
 20
287.213547265195
 30
0.0
  0
VERTEX
  5
28D
330
27C
100
AcDbEntity
  8
0
100
AcDbVertex
100
AcDb2dVertex
 10
-176.2901301970895
 20
287.213547265195
 30
0.0
  0
VERTEX
  5
28E
330
27C
100
AcDbEntity
  8
0
100
AcDbVertex
100
AcDb2dVertex
 10
-176.2901301970895
 20
277.213547265195
 30
0.0
  0
SEQEND
  5
28F
330
27C
100
AcDbEntity
  8
0
  0
POLYLINE
  5
290
330
1F
100
AcDbEntity
  8
0
100
AcDb2dPolyline
 66
     1
 10
0.0
 20
0.0
 30
0.0
 70
     1
  0
VERTEX
  5
291
330
290
100
AcDbEntity
  8
0
100
AcDbVertex
100
AcDb2dVertex
 10
-255.8530050885839
 20
277.213547265195
 30
0.0
  0
VERTEX
  5
292
330
290
100
AcDbEntity
  8
0
100
AcDbVertex
100
AcDb2dVertex
 10
-255.8530050885839
 20
287.213547265195
 30
0.0
  0
VERTEX
  5
293
330
290
100
AcDbEntity
  8
0
100
AcDbVertex
100
AcDb2dVertex
 10
-238.5530050885839
 20
287.213547265195
 30
0.0
  0
VERTEX
  5
294
330
290
100
AcDbEntity
  8
0
100
AcDbVertex
100
AcDb2dVertex
 10
-238.5530050885839
 20
277.213547265195
 30
0.0
  0
VERTEX
  5
295
330
290
100
AcDbEntity
  8
0
100
AcDbVertex
100
AcDb2dVertex
 10
-238.5530050885839
 20
267.063547265195
 30
0.0
  0
VERTEX
  5
296
330
290
100
AcDbEntity
  8
0
100
AcDbVertex
100
AcDb2dVertex
 10
-318.8530050885839
 20
267.063547265195
 30
0.0
  0
VERTEX
  5
297
330
290
100
AcDbEntity
  8
0
100
AcDbVertex
100
AcDb2dVertex
 10
-318.8530050885839
 20
277.213547265195
 30
0.0
  0
VERTEX
  5
298
330
290
100
AcDbEntity
  8
0
100
AcDbVertex
100
AcDb2dVertex
 10
-318.8530050885839
 20
287.213547265195
 30
0.0
  0
VERTEX
  5
299
330
290
100
AcDbEntity
  8
0
100
AcDbVertex
100
AcDb2dVertex
 10
-301.5530050885839
 20
287.213547265195
 30
0.0
  0
VERTEX
  5
29A
330
290
100
AcDbEntity
  8
0
100
AcDbVertex
100
AcDb2dVertex
 10
-301.5530050885839
 20
277.213547265195
 30
0.0
  0
VERTEX
  5
29B
330
290
100
AcDbEntity
  8
0
100
AcDbVertex
100
AcDb2dVertex
 10
-297.8530050885839
 20
277.213547265195
 30
0.0
  0
VERTEX
  5
29C
330
290
100
AcDbEntity
  8
0
100
AcDbVertex
100
AcDb2dVertex
 10
-297.8530050885839
 20
287.213547265195
 30
0.0
  0
VERTEX
  5
29D
330
290
100
AcDbEntity
  8
0
100
AcDbVertex
100
AcDb2dVertex
 10
-280.5530050885839
 20
287.213547265195
 30
0.0
  0
VERTEX
  5
29E
330
290
100
AcDbEntity
  8
0
100
AcDbVertex
100
AcDb2dVertex
 10
-280.5530050885839
 20
277.213547265195
 30
0.0
  0
VERTEX
  5
29F
330
290
100
AcDbEntity
  8
0
100
AcDbVertex
100
AcDb2dVertex
 10
-276.8530050885839
 20
277.213547265195
 30
0.0
  0
VERTEX
  5
2A0
330
290
100
AcDbEntity
  8
0
100
AcDbVertex
100
AcDb2dVertex
 10
-276.8530050885839
 20
287.213547265195
 30
0.0
  0
VERTEX
  5
2A1
330
290
100
AcDbEntity
  8
0
100
AcDbVertex
100
AcDb2dVertex
 10
-259.5530050885839
 20
287.213547265195
 30
0.0
  0
VERTEX
  5
2A2
330
290
100
AcDbEntity
  8
0
100
AcDbVertex
100
AcDb2dVertex
 10
-259.5530050885839
 20
277.213547265195
 30
0.0
  0
SEQEND
  5
2A3
330
290
100
AcDbEntity
  8
0
  0
POLYLINE
  5
2A4
330
1F
100
AcDbEntity
  8
0
100
AcDb2dPolyline
 66
     1
 10
0.0
 20
0.0
 30
0.0
 70
     1
  0
VERTEX
  5
2A5
330
2A4
100
AcDbEntity
  8
0
100
AcDbVertex
100
AcDb2dVertex
 10
164.1270058981118
 20
215.7001948135581
 30
0.0
  0
VERTEX
  5
2A6
330
2A4
100
AcDbEntity
  8
0
100
AcDbVertex
100
AcDb2dVertex
 10
164.1270058981118
 20
210.7001948135581
 30
0.0
  0
VERTEX
  5
2A7
330
2A4
100
AcDbEntity
  8
0
100
AcDbVertex
100
AcDb2dVertex
 10
167.7270058981118
 20
210.7001948135581
 30
0.0
  0
VERTEX
  5
2A8
330
2A4
100
AcDbEntity
  8
0
100
AcDbVertex
100
AcDb2dVertex
 10
167.7270058981118
 20
215.7001948135581
 30
0.0
  0
VERTEX
  5
2A9
330
2A4
100
AcDbEntity
  8
0
100
AcDbVertex
100
AcDb2dVertex
 10
191.734562930888
 20
215.7001948135581
 30
0.0
  0
VERTEX
  5
2AA
330
2A4
100
AcDbEntity
  8
0
100
AcDbVertex
100
AcDb2dVertex
 10
179.7307844145
 20
194.9090405403701
 30
0.0
  0
VERTEX
  5
2AB
330
2A4
100
AcDbEntity
  8
0
100
AcDbVertex
100
AcDb2dVertex
 10
175.4006573955778
 20
197.4090405403701
 30
0.0
  0
VERTEX
  5
2AC
330
2A4
100
AcDbEntity
  8
0
100
AcDbVertex
100
AcDb2dVertex
 10
173.6006573955777
 20
194.2913490867461
 30
0.0
  0
VERTEX
  5
2AD
330
2A4
100
AcDbEntity
  8
0
100
AcDbVertex
100
AcDb2dVertex
 10
177.9307844145
 20
191.7913490867461
 30
0.0
  0
VERTEX
  5
2AE
330
2A4
100
AcDbEntity
  8
0
100
AcDbVertex
100
AcDb2dVertex
 10
165.9270058981118
 20
171.0001948135581
 30
0.0
  0
VERTEX
  5
2AF
330
2A4
100
AcDbEntity
  8
0
100
AcDbVertex
100
AcDb2dVertex
 10
153.9232273817237
 20
191.7913490867461
 30
0.0
  0
VERTEX
  5
2B0
330
2A4
100
AcDbEntity
  8
0
100
AcDbVertex
100
AcDb2dVertex
 10
158.2533544006459
 20
194.2913490867461
 30
0.0
  0
VERTEX
  5
2B1
330
2A4
100
AcDbEntity
  8
0
100
AcDbVertex
100
AcDb2dVertex
 10
156.4533544006459
 20
197.4090405403701
 30
0.0
  0
VERTEX
  5
2B2
330
2A4
100
AcDbEntity
  8
0
100
AcDbVertex
100
AcDb2dVertex
 10
152.1232273817237
 20
194.9090405403701
 30
0.0
  0
VERTEX
  5
2B3
330
2A4
100
AcDbEntity
  8
0
100
AcDbVertex
100
AcDb2dVertex
 10
140.1194488653355
 20
215.7001948135581
 30
0.0
  0
SEQEND
  5
2B4
330
2A4
100
AcDbEntity
  8
0
  0
POLYLINE
  5
2B5
330
1F
100
AcDbEntity
  8
0
100
AcDb2dPolyline
 66
     1
 10
0.0
 20
0.0
 30
0.0
 70
     1
  0
VERTEX
  5
2B6
330
2B5
100
AcDbEntity
  8
0
100
AcDbVertex
100
AcDb2dVertex
 10
135.81889569282
 20
171.4151315917067
 30
0.0
  0
VERTEX
  5
2B7
330
2B5
100
AcDbEntity
  8
0
100
AcDbVertex
100
AcDb2dVertex
 10
135.81889569282
 20
176.4151315917067
 30
0.0
  0
VERTEX
  5
2B8
330
2B5
100
AcDbEntity
  8
0
100
AcDbVertex
100
AcDb2dVertex
 10
132.21889569282
 20
176.4151315917067
 30
0.0
  0
VERTEX
  5
2B9
330
2B5
100
AcDbEntity
  8
0
100
AcDbVertex
100
AcDb2dVertex
 10
132.21889569282
 20
171.4151315917067
 30
0.0
  0
VERTEX
  5
2BA
330
2B5
100
AcDbEntity
  8
0
100
AcDbVertex
100
AcDb2dVertex
 10
108.2113386600438
 20
171.4151315917067
 30
0.0
  0
VERTEX
  5
2BB
330
2B5
100
AcDbEntity
  8
0
100
AcDbVertex
100
AcDb2dVertex
 10
120.2151171764319
 20
192.2062858648947
 30
0.0
  0
VERTEX
  5
2BC
330
2B5
100
AcDbEntity
  8
0
100
AcDbVertex
100
AcDb2dVertex
 10
124.5452441953541
 20
189.7062858648947
 30
0.0
  0
VERTEX
  5
2BD
330
2B5
100
AcDbEntity
  8
0
100
AcDbVertex
100
AcDb2dVertex
 10
126.3452441953541
 20
192.8239773185187
 30
0.0
  0
VERTEX
  5
2BE
330
2B5
100
AcDbEntity
  8
0
100
AcDbVertex
100
AcDb2dVertex
 10
122.0151171764319
 20
195.3239773185187
 30
0.0
  0
VERTEX
  5
2BF
330
2B5
100
AcDbEntity
  8
0
100
AcDbVertex
100
AcDb2dVertex
 10
134.01889569282
 20
216.1151315917067
 30
0.0
  0
VERTEX
  5
2C0
330
2B5
100
AcDbEntity
  8
0
100
AcDbVertex
100
AcDb2dVertex
 10
146.0226742092082
 20
195.3239773185187
 30
0.0
  0
VERTEX
  5
2C1
330
2B5
100
AcDbEntity
  8
0
100
AcDbVertex
100
AcDb2dVertex
 10
141.6925471902859
 20
192.8239773185187
 30
0.0
  0
VERTEX
  5
2C2
330
2B5
100
AcDbEntity
  8
0
100
AcDbVertex
100
AcDb2dVertex
 10
143.492547190286
 20
189.7062858648947
 30
0.0
  0
VERTEX
  5
2C3
330
2B5
100
AcDbEntity
  8
0
100
AcDbVertex
100
AcDb2dVertex
 10
147.8226742092082
 20
192.2062858648947
 30
0.0
  0
VERTEX
  5
2C4
330
2B5
100
AcDbEntity
  8
0
100
AcDbVertex
100
AcDb2dVertex
 10
159.8264527255963
 20
171.4151315917067
 30
0.0
  0
SEQEND
  5
2C5
330
2B5
100
AcDbEntity
  8
0
  0
POLYLINE
  5
2C6
330
1F
100
AcDbEntity
  8
0
100
AcDb2dPolyline
 66
     1
 10
0.0
 20
0.0
 30
0.0
 70
     1
  0
VERTEX
  5
2C7
330
2C6
100
AcDbEntity
  8
0
100
AcDbVertex
100
AcDb2dVertex
 10
100.1014003352874
 20
215.7001948135581
 30
0.0
  0
VERTEX
  5
2C8
330
2C6
100
AcDbEntity
  8
0
100
AcDbVertex
100
AcDb2dVertex
 10
100.1014003352874
 20
210.7001948135581
 30
0.0
  0
VERTEX
  5
2C9
330
2C6
100
AcDbEntity
  8
0
100
AcDbVertex
100
AcDb2dVertex
 10
103.7014003352874
 20
210.7001948135581
 30
0.0
  0
VERTEX
  5
2CA
330
2C6
100
AcDbEntity
  8
0
100
AcDbVertex
100
AcDb2dVertex
 10
103.7014003352874
 20
215.7001948135581
 30
0.0
  0
VERTEX
  5
2CB
330
2C6
100
AcDbEntity
  8
0
100
AcDbVertex
100
AcDb2dVertex
 10
127.7089573680636
 20
215.7001948135581
 30
0.0
  0
VERTEX
  5
2CC
330
2C6
100
AcDbEntity
  8
0
100
AcDbVertex
100
AcDb2dVertex
 10
115.7051788516756
 20
194.9090405403701
 30
0.0
  0
VERTEX
  5
2CD
330
2C6
100
AcDbEntity
  8
0
100
AcDbVertex
100
AcDb2dVertex
 10
111.3750518327533
 20
197.4090405403701
 30
0.0
  0
VERTEX
  5
2CE
330
2C6
100
AcDbEntity
  8
0
100
AcDbVertex
100
AcDb2dVertex
 10
109.5750518327533
 20
194.2913490867461
 30
0.0
  0
VERTEX
  5
2CF
330
2C6
100
AcDbEntity
  8
0
100
AcDbVertex
100
AcDb2dVertex
 10
113.9051788516755
 20
191.7913490867461
 30
0.0
  0
VERTEX
  5
2D0
330
2C6
100
AcDbEntity
  8
0
100
AcDbVertex
100
AcDb2dVertex
 10
101.9014003352874
 20
171.0001948135581
 30
0.0
  0
VERTEX
  5
2D1
330
2C6
100
AcDbEntity
  8
0
100
AcDbVertex
100
AcDb2dVertex
 10
89.89762181889927
 20
191.7913490867461
 30
0.0
  0
VERTEX
  5
2D2
330
2C6
100
AcDbEntity
  8
0
100
AcDbVertex
100
AcDb2dVertex
 10
94.22774883782148
 20
194.2913490867461
 30
0.0
  0
VERTEX
  5
2D3
330
2C6
100
AcDbEntity
  8
0
100
AcDbVertex
100
AcDb2dVertex
 10
92.42774883782147
 20
197.4090405403701
 30
0.0
  0
VERTEX
  5
2D4
330
2C6
100
AcDbEntity
  8
0
100
AcDbVertex
100
AcDb2dVertex
 10
88.09762181889926
 20
194.9090405403701
 30
0.0
  0
VERTEX
  5
2D5
330
2C6
100
AcDbEntity
  8
0
100
AcDbVertex
100
AcDb2dVertex
 10
76.09384330251112
 20
215.7001948135581
 30
0.0
  0
SEQEND
  5
2D6
330
2C6
100
AcDbEntity
  8
0
  0
POLYLINE
  5
2D7
330
1F
100
AcDbEntity
  8
0
100
AcDb2dPolyline
 66
     1
 10
0.0
 20
0.0
 30
0.0
 70
     1
  0
VERTEX
  5
2D8
330
2D7
100
AcDbEntity
  8
0
100
AcDbVertex
100
AcDb2dVertex
 10
71.79329012999563
 20
171.4151315917067
 30
0.0
  0
VERTEX
  5
2D9
330
2D7
100
AcDbEntity
  8
0
100
AcDbVertex
100
AcDb2dVertex
 10
71.79329012999563
 20
176.4151315917067
 30
0.0
  0
VERTEX
  5
2DA
330
2D7
100
AcDbEntity
  8
0
100
AcDbVertex
100
AcDb2dVertex
 10
68.1932901299956
 20
176.4151315917067
 30
0.0
  0
VERTEX
  5
2DB
330
2D7
100
AcDbEntity
  8
0
100
AcDbVertex
100
AcDb2dVertex
 10
68.1932901299956
 20
171.4151315917067
 30
0.0
  0
VERTEX
  5
2DC
330
2D7
100
AcDbEntity
  8
0
100
AcDbVertex
100
AcDb2dVertex
 10
44.18573309721938
 20
171.4151315917067
 30
0.0
  0
VERTEX
  5
2DD
330
2D7
100
AcDbEntity
  8
0
100
AcDbVertex
100
AcDb2dVertex
 10
56.18951161360746
 20
192.2062858648947
 30
0.0
  0
VERTEX
  5
2DE
330
2D7
100
AcDbEntity
  8
0
100
AcDbVertex
100
AcDb2dVertex
 10
60.51963863252968
 20
189.7062858648947
 30
0.0
  0
VERTEX
  5
2DF
330
2D7
100
AcDbEntity
  8
0
100
AcDbVertex
100
AcDb2dVertex
 10
62.31963863252969
 20
192.8239773185187
 30
0.0
  0
VERTEX
  5
2E0
330
2D7
100
AcDbEntity
  8
0
100
AcDbVertex
100
AcDb2dVertex
 10
57.98951161360748
 20
195.3239773185187
 30
0.0
  0
VERTEX
  5
2E1
330
2D7
100
AcDbEntity
  8
0
100
AcDbVertex
100
AcDb2dVertex
 10
69.99329012999561
 20
216.1151315917067
 30
0.0
  0
VERTEX
  5
2E2
330
2D7
100
AcDbEntity
  8
0
100
AcDbVertex
100
AcDb2dVertex
 10
81.99706864638375
 20
195.3239773185187
 30
0.0
  0
VERTEX
  5
2E3
330
2D7
100
AcDbEntity
  8
0
100
AcDbVertex
100
AcDb2dVertex
 10
77.66694162746154
 20
192.8239773185187
 30
0.0
  0
VERTEX
  5
2E4
330
2D7
100
AcDbEntity
  8
0
100
AcDbVertex
100
AcDb2dVertex
 10
79.46694162746155
 20
189.7062858648947
 30
0.0
  0
VERTEX
  5
2E5
330
2D7
100
AcDbEntity
  8
0
100
AcDbVertex
100
AcDb2dVertex
 10
83.79706864638376
 20
192.2062858648947
 30
0.0
  0
VERTEX
  5
2E6
330
2D7
100
AcDbEntity
  8
0
100
AcDbVertex
100
AcDb2dVertex
 10
95.8008471627719
 20
171.4151315917067
 30
0.0
  0
SEQEND
  5
2E7
330
2D7
100
AcDbEntity
  8
0
  0
POLYLINE
  5
2E8
330
1F
100
AcDbEntity
  8
0
100
AcDb2dPolyline
 66
     1
 10
0.0
 20
0.0
 30
0.0
 70
     1
  0
VERTEX
  5
2E9
330
2E8
100
AcDbEntity
  8
0
100
AcDbVertex
100
AcDb2dVertex
 10
36.07579477246298
 20
215.7001948135581
 30
0.0
  0
VERTEX
  5
2EA
330
2E8
100
AcDbEntity
  8
0
100
AcDbVertex
100
AcDb2dVertex
 10
36.07579477246298
 20
210.7001948135581
 30
0.0
  0
VERTEX
  5
2EB
330
2E8
100
AcDbEntity
  8
0
100
AcDbVertex
100
AcDb2dVertex
 10
39.67579477246301
 20
210.7001948135581
 30
0.0
  0
VERTEX
  5
2EC
330
2E8
100
AcDbEntity
  8
0
100
AcDbVertex
100
AcDb2dVertex
 10
39.67579477246301
 20
215.7001948135581
 30
0.0
  0
VERTEX
  5
2ED
330
2E8
100
AcDbEntity
  8
0
100
AcDbVertex
100
AcDb2dVertex
 10
63.68335180523923
 20
215.7001948135581
 30
0.0
  0
VERTEX
  5
2EE
330
2E8
100
AcDbEntity
  8
0
100
AcDbVertex
100
AcDb2dVertex
 10
51.67957328885115
 20
194.9090405403701
 30
0.0
  0
VERTEX
  5
2EF
330
2E8
100
AcDbEntity
  8
0
100
AcDbVertex
100
AcDb2dVertex
 10
47.34944626992893
 20
197.4090405403701
 30
0.0
  0
VERTEX
  5
2F0
330
2E8
100
AcDbEntity
  8
0
100
AcDbVertex
100
AcDb2dVertex
 10
45.54944626992892
 20
194.2913490867461
 30
0.0
  0
VERTEX
  5
2F1
330
2E8
100
AcDbEntity
  8
0
100
AcDbVertex
100
AcDb2dVertex
 10
49.87957328885113
 20
191.7913490867461
 30
0.0
  0
VERTEX
  5
2F2
330
2E8
100
AcDbEntity
  8
0
100
AcDbVertex
100
AcDb2dVertex
 10
37.875794772463
 20
171.0001948135581
 30
0.0
  0
VERTEX
  5
2F3
330
2E8
100
AcDbEntity
  8
0
100
AcDbVertex
100
AcDb2dVertex
 10
25.87201625607486
 20
191.7913490867461
 30
0.0
  0
VERTEX
  5
2F4
330
2E8
100
AcDbEntity
  8
0
100
AcDbVertex
100
AcDb2dVertex
 10
30.20214327499707
 20
194.2913490867461
 30
0.0
  0
VERTEX
  5
2F5
330
2E8
100
AcDbEntity
  8
0
100
AcDbVertex
100
AcDb2dVertex
 10
28.40214327499706
 20
197.4090405403701
 30
0.0
  0
VERTEX
  5
2F6
330
2E8
100
AcDbEntity
  8
0
100
AcDbVertex
100
AcDb2dVertex
 10
24.07201625607485
 20
194.9090405403701
 30
0.0
  0
VERTEX
  5
2F7
330
2E8
100
AcDbEntity
  8
0
100
AcDbVertex
100
AcDb2dVertex
 10
12.06823773968671
 20
215.7001948135581
 30
0.0
  0
SEQEND
  5
2F8
330
2E8
100
AcDbEntity
  8
0
  0
POLYLINE
  5
2F9
330
1F
100
AcDbEntity
  8
0
100
AcDb2dPolyline
 66
     1
 10
0.0
 20
0.0
 30
0.0
 70
     1
  0
VERTEX
  5
2FA
330
2F9
100
AcDbEntity
  8
0
100
AcDbVertex
100
AcDb2dVertex
 10
7.767684567171216
 20
171.4151315917067
 30
0.0
  0
VERTEX
  5
2FB
330
2F9
100
AcDbEntity
  8
0
100
AcDbVertex
100
AcDb2dVertex
 10
7.767684567171216
 20
176.4151315917067
 30
0.0
  0
VERTEX
  5
2FC
330
2F9
100
AcDbEntity
  8
0
100
AcDbVertex
100
AcDb2dVertex
 10
4.167684567171193
 20
176.4151315917067
 30
0.0
  0
VERTEX
  5
2FD
330
2F9
100
AcDbEntity
  8
0
100
AcDbVertex
100
AcDb2dVertex
 10
4.167684567171193
 20
171.4151315917067
 30
0.0
  0
VERTEX
  5
2FE
330
2F9
100
AcDbEntity
  8
0
100
AcDbVertex
100
AcDb2dVertex
 10
-19.83987246560503
 20
171.4151315917067
 30
0.0
  0
VERTEX
  5
2FF
330
2F9
100
AcDbEntity
  8
0
100
AcDbVertex
100
AcDb2dVertex
 10
-7.836093949216945
 20
192.2062858648947
 30
0.0
  0
VERTEX
  5
300
330
2F9
100
AcDbEntity
  8
0
100
AcDbVertex
100
AcDb2dVertex
 10
-3.505966930294733
 20
189.7062858648947
 30
0.0
  0
VERTEX
  5
301
330
2F9
100
AcDbEntity
  8
0
100
AcDbVertex
100
AcDb2dVertex
 10
-1.705966930294721
 20
192.8239773185187
 30
0.0
  0
VERTEX
  5
302
330
2F9
100
AcDbEntity
  8
0
100
AcDbVertex
100
AcDb2dVertex
 10
-6.036093949216934
 20
195.3239773185187
 30
0.0
  0
VERTEX
  5
303
330
2F9
100
AcDbEntity
  8
0
100
AcDbVertex
100
AcDb2dVertex
 10
5.967684567171204
 20
216.1151315917067
 30
0.0
  0
VERTEX
  5
304
330
2F9
100
AcDbEntity
  8
0
100
AcDbVertex
100
AcDb2dVertex
 10
17.97146308355934
 20
195.3239773185187
 30
0.0
  0
VERTEX
  5
305
330
2F9
100
AcDbEntity
  8
0
100
AcDbVertex
100
AcDb2dVertex
 10
13.64133606463713
 20
192.8239773185187
 30
0.0
  0
VERTEX
  5
306
330
2F9
100
AcDbEntity
  8
0
100
AcDbVertex
100
AcDb2dVertex
 10
15.44133606463714
 20
189.7062858648947
 30
0.0
  0
VERTEX
  5
307
330
2F9
100
AcDbEntity
  8
0
100
AcDbVertex
100
AcDb2dVertex
 10
19.77146308355935
 20
192.2062858648947
 30
0.0
  0
VERTEX
  5
308
330
2F9
100
AcDbEntity
  8
0
100
AcDbVertex
100
AcDb2dVertex
 10
31.77524159994749
 20
171.4151315917067
 30
0.0
  0
SEQEND
  5
309
330
2F9
100
AcDbEntity
  8
0
  0
POLYLINE
  5
30A
330
1F
100
AcDbEntity
  8
0
100
AcDb2dPolyline
 66
     1
 10
0.0
 20
0.0
 30
0.0
 70
     1
  0
VERTEX
  5
30B
330
30A
100
AcDbEntity
  8
0
100
AcDbVertex
100
AcDb2dVertex
 10
-27.94981079036143
 20
215.7001948135581
 30
0.0
  0
VERTEX
  5
30C
330
30A
100
AcDbEntity
  8
0
100
AcDbVertex
100
AcDb2dVertex
 10
-27.94981079036143
 20
210.7001948135581
 30
0.0
  0
VERTEX
  5
30D
330
30A
100
AcDbEntity
  8
0
100
AcDbVertex
100
AcDb2dVertex
 10
-24.3498107903614
 20
210.7001948135581
 30
0.0
  0
VERTEX
  5
30E
330
30A
100
AcDbEntity
  8
0
100
AcDbVertex
100
AcDb2dVertex
 10
-24.3498107903614
 20
215.7001948135581
 30
0.0
  0
VERTEX
  5
30F
330
30A
100
AcDbEntity
  8
0
100
AcDbVertex
100
AcDb2dVertex
 10
-0.3422537575851834
 20
215.7001948135581
 30
0.0
  0
VERTEX
  5
310
330
30A
100
AcDbEntity
  8
0
100
AcDbVertex
100
AcDb2dVertex
 10
-12.34603227397326
 20
194.9090405403701
 30
0.0
  0
VERTEX
  5
311
330
30A
100
AcDbEntity
  8
0
100
AcDbVertex
100
AcDb2dVertex
 10
-16.67615929289548
 20
197.4090405403701
 30
0.0
  0
VERTEX
  5
312
330
30A
100
AcDbEntity
  8
0
100
AcDbVertex
100
AcDb2dVertex
 10
-18.47615929289549
 20
194.2913490867461
 30
0.0
  0
VERTEX
  5
313
330
30A
100
AcDbEntity
  8
0
100
AcDbVertex
100
AcDb2dVertex
 10
-14.14603227397328
 20
191.7913490867461
 30
0.0
  0
VERTEX
  5
314
330
30A
100
AcDbEntity
  8
0
100
AcDbVertex
100
AcDb2dVertex
 10
-26.14981079036141
 20
171.0001948135581
 30
0.0
  0
VERTEX
  5
315
330
30A
100
AcDbEntity
  8
0
100
AcDbVertex
100
AcDb2dVertex
 10
-38.15358930674955
 20
191.7913490867461
 30
0.0
  0
VERTEX
  5
316
330
30A
100
AcDbEntity
  8
0
100
AcDbVertex
100
AcDb2dVertex
 10
-33.82346228782734
 20
194.2913490867461
 30
0.0
  0
VERTEX
  5
317
330
30A
100
AcDbEntity
  8
0
100
AcDbVertex
100
AcDb2dVertex
 10
-35.62346228782735
 20
197.4090405403701
 30
0.0
  0
VERTEX
  5
318
330
30A
100
AcDbEntity
  8
0
100
AcDbVertex
100
AcDb2dVertex
 10
-39.95358930674956
 20
194.9090405403701
 30
0.0
  0
VERTEX
  5
319
330
30A
100
AcDbEntity
  8
0
100
AcDbVertex
100
AcDb2dVertex
 10
-51.9573678231377
 20
215.7001948135581
 30
0.0
  0
SEQEND
  5
31A
330
30A
100
AcDbEntity
  8
0
  0
POLYLINE
  5
31B
330
1F
100
AcDbEntity
  8
0
100
AcDb2dPolyline
 66
     1
 10
0.0
 20
0.0
 30
0.0
 70
     1
  0
VERTEX
  5
31C
330
31B
100
AcDbEntity
  8
0
100
AcDbVertex
100
AcDb2dVertex
 10
-56.25792099565319
 20
171.4151315917067
 30
0.0
  0
VERTEX
  5
31D
330
31B
100
AcDbEntity
  8
0
100
AcDbVertex
100
AcDb2dVertex
 10
-56.25792099565319
 20
176.4151315917067
 30
0.0
  0
VERTEX
  5
31E
330
31B
100
AcDbEntity
  8
0
100
AcDbVertex
100
AcDb2dVertex
 10
-59.85792099565322
 20
176.4151315917067
 30
0.0
  0
VERTEX
  5
31F
330
31B
100
AcDbEntity
  8
0
100
AcDbVertex
100
AcDb2dVertex
 10
-59.85792099565322
 20
171.4151315917067
 30
0.0
  0
VERTEX
  5
320
330
31B
100
AcDbEntity
  8
0
100
AcDbVertex
100
AcDb2dVertex
 10
-83.86547802842944
 20
171.4151315917067
 30
0.0
  0
VERTEX
  5
321
330
31B
100
AcDbEntity
  8
0
100
AcDbVertex
100
AcDb2dVertex
 10
-71.86169951204135
 20
192.2062858648947
 30
0.0
  0
VERTEX
  5
322
330
31B
100
AcDbEntity
  8
0
100
AcDbVertex
100
AcDb2dVertex
 10
-67.53157249311914
 20
189.7062858648947
 30
0.0
  0
VERTEX
  5
323
330
31B
100
AcDbEntity
  8
0
100
AcDbVertex
100
AcDb2dVertex
 10
-65.73157249311913
 20
192.8239773185187
 30
0.0
  0
VERTEX
  5
324
330
31B
100
AcDbEntity
  8
0
100
AcDbVertex
100
AcDb2dVertex
 10
-70.06169951204134
 20
195.3239773185187
 30
0.0
  0
VERTEX
  5
325
330
31B
100
AcDbEntity
  8
0
100
AcDbVertex
100
AcDb2dVertex
 10
-58.05792099565321
 20
216.1151315917067
 30
0.0
  0
VERTEX
  5
326
330
31B
100
AcDbEntity
  8
0
100
AcDbVertex
100
AcDb2dVertex
 10
-46.05414247926507
 20
195.3239773185187
 30
0.0
  0
VERTEX
  5
327
330
31B
100
AcDbEntity
  8
0
100
AcDbVertex
100
AcDb2dVertex
 10
-50.38426949818728
 20
192.8239773185187
 30
0.0
  0
VERTEX
  5
328
330
31B
100
AcDbEntity
  8
0
100
AcDbVertex
100
AcDb2dVertex
 10
-48.58426949818727
 20
189.7062858648947
 30
0.0
  0
VERTEX
  5
329
330
31B
100
AcDbEntity
  8
0
100
AcDbVertex
100
AcDb2dVertex
 10
-44.25414247926506
 20
192.2062858648947
 30
0.0
  0
VERTEX
  5
32A
330
31B
100
AcDbEntity
  8
0
100
AcDbVertex
100
AcDb2dVertex
 10
-32.25036396287692
 20
171.4151315917067
 30
0.0
  0
SEQEND
  5
32B
330
31B
100
AcDbEntity
  8
0
  0
POLYLINE
  5
32C
330
1F
100
AcDbEntity
  8
0
100
AcDb2dPolyline
 66
     1
 10
0.0
 20
0.0
 30
0.0
 70
     1
  0
VERTEX
  5
32D
330
32C
100
AcDbEntity
  8
0
100
AcDbVertex
100
AcDb2dVertex
 10
-91.97541635318584
 20
215.7001948135581
 30
0.0
  0
VERTEX
  5
32E
330
32C
100
AcDbEntity
  8
0
100
AcDbVertex
100
AcDb2dVertex
 10
-91.97541635318584
 20
210.7001948135581
 30
0.0
  0
VERTEX
  5
32F
330
32C
100
AcDbEntity
  8
0
100
AcDbVertex
100
AcDb2dVertex
 10
-88.37541635318581
 20
210.7001948135581
 30
0.0
  0
VERTEX
  5
330
330
32C
100
AcDbEntity
  8
0
100
AcDbVertex
100
AcDb2dVertex
 10
-88.37541635318581
 20
215.7001948135581
 30
0.0
  0
VERTEX
  5
331
330
32C
100
AcDbEntity
  8
0
100
AcDbVertex
100
AcDb2dVertex
 10
-64.3678593204096
 20
215.7001948135581
 30
0.0
  0
VERTEX
  5
332
330
32C
100
AcDbEntity
  8
0
100
AcDbVertex
100
AcDb2dVertex
 10
-76.37163783679767
 20
194.9090405403701
 30
0.0
  0
VERTEX
  5
333
330
32C
100
AcDbEntity
  8
0
100
AcDbVertex
100
AcDb2dVertex
 10
-80.70176485571989
 20
197.4090405403701
 30
0.0
  0
VERTEX
  5
334
330
32C
100
AcDbEntity
  8
0
100
AcDbVertex
100
AcDb2dVertex
 10
-82.5017648557199
 20
194.2913490867461
 30
0.0
  0
VERTEX
  5
335
330
32C
100
AcDbEntity
  8
0
100
AcDbVertex
100
AcDb2dVertex
 10
-78.17163783679769
 20
191.7913490867461
 30
0.0
  0
VERTEX
  5
336
330
32C
100
AcDbEntity
  8
0
100
AcDbVertex
100
AcDb2dVertex
 10
-90.17541635318582
 20
171.0001948135581
 30
0.0
  0
VERTEX
  5
337
330
32C
100
AcDbEntity
  8
0
100
AcDbVertex
100
AcDb2dVertex
 10
-102.179194869574
 20
191.7913490867461
 30
0.0
  0
VERTEX
  5
338
330
32C
100
AcDbEntity
  8
0
100
AcDbVertex
100
AcDb2dVertex
 10
-97.84906785065175
 20
194.2913490867461
 30
0.0
  0
VERTEX
  5
339
330
32C
100
AcDbEntity
  8
0
100
AcDbVertex
100
AcDb2dVertex
 10
-99.64906785065176
 20
197.4090405403701
 30
0.0
  0
VERTEX
  5
33A
330
32C
100
AcDbEntity
  8
0
100
AcDbVertex
100
AcDb2dVertex
 10
-103.979194869574
 20
194.9090405403701
 30
0.0
  0
VERTEX
  5
33B
330
32C
100
AcDbEntity
  8
0
100
AcDbVertex
100
AcDb2dVertex
 10
-115.9829733859621
 20
215.7001948135581
 30
0.0
  0
SEQEND
  5
33C
330
32C
100
AcDbEntity
  8
0
  0
POLYLINE
  5
33D
330
1F
100
AcDbEntity
  8
0
100
AcDb2dPolyline
 66
     1
 10
0.0
 20
0.0
 30
0.0
 70
     1
  0
VERTEX
  5
33E
330
33D
100
AcDbEntity
  8
0
100
AcDbVertex
100
AcDb2dVertex
 10
-120.2835265584776
 20
171.4151315917067
 30
0.0
  0
VERTEX
  5
33F
330
33D
100
AcDbEntity
  8
0
100
AcDbVertex
100
AcDb2dVertex
 10
-120.2835265584776
 20
176.4151315917067
 30
0.0
  0
VERTEX
  5
340
330
33D
100
AcDbEntity
  8
0
100
AcDbVertex
100
AcDb2dVertex
 10
-123.8835265584776
 20
176.4151315917067
 30
0.0
  0
VERTEX
  5
341
330
33D
100
AcDbEntity
  8
0
100
AcDbVertex
100
AcDb2dVertex
 10
-123.8835265584776
 20
171.4151315917067
 30
0.0
  0
VERTEX
  5
342
330
33D
100
AcDbEntity
  8
0
100
AcDbVertex
100
AcDb2dVertex
 10
-147.8910835912538
 20
171.4151315917067
 30
0.0
  0
VERTEX
  5
343
330
33D
100
AcDbEntity
  8
0
100
AcDbVertex
100
AcDb2dVertex
 10
-135.8873050748658
 20
192.2062858648947
 30
0.0
  0
VERTEX
  5
344
330
33D
100
AcDbEntity
  8
0
100
AcDbVertex
100
AcDb2dVertex
 10
-131.5571780559436
 20
189.7062858648947
 30
0.0
  0
VERTEX
  5
345
330
33D
100
AcDbEntity
  8
0
100
AcDbVertex
100
AcDb2dVertex
 10
-129.7571780559435
 20
192.8239773185187
 30
0.0
  0
VERTEX
  5
346
330
33D
100
AcDbEntity
  8
0
100
AcDbVertex
100
AcDb2dVertex
 10
-134.0873050748658
 20
195.3239773185187
 30
0.0
  0
VERTEX
  5
347
330
33D
100
AcDbEntity
  8
0
100
AcDbVertex
100
AcDb2dVertex
 10
-122.0835265584776
 20
216.1151315917067
 30
0.0
  0
VERTEX
  5
348
330
33D
100
AcDbEntity
  8
0
100
AcDbVertex
100
AcDb2dVertex
 10
-110.0797480420895
 20
195.3239773185187
 30
0.0
  0
VERTEX
  5
349
330
33D
100
AcDbEntity
  8
0
100
AcDbVertex
100
AcDb2dVertex
 10
-114.4098750610117
 20
192.8239773185187
 30
0.0
  0
VERTEX
  5
34A
330
33D
100
AcDbEntity
  8
0
100
AcDbVertex
100
AcDb2dVertex
 10
-112.6098750610117
 20
189.7062858648947
 30
0.0
  0
VERTEX
  5
34B
330
33D
100
AcDbEntity
  8
0
100
AcDbVertex
100
AcDb2dVertex
 10
-108.2797480420895
 20
192.2062858648947
 30
0.0
  0
VERTEX
  5
34C
330
33D
100
AcDbEntity
  8
0
100
AcDbVertex
100
AcDb2dVertex
 10
-96.27596952570133
 20
171.4151315917067
 30
0.0
  0
SEQEND
  5
34D
330
33D
100
AcDbEntity
  8
0
  0
POLYLINE
  5
34E
330
1F
100
AcDbEntity
  8
0
100
AcDb2dPolyline
 66
     1
 10
0.0
 20
0.0
 30
0.0
 70
     1
  0
VERTEX
  5
34F
330
34E
100
AcDbEntity
  8
0
100
AcDbVertex
100
AcDb2dVertex
 10
-156.0010219160102
 20
215.7001948135581
 30
0.0
  0
VERTEX
  5
350
330
34E
100
AcDbEntity
  8
0
100
AcDbVertex
100
AcDb2dVertex
 10
-156.0010219160102
 20
210.7001948135581
 30
0.0
  0
VERTEX
  5
351
330
34E
100
AcDbEntity
  8
0
100
AcDbVertex
100
AcDb2dVertex
 10
-152.4010219160102
 20
210.7001948135581
 30
0.0
  0
VERTEX
  5
352
330
34E
100
AcDbEntity
  8
0
100
AcDbVertex
100
AcDb2dVertex
 10
-152.4010219160102
 20
215.7001948135581
 30
0.0
  0
VERTEX
  5
353
330
34E
100
AcDbEntity
  8
0
100
AcDbVertex
100
AcDb2dVertex
 10
-128.393464883234
 20
215.7001948135581
 30
0.0
  0
VERTEX
  5
354
330
34E
100
AcDbEntity
  8
0
100
AcDbVertex
100
AcDb2dVertex
 10
-140.3972433996221
 20
194.9090405403701
 30
0.0
  0
VERTEX
  5
355
330
34E
100
AcDbEntity
  8
0
100
AcDbVertex
100
AcDb2dVertex
 10
-144.7273704185443
 20
197.4090405403701
 30
0.0
  0
VERTEX
  5
356
330
34E
100
AcDbEntity
  8
0
100
AcDbVertex
100
AcDb2dVertex
 10
-146.5273704185443
 20
194.2913490867461
 30
0.0
  0
VERTEX
  5
357
330
34E
100
AcDbEntity
  8
0
100
AcDbVertex
100
AcDb2dVertex
 10
-142.1972433996221
 20
191.7913490867461
 30
0.0
  0
VERTEX
  5
358
330
34E
100
AcDbEntity
  8
0
100
AcDbVertex
100
AcDb2dVertex
 10
-154.2010219160102
 20
171.0001948135581
 30
0.0
  0
VERTEX
  5
359
330
34E
100
AcDbEntity
  8
0
100
AcDbVertex
100
AcDb2dVertex
 10
-166.2048004323984
 20
191.7913490867461
 30
0.0
  0
VERTEX
  5
35A
330
34E
100
AcDbEntity
  8
0
100
AcDbVertex
100
AcDb2dVertex
 10
-161.8746734134762
 20
194.2913490867461
 30
0.0
  0
VERTEX
  5
35B
330
34E
100
AcDbEntity
  8
0
100
AcDbVertex
100
AcDb2dVertex
 10
-163.6746734134762
 20
197.4090405403701
 30
0.0
  0
VERTEX
  5
35C
330
34E
100
AcDbEntity
  8
0
100
AcDbVertex
100
AcDb2dVertex
 10
-168.0048004323984
 20
194.9090405403701
 30
0.0
  0
VERTEX
  5
35D
330
34E
100
AcDbEntity
  8
0
100
AcDbVertex
100
AcDb2dVertex
 10
-180.0085789487865
 20
215.7001948135581
 30
0.0
  0
SEQEND
  5
35E
330
34E
100
AcDbEntity
  8
0
  0
POLYLINE
  5
35F
330
1F
100
AcDbEntity
  8
0
100
AcDb2dPolyline
 66
     1
 10
0.0
 20
0.0
 30
0.0
 70
     1
  0
VERTEX
  5
360
330
35F
100
AcDbEntity
  8
0
100
AcDbVertex
100
AcDb2dVertex
 10
-184.309132121302
 20
171.4151315917067
 30
0.0
  0
VERTEX
  5
361
330
35F
100
AcDbEntity
  8
0
100
AcDbVertex
100
AcDb2dVertex
 10
-184.309132121302
 20
176.4151315917067
 30
0.0
  0
VERTEX
  5
362
330
35F
100
AcDbEntity
  8
0
100
AcDbVertex
100
AcDb2dVertex
 10
-187.909132121302
 20
176.4151315917067
 30
0.0
  0
VERTEX
  5
363
330
35F
100
AcDbEntity
  8
0
100
AcDbVertex
100
AcDb2dVertex
 10
-187.909132121302
 20
171.4151315917067
 30
0.0
  0
VERTEX
  5
364
330
35F
100
AcDbEntity
  8
0
100
AcDbVertex
100
AcDb2dVertex
 10
-211.9166891540783
 20
171.4151315917067
 30
0.0
  0
VERTEX
  5
365
330
35F
100
AcDbEntity
  8
0
100
AcDbVertex
100
AcDb2dVertex
 10
-199.9129106376902
 20
192.2062858648947
 30
0.0
  0
VERTEX
  5
366
330
35F
100
AcDbEntity
  8
0
100
AcDbVertex
100
AcDb2dVertex
 10
-195.582783618768
 20
189.7062858648947
 30
0.0
  0
VERTEX
  5
367
330
35F
100
AcDbEntity
  8
0
100
AcDbVertex
100
AcDb2dVertex
 10
-193.782783618768
 20
192.8239773185187
 30
0.0
  0
VERTEX
  5
368
330
35F
100
AcDbEntity
  8
0
100
AcDbVertex
100
AcDb2dVertex
 10
-198.1129106376902
 20
195.3239773185187
 30
0.0
  0
VERTEX
  5
369
330
35F
100
AcDbEntity
  8
0
100
AcDbVertex
100
AcDb2dVertex
 10
-186.109132121302
 20
216.1151315917067
 30
0.0
  0
VERTEX
  5
36A
330
35F
100
AcDbEntity
  8
0
100
AcDbVertex
100
AcDb2dVertex
 10
-174.1053536049139
 20
195.3239773185187
 30
0.0
  0
VERTEX
  5
36B
330
35F
100
AcDbEntity
  8
0
100
AcDbVertex
100
AcDb2dVertex
 10
-178.4354806238361
 20
192.8239773185187
 30
0.0
  0
VERTEX
  5
36C
330
35F
100
AcDbEntity
  8
0
100
AcDbVertex
100
AcDb2dVertex
 10
-176.6354806238361
 20
189.7062858648947
 30
0.0
  0
VERTEX
  5
36D
330
35F
100
AcDbEntity
  8
0
100
AcDbVertex
100
AcDb2dVertex
 10
-172.3053536049139
 20
192.2062858648947
 30
0.0
  0
VERTEX
  5
36E
330
35F
100
AcDbEntity
  8
0
100
AcDbVertex
100
AcDb2dVertex
 10
-160.3015750885257
 20
171.4151315917067
 30
0.0
  0
SEQEND
  5
36F
330
35F
100
AcDbEntity
  8
0
  0
POLYLINE
  5
370
330
1F
100
AcDbEntity
  8
0
100
AcDb2dPolyline
 66
     1
 10
0.0
 20
0.0
 30
0.0
 70
     1
  0
VERTEX
  5
371
330
370
100
AcDbEntity
  8
0
100
AcDbVertex
100
AcDb2dVertex
 10
-220.0266274788347
 20
215.7001948135581
 30
0.0
  0
VERTEX
  5
372
330
370
100
AcDbEntity
  8
0
100
AcDbVertex
100
AcDb2dVertex
 10
-220.0266274788347
 20
210.7001948135581
 30
0.0
  0
VERTEX
  5
373
330
370
100
AcDbEntity
  8
0
100
AcDbVertex
100
AcDb2dVertex
 10
-216.4266274788346
 20
210.7001948135581
 30
0.0
  0
VERTEX
  5
374
330
370
100
AcDbEntity
  8
0
100
AcDbVertex
100
AcDb2dVertex
 10
-216.4266274788346
 20
215.7001948135581
 30
0.0
  0
VERTEX
  5
375
330
370
100
AcDbEntity
  8
0
100
AcDbVertex
100
AcDb2dVertex
 10
-192.4190704460584
 20
215.7001948135581
 30
0.0
  0
VERTEX
  5
376
330
370
100
AcDbEntity
  8
0
100
AcDbVertex
100
AcDb2dVertex
 10
-204.4228489624465
 20
194.9090405403701
 30
0.0
  0
VERTEX
  5
377
330
370
100
AcDbEntity
  8
0
100
AcDbVertex
100
AcDb2dVertex
 10
-208.7529759813687
 20
197.4090405403701
 30
0.0
  0
VERTEX
  5
378
330
370
100
AcDbEntity
  8
0
100
AcDbVertex
100
AcDb2dVertex
 10
-210.5529759813687
 20
194.2913490867461
 30
0.0
  0
VERTEX
  5
379
330
370
100
AcDbEntity
  8
0
100
AcDbVertex
100
AcDb2dVertex
 10
-206.2228489624465
 20
191.7913490867461
 30
0.0
  0
VERTEX
  5
37A
330
370
100
AcDbEntity
  8
0
100
AcDbVertex
100
AcDb2dVertex
 10
-218.2266274788346
 20
171.0001948135581
 30
0.0
  0
VERTEX
  5
37B
330
370
100
AcDbEntity
  8
0
100
AcDbVertex
100
AcDb2dVertex
 10
-230.2304059952228
 20
191.7913490867461
 30
0.0
  0
VERTEX
  5
37C
330
370
100
AcDbEntity
  8
0
100
AcDbVertex
100
AcDb2dVertex
 10
-225.9002789763006
 20
194.2913490867461
 30
0.0
  0
VERTEX
  5
37D
330
370
100
AcDbEntity
  8
0
100
AcDbVertex
100
AcDb2dVertex
 10
-227.7002789763006
 20
197.4090405403701
 30
0.0
  0
VERTEX
  5
37E
330
370
100
AcDbEntity
  8
0
100
AcDbVertex
100
AcDb2dVertex
 10
-232.0304059952228
 20
194.9090405403701
 30
0.0
  0
VERTEX
  5
37F
330
370
100
AcDbEntity
  8
0
100
AcDbVertex
100
AcDb2dVertex
 10
-244.0341845116109
 20
215.7001948135581
 30
0.0
  0
SEQEND
  5
380
330
370
100
AcDbEntity
  8
0
  0
POLYLINE
  5
381
330
1F
100
AcDbEntity
  8
0
100
AcDb2dPolyline
 66
     1
 10
0.0
 20
0.0
 30
0.0
 70
     1
  0
VERTEX
  5
382
330
381
100
AcDbEntity
  8
0
100
AcDbVertex
100
AcDb2dVertex
 10
-248.3347376841264
 20
171.4151315917067
 30
0.0
  0
VERTEX
  5
383
330
381
100
AcDbEntity
  8
0
100
AcDbVertex
100
AcDb2dVertex
 10
-248.3347376841264
 20
176.4151315917067
 30
0.0
  0
VERTEX
  5
384
330
381
100
AcDbEntity
  8
0
100
AcDbVertex
100
AcDb2dVertex
 10
-251.9347376841264
 20
176.4151315917067
 30
0.0
  0
VERTEX
  5
385
330
381
100
AcDbEntity
  8
0
100
AcDbVertex
100
AcDb2dVertex
 10
-251.9347376841264
 20
171.4151315917067
 30
0.0
  0
VERTEX
  5
386
330
381
100
AcDbEntity
  8
0
100
AcDbVertex
100
AcDb2dVertex
 10
-275.9422947169027
 20
171.4151315917067
 30
0.0
  0
VERTEX
  5
387
330
381
100
AcDbEntity
  8
0
100
AcDbVertex
100
AcDb2dVertex
 10
-263.9385162005146
 20
192.2062858648947
 30
0.0
  0
VERTEX
  5
388
330
381
100
AcDbEntity
  8
0
100
AcDbVertex
100
AcDb2dVertex
 10
-259.6083891815924
 20
189.7062858648947
 30
0.0
  0
VERTEX
  5
389
330
381
100
AcDbEntity
  8
0
100
AcDbVertex
100
AcDb2dVertex
 10
-257.8083891815924
 20
192.8239773185187
 30
0.0
  0
VERTEX
  5
38A
330
381
100
AcDbEntity
  8
0
100
AcDbVertex
100
AcDb2dVertex
 10
-262.1385162005146
 20
195.3239773185187
 30
0.0
  0
VERTEX
  5
38B
330
381
100
AcDbEntity
  8
0
100
AcDbVertex
100
AcDb2dVertex
 10
-250.1347376841264
 20
216.1151315917067
 30
0.0
  0
VERTEX
  5
38C
330
381
100
AcDbEntity
  8
0
100
AcDbVertex
100
AcDb2dVertex
 10
-238.1309591677383
 20
195.3239773185187
 30
0.0
  0
VERTEX
  5
38D
330
381
100
AcDbEntity
  8
0
100
AcDbVertex
100
AcDb2dVertex
 10
-242.4610861866605
 20
192.8239773185187
 30
0.0
  0
VERTEX
  5
38E
330
381
100
AcDbEntity
  8
0
100
AcDbVertex
100
AcDb2dVertex
 10
-240.6610861866605
 20
189.7062858648947
 30
0.0
  0
VERTEX
  5
38F
330
381
100
AcDbEntity
  8
0
100
AcDbVertex
100
AcDb2dVertex
 10
-236.3309591677383
 20
192.2062858648947
 30
0.0
  0
VERTEX
  5
390
330
381
100
AcDbEntity
  8
0
100
AcDbVertex
100
AcDb2dVertex
 10
-224.3271806513501
 20
171.4151315917067
 30
0.0
  0
SEQEND
  5
391
330
381
100
AcDbEntity
  8
0
  0
POLYLINE
  5
392
330
1F
100
AcDbEntity
  8
0
100
AcDb2dPolyline
 66
     1
 10
0.0
 20
0.0
 30
0.0
 70
     1
  0
VERTEX
  5
393
330
392
100
AcDbEntity
  8
0
100
AcDbVertex
100
AcDb2dVertex
 10
-284.0522330416591
 20
215.7001948135581
 30
0.0
  0
VERTEX
  5
394
330
392
100
AcDbEntity
  8
0
100
AcDbVertex
100
AcDb2dVertex
 10
-284.0522330416591
 20
210.7001948135581
 30
0.0
  0
VERTEX
  5
395
330
392
100
AcDbEntity
  8
0
100
AcDbVertex
100
AcDb2dVertex
 10
-280.452233041659
 20
210.7001948135581
 30
0.0
  0
VERTEX
  5
396
330
392
100
AcDbEntity
  8
0
100
AcDbVertex
100
AcDb2dVertex
 10
-280.452233041659
 20
215.7001948135581
 30
0.0
  0
VERTEX
  5
397
330
392
100
AcDbEntity
  8
0
100
AcDbVertex
100
AcDb2dVertex
 10
-256.4446760088828
 20
215.7001948135581
 30
0.0
  0
VERTEX
  5
398
330
392
100
AcDbEntity
  8
0
100
AcDbVertex
100
AcDb2dVertex
 10
-268.4484545252709
 20
194.9090405403701
 30
0.0
  0
VERTEX
  5
399
330
392
100
AcDbEntity
  8
0
100
AcDbVertex
100
AcDb2dVertex
 10
-272.7785815441931
 20
197.4090405403701
 30
0.0
  0
VERTEX
  5
39A
330
392
100
AcDbEntity
  8
0
100
AcDbVertex
100
AcDb2dVertex
 10
-274.5785815441931
 20
194.2913490867461
 30
0.0
  0
VERTEX
  5
39B
330
392
100
AcDbEntity
  8
0
100
AcDbVertex
100
AcDb2dVertex
 10
-270.2484545252709
 20
191.7913490867461
 30
0.0
  0
VERTEX
  5
39C
330
392
100
AcDbEntity
  8
0
100
AcDbVertex
100
AcDb2dVertex
 10
-282.2522330416591
 20
171.0001948135581
 30
0.0
  0
VERTEX
  5
39D
330
392
100
AcDbEntity
  8
0
100
AcDbVertex
100
AcDb2dVertex
 10
-294.2560115580472
 20
191.7913490867461
 30
0.0
  0
VERTEX
  5
39E
330
392
100
AcDbEntity
  8
0
100
AcDbVertex
100
AcDb2dVertex
 10
-289.925884539125
 20
194.2913490867461
 30
0.0
  0
VERTEX
  5
39F
330
392
100
AcDbEntity
  8
0
100
AcDbVertex
100
AcDb2dVertex
 10
-291.725884539125
 20
197.4090405403701
 30
0.0
  0
VERTEX
  5
3A0
330
392
100
AcDbEntity
  8
0
100
AcDbVertex
100
AcDb2dVertex
 10
-296.0560115580472
 20
194.9090405403701
 30
0.0
  0
VERTEX
  5
3A1
330
392
100
AcDbEntity
  8
0
100
AcDbVertex
100
AcDb2dVertex
 10
-308.0597900744353
 20
215.7001948135581
 30
0.0
  0
SEQEND
  5
3A2
330
392
100
AcDbEntity
  8
0
  0
POLYLINE
  5
3A3
330
1F
100
AcDbEntity
  8
0
100
AcDb2dPolyline
 66
     1
 10
0.0
 20
0.0
 30
0.0
 70
     1
  0
VERTEX
  5
3A4
330
3A3
100
AcDbEntity
  8
0
100
AcDbVertex
100
AcDb2dVertex
 10
-312.3603432469508
 20
171.4151315917067
 30
0.0
  0
VERTEX
  5
3A5
330
3A3
100
AcDbEntity
  8
0
100
AcDbVertex
100
AcDb2dVertex
 10
-312.3603432469508
 20
176.4151315917067
 30
0.0
  0
VERTEX
  5
3A6
330
3A3
100
AcDbEntity
  8
0
100
AcDbVertex
100
AcDb2dVertex
 10
-315.9603432469509
 20
176.4151315917067
 30
0.0
  0
VERTEX
  5
3A7
330
3A3
100
AcDbEntity
  8
0
100
AcDbVertex
100
AcDb2dVertex
 10
-315.9603432469509
 20
171.4151315917067
 30
0.0
  0
VERTEX
  5
3A8
330
3A3
100
AcDbEntity
  8
0
100
AcDbVertex
100
AcDb2dVertex
 10
-339.9679002797271
 20
171.4151315917067
 30
0.0
  0
VERTEX
  5
3A9
330
3A3
100
AcDbEntity
  8
0
100
AcDbVertex
100
AcDb2dVertex
 10
-327.964121763339
 20
192.2062858648947
 30
0.0
  0
VERTEX
  5
3AA
330
3A3
100
AcDbEntity
  8
0
100
AcDbVertex
100
AcDb2dVertex
 10
-323.6339947444168
 20
189.7062858648947
 30
0.0
  0
VERTEX
  5
3AB
330
3A3
100
AcDbEntity
  8
0
100
AcDbVertex
100
AcDb2dVertex
 10
-321.8339947444168
 20
192.8239773185187
 30
0.0
  0
VERTEX
  5
3AC
330
3A3
100
AcDbEntity
  8
0
100
AcDbVertex
100
AcDb2dVertex
 10
-326.164121763339
 20
195.3239773185187
 30
0.0
  0
VERTEX
  5
3AD
330
3A3
100
AcDbEntity
  8
0
100
AcDbVertex
100
AcDb2dVertex
 10
-314.1603432469508
 20
216.1151315917067
 30
0.0
  0
VERTEX
  5
3AE
330
3A3
100
AcDbEntity
  8
0
100
AcDbVertex
100
AcDb2dVertex
 10
-302.1565647305627
 20
195.3239773185187
 30
0.0
  0
VERTEX
  5
3AF
330
3A3
100
AcDbEntity
  8
0
100
AcDbVertex
100
AcDb2dVertex
 10
-306.4866917494849
 20
192.8239773185187
 30
0.0
  0
VERTEX
  5
3B0
330
3A3
100
AcDbEntity
  8
0
100
AcDbVertex
100
AcDb2dVertex
 10
-304.6866917494849
 20
189.7062858648947
 30
0.0
  0
VERTEX
  5
3B1
330
3A3
100
AcDbEntity
  8
0
100
AcDbVertex
100
AcDb2dVertex
 10
-300.3565647305627
 20
192.2062858648947
 30
0.0
  0
VERTEX
  5
3B2
330
3A3
100
AcDbEntity
  8
0
100
AcDbVertex
100
AcDb2dVertex
 10
-288.3527862141746
 20
171.4151315917067
 30
0.0
  0
SEQEND
  5
3B3
330
3A3
100
AcDbEntity
  8
0
  0
POLYLINE
  5
3B4
330
1F
100
AcDbEntity
  8
0
100
AcDb2dPolyline
 66
     1
 10
0.0
 20
0.0
 30
0.0
 70
     1
  0
VERTEX
  5
3B5
330
3B4
100
AcDbEntity
  8
0
100
AcDbVertex
100
AcDb2dVertex
 10
-348.0778386044835
 20
215.7001948135581
 30
0.0
  0
VERTEX
  5
3B6
330
3B4
100
AcDbEntity
  8
0
100
AcDbVertex
100
AcDb2dVertex
 10
-348.0778386044835
 20
210.7001948135581
 30
0.0
  0
VERTEX
  5
3B7
330
3B4
100
AcDbEntity
  8
0
100
AcDbVertex
100
AcDb2dVertex
 10
-344.4778386044835
 20
210.7001948135581
 30
0.0
  0
VERTEX
  5
3B8
330
3B4
100
AcDbEntity
  8
0
100
AcDbVertex
100
AcDb2dVertex
 10
-344.4778386044835
 20
215.7001948135581
 30
0.0
  0
VERTEX
  5
3B9
330
3B4
100
AcDbEntity
  8
0
100
AcDbVertex
100
AcDb2dVertex
 10
-320.4702815717072
 20
215.7001948135581
 30
0.0
  0
VERTEX
  5
3BA
330
3B4
100
AcDbEntity
  8
0
100
AcDbVertex
100
AcDb2dVertex
 10
-332.4740600880953
 20
194.9090405403701
 30
0.0
  0
VERTEX
  5
3BB
330
3B4
100
AcDbEntity
  8
0
100
AcDbVertex
100
AcDb2dVertex
 10
-336.8041871070175
 20
197.4090405403701
 30
0.0
  0
VERTEX
  5
3BC
330
3B4
100
AcDbEntity
  8
0
100
AcDbVertex
100
AcDb2dVertex
 10
-338.6041871070175
 20
194.2913490867461
 30
0.0
  0
VERTEX
  5
3BD
330
3B4
100
AcDbEntity
  8
0
100
AcDbVertex
100
AcDb2dVertex
 10
-334.2740600880953
 20
191.7913490867461
 30
0.0
  0
VERTEX
  5
3BE
330
3B4
100
AcDbEntity
  8
0
100
AcDbVertex
100
AcDb2dVertex
 10
-346.2778386044835
 20
171.0001948135581
 30
0.0
  0
VERTEX
  5
3BF
330
3B4
100
AcDbEntity
  8
0
100
AcDbVertex
100
AcDb2dVertex
 10
-358.2816171208716
 20
191.7913490867461
 30
0.0
  0
VERTEX
  5
3C0
330
3B4
100
AcDbEntity
  8
0
100
AcDbVertex
100
AcDb2dVertex
 10
-353.9514901019494
 20
194.2913490867461
 30
0.0
  0
VERTEX
  5
3C1
330
3B4
100
AcDbEntity
  8
0
100
AcDbVertex
100
AcDb2dVertex
 10
-355.7514901019494
 20
197.4090405403701
 30
0.0
  0
VERTEX
  5
3C2
330
3B4
100
AcDbEntity
  8
0
100
AcDbVertex
100
AcDb2dVertex
 10
-360.0816171208716
 20
194.9090405403701
 30
0.0
  0
VERTEX
  5
3C3
330
3B4
100
AcDbEntity
  8
0
100
AcDbVertex
100
AcDb2dVertex
 10
-372.0853956372598
 20
215.7001948135581
 30
0.0
  0
SEQEND
  5
3C4
330
3B4
100
AcDbEntity
  8
0
  0
POLYLINE
  5
3C5
330
1F
100
AcDbEntity
  8
0
100
AcDb2dPolyline
 66
     1
 10
0.0
 20
0.0
 30
0.0
 70
     1
  0
VERTEX
  5
3C6
330
3C5
100
AcDbEntity
  8
0
100
AcDbVertex
100
AcDb2dVertex
 10
-376.3859488097752
 20
171.4151315917067
 30
0.0
  0
VERTEX
  5
3C7
330
3C5
100
AcDbEntity
  8
0
100
AcDbVertex
100
AcDb2dVertex
 10
-376.3859488097752
 20
176.4151315917067
 30
0.0
  0
VERTEX
  5
3C8
330
3C5
100
AcDbEntity
  8
0
100
AcDbVertex
100
AcDb2dVertex
 10
-379.9859488097753
 20
176.4151315917067
 30
0.0
  0
VERTEX
  5
3C9
330
3C5
100
AcDbEntity
  8
0
100
AcDbVertex
100
AcDb2dVertex
 10
-379.9859488097753
 20
171.4151315917067
 30
0.0
  0
VERTEX
  5
3CA
330
3C5
100
AcDbEntity
  8
0
100
AcDbVertex
100
AcDb2dVertex
 10
-403.9935058425515
 20
171.4151315917067
 30
0.0
  0
VERTEX
  5
3CB
330
3C5
100
AcDbEntity
  8
0
100
AcDbVertex
100
AcDb2dVertex
 10
-391.9897273261634
 20
192.2062858648947
 30
0.0
  0
VERTEX
  5
3CC
330
3C5
100
AcDbEntity
  8
0
100
AcDbVertex
100
AcDb2dVertex
 10
-387.6596003072412
 20
189.7062858648947
 30
0.0
  0
VERTEX
  5
3CD
330
3C5
100
AcDbEntity
  8
0
100
AcDbVertex
100
AcDb2dVertex
 10
-385.8596003072412
 20
192.8239773185187
 30
0.0
  0
VERTEX
  5
3CE
330
3C5
100
AcDbEntity
  8
0
100
AcDbVertex
100
AcDb2dVertex
 10
-390.1897273261634
 20
195.3239773185187
 30
0.0
  0
VERTEX
  5
3CF
330
3C5
100
AcDbEntity
  8
0
100
AcDbVertex
100
AcDb2dVertex
 10
-378.1859488097753
 20
216.1151315917067
 30
0.0
  0
VERTEX
  5
3D0
330
3C5
100
AcDbEntity
  8
0
100
AcDbVertex
100
AcDb2dVertex
 10
-366.1821702933871
 20
195.3239773185187
 30
0.0
  0
VERTEX
  5
3D1
330
3C5
100
AcDbEntity
  8
0
100
AcDbVertex
100
AcDb2dVertex
 10
-370.5122973123093
 20
192.8239773185187
 30
0.0
  0
VERTEX
  5
3D2
330
3C5
100
AcDbEntity
  8
0
100
AcDbVertex
100
AcDb2dVertex
 10
-368.7122973123093
 20
189.7062858648947
 30
0.0
  0
VERTEX
  5
3D3
330
3C5
100
AcDbEntity
  8
0
100
AcDbVertex
100
AcDb2dVertex
 10
-364.3821702933871
 20
192.2062858648947
 30
0.0
  0
VERTEX
  5
3D4
330
3C5
100
AcDbEntity
  8
0
100
AcDbVertex
100
AcDb2dVertex
 10
-352.378391776999
 20
171.4151315917067
 30
0.0
  0
SEQEND
  5
3D5
330
3C5
100
AcDbEntity
  8
0
  0
POLYLINE
  5
3D6
330
1F
100
AcDbEntity
  8
0
100
AcDb2dPolyline
 66
     1
 10
0.0
 20
0.0
 30
0.0
 70
     1
  0
VERTEX
  5
3D7
330
3D6
100
AcDbEntity
  8
0
100
AcDbVertex
100
AcDb2dVertex
 10
164.1270058981118
 20
264.3115636212169
 30
0.0
  0
VERTEX
  5
3D8
330
3D6
100
AcDbEntity
  8
0
100
AcDbVertex
100
AcDb2dVertex
 10
164.1270058981118
 20
259.3115636212169
 30
0.0
  0
VERTEX
  5
3D9
330
3D6
100
AcDbEntity
  8
0
100
AcDbVertex
100
AcDb2dVertex
 10
167.7270058981118
 20
259.3115636212169
 30
0.0
  0
VERTEX
  5
3DA
330
3D6
100
AcDbEntity
  8
0
100
AcDbVertex
100
AcDb2dVertex
 10
167.7270058981118
 20
264.3115636212169
 30
0.0
  0
VERTEX
  5
3DB
330
3D6
100
AcDbEntity
  8
0
100
AcDbVertex
100
AcDb2dVertex
 10
191.734562930888
 20
264.3115636212169
 30
0.0
  0
VERTEX
  5
3DC
330
3D6
100
AcDbEntity
  8
0
100
AcDbVertex
100
AcDb2dVertex
 10
179.7307844145
 20
243.5204093480289
 30
0.0
  0
VERTEX
  5
3DD
330
3D6
100
AcDbEntity
  8
0
100
AcDbVertex
100
AcDb2dVertex
 10
175.4006573955778
 20
246.0204093480289
 30
0.0
  0
VERTEX
  5
3DE
330
3D6
100
AcDbEntity
  8
0
100
AcDbVertex
100
AcDb2dVertex
 10
173.6006573955777
 20
242.9027178944049
 30
0.0
  0
VERTEX
  5
3DF
330
3D6
100
AcDbEntity
  8
0
100
AcDbVertex
100
AcDb2dVertex
 10
177.9307844145
 20
240.4027178944049
 30
0.0
  0
VERTEX
  5
3E0
330
3D6
100
AcDbEntity
  8
0
100
AcDbVertex
100
AcDb2dVertex
 10
165.9270058981118
 20
219.6115636212169
 30
0.0
  0
VERTEX
  5
3E1
330
3D6
100
AcDbEntity
  8
0
100
AcDbVertex
100
AcDb2dVertex
 10
153.9232273817237
 20
240.4027178944049
 30
0.0
  0
VERTEX
  5
3E2
330
3D6
100
AcDbEntity
  8
0
100
AcDbVertex
100
AcDb2dVertex
 10
158.2533544006459
 20
242.9027178944049
 30
0.0
  0
VERTEX
  5
3E3
330
3D6
100
AcDbEntity
  8
0
100
AcDbVertex
100
AcDb2dVertex
 10
156.4533544006459
 20
246.0204093480289
 30
0.0
  0
VERTEX
  5
3E4
330
3D6
100
AcDbEntity
  8
0
100
AcDbVertex
100
AcDb2dVertex
 10
152.1232273817237
 20
243.5204093480289
 30
0.0
  0
VERTEX
  5
3E5
330
3D6
100
AcDbEntity
  8
0
100
AcDbVertex
100
AcDb2dVertex
 10
140.1194488653355
 20
264.3115636212169
 30
0.0
  0
SEQEND
  5
3E6
330
3D6
100
AcDbEntity
  8
0
  0
POLYLINE
  5
3E7
330
1F
100
AcDbEntity
  8
0
100
AcDb2dPolyline
 66
     1
 10
0.0
 20
0.0
 30
0.0
 70
     1
  0
VERTEX
  5
3E8
330
3E7
100
AcDbEntity
  8
0
100
AcDbVertex
100
AcDb2dVertex
 10
135.81889569282
 20
220.0265003993655
 30
0.0
  0
VERTEX
  5
3E9
330
3E7
100
AcDbEntity
  8
0
100
AcDbVertex
100
AcDb2dVertex
 10
135.81889569282
 20
225.0265003993655
 30
0.0
  0
VERTEX
  5
3EA
330
3E7
100
AcDbEntity
  8
0
100
AcDbVertex
100
AcDb2dVertex
 10
132.21889569282
 20
225.0265003993655
 30
0.0
  0
VERTEX
  5
3EB
330
3E7
100
AcDbEntity
  8
0
100
AcDbVertex
100
AcDb2dVertex
 10
132.21889569282
 20
220.0265003993655
 30
0.0
  0
VERTEX
  5
3EC
330
3E7
100
AcDbEntity
  8
0
100
AcDbVertex
100
AcDb2dVertex
 10
108.2113386600438
 20
220.0265003993655
 30
0.0
  0
VERTEX
  5
3ED
330
3E7
100
AcDbEntity
  8
0
100
AcDbVertex
100
AcDb2dVertex
 10
120.2151171764319
 20
240.8176546725535
 30
0.0
  0
VERTEX
  5
3EE
330
3E7
100
AcDbEntity
  8
0
100
AcDbVertex
100
AcDb2dVertex
 10
124.5452441953541
 20
238.3176546725535
 30
0.0
  0
VERTEX
  5
3EF
330
3E7
100
AcDbEntity
  8
0
100
AcDbVertex
100
AcDb2dVertex
 10
126.3452441953541
 20
241.4353461261775
 30
0.0
  0
VERTEX
  5
3F0
330
3E7
100
AcDbEntity
  8
0
100
AcDbVertex
100
AcDb2dVertex
 10
122.0151171764319
 20
243.9353461261775
 30
0.0
  0
VERTEX
  5
3F1
330
3E7
100
AcDbEntity
  8
0
100
AcDbVertex
100
AcDb2dVertex
 10
134.01889569282
 20
264.7265003993655
 30
0.0
  0
VERTEX
  5
3F2
330
3E7
100
AcDbEntity
  8
0
100
AcDbVertex
100
AcDb2dVertex
 10
146.0226742092082
 20
243.9353461261775
 30
0.0
  0
VERTEX
  5
3F3
330
3E7
100
AcDbEntity
  8
0
100
AcDbVertex
100
AcDb2dVertex
 10
141.6925471902859
 20
241.4353461261775
 30
0.0
  0
VERTEX
  5
3F4
330
3E7
100
AcDbEntity
  8
0
100
AcDbVertex
100
AcDb2dVertex
 10
143.492547190286
 20
238.3176546725535
 30
0.0
  0
VERTEX
  5
3F5
330
3E7
100
AcDbEntity
  8
0
100
AcDbVertex
100
AcDb2dVertex
 10
147.8226742092082
 20
240.8176546725535
 30
0.0
  0
VERTEX
  5
3F6
330
3E7
100
AcDbEntity
  8
0
100
AcDbVertex
100
AcDb2dVertex
 10
159.8264527255963
 20
220.0265003993655
 30
0.0
  0
SEQEND
  5
3F7
330
3E7
100
AcDbEntity
  8
0
  0
POLYLINE
  5
3F8
330
1F
100
AcDbEntity
  8
0
100
AcDb2dPolyline
 66
     1
 10
0.0
 20
0.0
 30
0.0
 70
     1
  0
VERTEX
  5
3F9
330
3F8
100
AcDbEntity
  8
0
100
AcDbVertex
100
AcDb2dVertex
 10
100.1014003352874
 20
264.3115636212169
 30
0.0
  0
VERTEX
  5
3FA
330
3F8
100
AcDbEntity
  8
0
100
AcDbVertex
100
AcDb2dVertex
 10
100.1014003352874
 20
259.3115636212169
 30
0.0
  0
VERTEX
  5
3FB
330
3F8
100
AcDbEntity
  8
0
100
AcDbVertex
100
AcDb2dVertex
 10
103.7014003352874
 20
259.3115636212169
 30
0.0
  0
VERTEX
  5
3FC
330
3F8
100
AcDbEntity
  8
0
100
AcDbVertex
100
AcDb2dVertex
 10
103.7014003352874
 20
264.3115636212169
 30
0.0
  0
VERTEX
  5
3FD
330
3F8
100
AcDbEntity
  8
0
100
AcDbVertex
100
AcDb2dVertex
 10
127.7089573680636
 20
264.3115636212169
 30
0.0
  0
VERTEX
  5
3FE
330
3F8
100
AcDbEntity
  8
0
100
AcDbVertex
100
AcDb2dVertex
 10
115.7051788516756
 20
243.5204093480289
 30
0.0
  0
VERTEX
  5
3FF
330
3F8
100
AcDbEntity
  8
0
100
AcDbVertex
100
AcDb2dVertex
 10
111.3750518327533
 20
246.0204093480289
 30
0.0
  0
VERTEX
  5
400
330
3F8
100
AcDbEntity
  8
0
100
AcDbVertex
100
AcDb2dVertex
 10
109.5750518327533
 20
242.9027178944049
 30
0.0
  0
VERTEX
  5
401
330
3F8
100
AcDbEntity
  8
0
100
AcDbVertex
100
AcDb2dVertex
 10
113.9051788516755
 20
240.4027178944049
 30
0.0
  0
VERTEX
  5
402
330
3F8
100
AcDbEntity
  8
0
100
AcDbVertex
100
AcDb2dVertex
 10
101.9014003352874
 20
219.6115636212169
 30
0.0
  0
VERTEX
  5
403
330
3F8
100
AcDbEntity
  8
0
100
AcDbVertex
100
AcDb2dVertex
 10
89.89762181889927
 20
240.4027178944049
 30
0.0
  0
VERTEX
  5
404
330
3F8
100
AcDbEntity
  8
0
100
AcDbVertex
100
AcDb2dVertex
 10
94.22774883782148
 20
242.9027178944049
 30
0.0
  0
VERTEX
  5
405
330
3F8
100
AcDbEntity
  8
0
100
AcDbVertex
100
AcDb2dVertex
 10
92.42774883782147
 20
246.0204093480289
 30
0.0
  0
VERTEX
  5
406
330
3F8
100
AcDbEntity
  8
0
100
AcDbVertex
100
AcDb2dVertex
 10
88.09762181889926
 20
243.5204093480289
 30
0.0
  0
VERTEX
  5
407
330
3F8
100
AcDbEntity
  8
0
100
AcDbVertex
100
AcDb2dVertex
 10
76.09384330251112
 20
264.3115636212169
 30
0.0
  0
SEQEND
  5
408
330
3F8
100
AcDbEntity
  8
0
  0
POLYLINE
  5
409
330
1F
100
AcDbEntity
  8
0
100
AcDb2dPolyline
 66
     1
 10
0.0
 20
0.0
 30
0.0
 70
     1
  0
VERTEX
  5
40A
330
409
100
AcDbEntity
  8
0
100
AcDbVertex
100
AcDb2dVertex
 10
71.79329012999563
 20
220.0265003993655
 30
0.0
  0
VERTEX
  5
40B
330
409
100
AcDbEntity
  8
0
100
AcDbVertex
100
AcDb2dVertex
 10
71.79329012999563
 20
225.0265003993655
 30
0.0
  0
VERTEX
  5
40C
330
409
100
AcDbEntity
  8
0
100
AcDbVertex
100
AcDb2dVertex
 10
68.1932901299956
 20
225.0265003993655
 30
0.0
  0
VERTEX
  5
40D
330
409
100
AcDbEntity
  8
0
100
AcDbVertex
100
AcDb2dVertex
 10
68.1932901299956
 20
220.0265003993655
 30
0.0
  0
VERTEX
  5
40E
330
409
100
AcDbEntity
  8
0
100
AcDbVertex
100
AcDb2dVertex
 10
44.18573309721938
 20
220.0265003993655
 30
0.0
  0
VERTEX
  5
40F
330
409
100
AcDbEntity
  8
0
100
AcDbVertex
100
AcDb2dVertex
 10
56.18951161360746
 20
240.8176546725535
 30
0.0
  0
VERTEX
  5
410
330
409
100
AcDbEntity
  8
0
100
AcDbVertex
100
AcDb2dVertex
 10
60.51963863252968
 20
238.3176546725535
 30
0.0
  0
VERTEX
  5
411
330
409
100
AcDbEntity
  8
0
100
AcDbVertex
100
AcDb2dVertex
 10
62.31963863252969
 20
241.4353461261775
 30
0.0
  0
VERTEX
  5
412
330
409
100
AcDbEntity
  8
0
100
AcDbVertex
100
AcDb2dVertex
 10
57.98951161360748
 20
243.9353461261775
 30
0.0
  0
VERTEX
  5
413
330
409
100
AcDbEntity
  8
0
100
AcDbVertex
100
AcDb2dVertex
 10
69.99329012999561
 20
264.7265003993655
 30
0.0
  0
VERTEX
  5
414
330
409
100
AcDbEntity
  8
0
100
AcDbVertex
100
AcDb2dVertex
 10
81.99706864638375
 20
243.9353461261775
 30
0.0
  0
VERTEX
  5
415
330
409
100
AcDbEntity
  8
0
100
AcDbVertex
100
AcDb2dVertex
 10
77.66694162746154
 20
241.4353461261775
 30
0.0
  0
VERTEX
  5
416
330
409
100
AcDbEntity
  8
0
100
AcDbVertex
100
AcDb2dVertex
 10
79.46694162746155
 20
238.3176546725535
 30
0.0
  0
VERTEX
  5
417
330
409
100
AcDbEntity
  8
0
100
AcDbVertex
100
AcDb2dVertex
 10
83.79706864638376
 20
240.8176546725535
 30
0.0
  0
VERTEX
  5
418
330
409
100
AcDbEntity
  8
0
100
AcDbVertex
100
AcDb2dVertex
 10
95.8008471627719
 20
220.0265003993655
 30
0.0
  0
SEQEND
  5
419
330
409
100
AcDbEntity
  8
0
  0
POLYLINE
  5
41A
330
1F
100
AcDbEntity
  8
0
100
AcDb2dPolyline
 66
     1
 10
0.0
 20
0.0
 30
0.0
 70
     1
  0
VERTEX
  5
41B
330
41A
100
AcDbEntity
  8
0
100
AcDbVertex
100
AcDb2dVertex
 10
36.07579477246298
 20
264.3115636212169
 30
0.0
  0
VERTEX
  5
41C
330
41A
100
AcDbEntity
  8
0
100
AcDbVertex
100
AcDb2dVertex
 10
36.07579477246298
 20
259.3115636212169
 30
0.0
  0
VERTEX
  5
41D
330
41A
100
AcDbEntity
  8
0
100
AcDbVertex
100
AcDb2dVertex
 10
39.67579477246301
 20
259.3115636212169
 30
0.0
  0
VERTEX
  5
41E
330
41A
100
AcDbEntity
  8
0
100
AcDbVertex
100
AcDb2dVertex
 10
39.67579477246301
 20
264.3115636212169
 30
0.0
  0
VERTEX
  5
41F
330
41A
100
AcDbEntity
  8
0
100
AcDbVertex
100
AcDb2dVertex
 10
63.68335180523923
 20
264.3115636212169
 30
0.0
  0
VERTEX
  5
420
330
41A
100
AcDbEntity
  8
0
100
AcDbVertex
100
AcDb2dVertex
 10
51.67957328885115
 20
243.5204093480289
 30
0.0
  0
VERTEX
  5
421
330
41A
100
AcDbEntity
  8
0
100
AcDbVertex
100
AcDb2dVertex
 10
47.34944626992893
 20
246.0204093480289
 30
0.0
  0
VERTEX
  5
422
330
41A
100
AcDbEntity
  8
0
100
AcDbVertex
100
AcDb2dVertex
 10
45.54944626992892
 20
242.9027178944049
 30
0.0
  0
VERTEX
  5
423
330
41A
100
AcDbEntity
  8
0
100
AcDbVertex
100
AcDb2dVertex
 10
49.87957328885113
 20
240.4027178944049
 30
0.0
  0
VERTEX
  5
424
330
41A
100
AcDbEntity
  8
0
100
AcDbVertex
100
AcDb2dVertex
 10
37.875794772463
 20
219.6115636212169
 30
0.0
  0
VERTEX
  5
425
330
41A
100
AcDbEntity
  8
0
100
AcDbVertex
100
AcDb2dVertex
 10
25.87201625607486
 20
240.4027178944049
 30
0.0
  0
VERTEX
  5
426
330
41A
100
AcDbEntity
  8
0
100
AcDbVertex
100
AcDb2dVertex
 10
30.20214327499707
 20
242.9027178944049
 30
0.0
  0
VERTEX
  5
427
330
41A
100
AcDbEntity
  8
0
100
AcDbVertex
100
AcDb2dVertex
 10
28.40214327499706
 20
246.0204093480289
 30
0.0
  0
VERTEX
  5
428
330
41A
100
AcDbEntity
  8
0
100
AcDbVertex
100
AcDb2dVertex
 10
24.07201625607485
 20
243.5204093480289
 30
0.0
  0
VERTEX
  5
429
330
41A
100
AcDbEntity
  8
0
100
AcDbVertex
100
AcDb2dVertex
 10
12.06823773968671
 20
264.3115636212169
 30
0.0
  0
SEQEND
  5
42A
330
41A
100
AcDbEntity
  8
0
  0
POLYLINE
  5
42B
330
1F
100
AcDbEntity
  8
0
100
AcDb2dPolyline
 66
     1
 10
0.0
 20
0.0
 30
0.0
 70
     1
  0
VERTEX
  5
42C
330
42B
100
AcDbEntity
  8
0
100
AcDbVertex
100
AcDb2dVertex
 10
7.767684567171216
 20
220.0265003993655
 30
0.0
  0
VERTEX
  5
42D
330
42B
100
AcDbEntity
  8
0
100
AcDbVertex
100
AcDb2dVertex
 10
7.767684567171216
 20
225.0265003993655
 30
0.0
  0
VERTEX
  5
42E
330
42B
100
AcDbEntity
  8
0
100
AcDbVertex
100
AcDb2dVertex
 10
4.167684567171193
 20
225.0265003993655
 30
0.0
  0
VERTEX
  5
42F
330
42B
100
AcDbEntity
  8
0
100
AcDbVertex
100
AcDb2dVertex
 10
4.167684567171193
 20
220.0265003993655
 30
0.0
  0
VERTEX
  5
430
330
42B
100
AcDbEntity
  8
0
100
AcDbVertex
100
AcDb2dVertex
 10
-19.83987246560503
 20
220.0265003993655
 30
0.0
  0
VERTEX
  5
431
330
42B
100
AcDbEntity
  8
0
100
AcDbVertex
100
AcDb2dVertex
 10
-7.836093949216945
 20
240.8176546725535
 30
0.0
  0
VERTEX
  5
432
330
42B
100
AcDbEntity
  8
0
100
AcDbVertex
100
AcDb2dVertex
 10
-3.505966930294733
 20
238.3176546725535
 30
0.0
  0
VERTEX
  5
433
330
42B
100
AcDbEntity
  8
0
100
AcDbVertex
100
AcDb2dVertex
 10
-1.705966930294721
 20
241.4353461261775
 30
0.0
  0
VERTEX
  5
434
330
42B
100
AcDbEntity
  8
0
100
AcDbVertex
100
AcDb2dVertex
 10
-6.036093949216934
 20
243.9353461261775
 30
0.0
  0
VERTEX
  5
435
330
42B
100
AcDbEntity
  8
0
100
AcDbVertex
100
AcDb2dVertex
 10
5.967684567171204
 20
264.7265003993655
 30
0.0
  0
VERTEX
  5
436
330
42B
100
AcDbEntity
  8
0
100
AcDbVertex
100
AcDb2dVertex
 10
17.97146308355934
 20
243.9353461261775
 30
0.0
  0
VERTEX
  5
437
330
42B
100
AcDbEntity
  8
0
100
AcDbVertex
100
AcDb2dVertex
 10
13.64133606463713
 20
241.4353461261775
 30
0.0
  0
VERTEX
  5
438
330
42B
100
AcDbEntity
  8
0
100
AcDbVertex
100
AcDb2dVertex
 10
15.44133606463714
 20
238.3176546725535
 30
0.0
  0
VERTEX
  5
439
330
42B
100
AcDbEntity
  8
0
100
AcDbVertex
100
AcDb2dVertex
 10
19.77146308355935
 20
240.8176546725535
 30
0.0
  0
VERTEX
  5
43A
330
42B
100
AcDbEntity
  8
0
100
AcDbVertex
100
AcDb2dVertex
 10
31.77524159994749
 20
220.0265003993655
 30
0.0
  0
SEQEND
  5
43B
330
42B
100
AcDbEntity
  8
0
  0
POLYLINE
  5
43C
330
1F
100
AcDbEntity
  8
0
100
AcDb2dPolyline
 66
     1
 10
0.0
 20
0.0
 30
0.0
 70
     1
  0
VERTEX
  5
43D
330
43C
100
AcDbEntity
  8
0
100
AcDbVertex
100
AcDb2dVertex
 10
-27.94981079036143
 20
264.3115636212169
 30
0.0
  0
VERTEX
  5
43E
330
43C
100
AcDbEntity
  8
0
100
AcDbVertex
100
AcDb2dVertex
 10
-27.94981079036143
 20
259.3115636212169
 30
0.0
  0
VERTEX
  5
43F
330
43C
100
AcDbEntity
  8
0
100
AcDbVertex
100
AcDb2dVertex
 10
-24.3498107903614
 20
259.3115636212169
 30
0.0
  0
VERTEX
  5
440
330
43C
100
AcDbEntity
  8
0
100
AcDbVertex
100
AcDb2dVertex
 10
-24.3498107903614
 20
264.3115636212169
 30
0.0
  0
VERTEX
  5
441
330
43C
100
AcDbEntity
  8
0
100
AcDbVertex
100
AcDb2dVertex
 10
-0.3422537575851834
 20
264.3115636212169
 30
0.0
  0
VERTEX
  5
442
330
43C
100
AcDbEntity
  8
0
100
AcDbVertex
100
AcDb2dVertex
 10
-12.34603227397326
 20
243.5204093480289
 30
0.0
  0
VERTEX
  5
443
330
43C
100
AcDbEntity
  8
0
100
AcDbVertex
100
AcDb2dVertex
 10
-16.67615929289548
 20
246.0204093480289
 30
0.0
  0
VERTEX
  5
444
330
43C
100
AcDbEntity
  8
0
100
AcDbVertex
100
AcDb2dVertex
 10
-18.47615929289549
 20
242.9027178944049
 30
0.0
  0
VERTEX
  5
445
330
43C
100
AcDbEntity
  8
0
100
AcDbVertex
100
AcDb2dVertex
 10
-14.14603227397328
 20
240.4027178944049
 30
0.0
  0
VERTEX
  5
446
330
43C
100
AcDbEntity
  8
0
100
AcDbVertex
100
AcDb2dVertex
 10
-26.14981079036141
 20
219.6115636212169
 30
0.0
  0
VERTEX
  5
447
330
43C
100
AcDbEntity
  8
0
100
AcDbVertex
100
AcDb2dVertex
 10
-38.15358930674955
 20
240.4027178944049
 30
0.0
  0
VERTEX
  5
448
330
43C
100
AcDbEntity
  8
0
100
AcDbVertex
100
AcDb2dVertex
 10
-33.82346228782734
 20
242.9027178944049
 30
0.0
  0
VERTEX
  5
449
330
43C
100
AcDbEntity
  8
0
100
AcDbVertex
100
AcDb2dVertex
 10
-35.62346228782735
 20
246.0204093480289
 30
0.0
  0
VERTEX
  5
44A
330
43C
100
AcDbEntity
  8
0
100
AcDbVertex
100
AcDb2dVertex
 10
-39.95358930674956
 20
243.5204093480289
 30
0.0
  0
VERTEX
  5
44B
330
43C
100
AcDbEntity
  8
0
100
AcDbVertex
100
AcDb2dVertex
 10
-51.9573678231377
 20
264.3115636212169
 30
0.0
  0
SEQEND
  5
44C
330
43C
100
AcDbEntity
  8
0
  0
POLYLINE
  5
44D
330
1F
100
AcDbEntity
  8
0
100
AcDb2dPolyline
 66
     1
 10
0.0
 20
0.0
 30
0.0
 70
     1
  0
VERTEX
  5
44E
330
44D
100
AcDbEntity
  8
0
100
AcDbVertex
100
AcDb2dVertex
 10
-56.25792099565319
 20
220.0265003993655
 30
0.0
  0
VERTEX
  5
44F
330
44D
100
AcDbEntity
  8
0
100
AcDbVertex
100
AcDb2dVertex
 10
-56.25792099565319
 20
225.0265003993655
 30
0.0
  0
VERTEX
  5
450
330
44D
100
AcDbEntity
  8
0
100
AcDbVertex
100
AcDb2dVertex
 10
-59.85792099565322
 20
225.0265003993655
 30
0.0
  0
VERTEX
  5
451
330
44D
100
AcDbEntity
  8
0
100
AcDbVertex
100
AcDb2dVertex
 10
-59.85792099565322
 20
220.0265003993655
 30
0.0
  0
VERTEX
  5
452
330
44D
100
AcDbEntity
  8
0
100
AcDbVertex
100
AcDb2dVertex
 10
-83.86547802842944
 20
220.0265003993655
 30
0.0
  0
VERTEX
  5
453
330
44D
100
AcDbEntity
  8
0
100
AcDbVertex
100
AcDb2dVertex
 10
-71.86169951204135
 20
240.8176546725535
 30
0.0
  0
VERTEX
  5
454
330
44D
100
AcDbEntity
  8
0
100
AcDbVertex
100
AcDb2dVertex
 10
-67.53157249311914
 20
238.3176546725535
 30
0.0
  0
VERTEX
  5
455
330
44D
100
AcDbEntity
  8
0
100
AcDbVertex
100
AcDb2dVertex
 10
-65.73157249311913
 20
241.4353461261775
 30
0.0
  0
VERTEX
  5
456
330
44D
100
AcDbEntity
  8
0
100
AcDbVertex
100
AcDb2dVertex
 10
-70.06169951204134
 20
243.9353461261775
 30
0.0
  0
VERTEX
  5
457
330
44D
100
AcDbEntity
  8
0
100
AcDbVertex
100
AcDb2dVertex
 10
-58.05792099565321
 20
264.7265003993655
 30
0.0
  0
VERTEX
  5
458
330
44D
100
AcDbEntity
  8
0
100
AcDbVertex
100
AcDb2dVertex
 10
-46.05414247926507
 20
243.9353461261775
 30
0.0
  0
VERTEX
  5
459
330
44D
100
AcDbEntity
  8
0
100
AcDbVertex
100
AcDb2dVertex
 10
-50.38426949818728
 20
241.4353461261775
 30
0.0
  0
VERTEX
  5
45A
330
44D
100
AcDbEntity
  8
0
100
AcDbVertex
100
AcDb2dVertex
 10
-48.58426949818727
 20
238.3176546725535
 30
0.0
  0
VERTEX
  5
45B
330
44D
100
AcDbEntity
  8
0
100
AcDbVertex
100
AcDb2dVertex
 10
-44.25414247926506
 20
240.8176546725535
 30
0.0
  0
VERTEX
  5
45C
330
44D
100
AcDbEntity
  8
0
100
AcDbVertex
100
AcDb2dVertex
 10
-32.25036396287692
 20
220.0265003993655
 30
0.0
  0
SEQEND
  5
45D
330
44D
100
AcDbEntity
  8
0
  0
POLYLINE
  5
45E
330
1F
100
AcDbEntity
  8
0
100
AcDb2dPolyline
 66
     1
 10
0.0
 20
0.0
 30
0.0
 70
     1
  0
VERTEX
  5
45F
330
45E
100
AcDbEntity
  8
0
100
AcDbVertex
100
AcDb2dVertex
 10
-91.97541635318584
 20
264.3115636212169
 30
0.0
  0
VERTEX
  5
460
330
45E
100
AcDbEntity
  8
0
100
AcDbVertex
100
AcDb2dVertex
 10
-91.97541635318584
 20
259.3115636212169
 30
0.0
  0
VERTEX
  5
461
330
45E
100
AcDbEntity
  8
0
100
AcDbVertex
100
AcDb2dVertex
 10
-88.37541635318581
 20
259.3115636212169
 30
0.0
  0
VERTEX
  5
462
330
45E
100
AcDbEntity
  8
0
100
AcDbVertex
100
AcDb2dVertex
 10
-88.37541635318581
 20
264.3115636212169
 30
0.0
  0
VERTEX
  5
463
330
45E
100
AcDbEntity
  8
0
100
AcDbVertex
100
AcDb2dVertex
 10
-64.3678593204096
 20
264.3115636212169
 30
0.0
  0
VERTEX
  5
464
330
45E
100
AcDbEntity
  8
0
100
AcDbVertex
100
AcDb2dVertex
 10
-76.37163783679767
 20
243.5204093480289
 30
0.0
  0
VERTEX
  5
465
330
45E
100
AcDbEntity
  8
0
100
AcDbVertex
100
AcDb2dVertex
 10
-80.70176485571989
 20
246.0204093480289
 30
0.0
  0
VERTEX
  5
466
330
45E
100
AcDbEntity
  8
0
100
AcDbVertex
100
AcDb2dVertex
 10
-82.5017648557199
 20
242.9027178944049
 30
0.0
  0
VERTEX
  5
467
330
45E
100
AcDbEntity
  8
0
100
AcDbVertex
100
AcDb2dVertex
 10
-78.17163783679769
 20
240.4027178944049
 30
0.0
  0
VERTEX
  5
468
330
45E
100
AcDbEntity
  8
0
100
AcDbVertex
100
AcDb2dVertex
 10
-90.17541635318582
 20
219.6115636212169
 30
0.0
  0
VERTEX
  5
469
330
45E
100
AcDbEntity
  8
0
100
AcDbVertex
100
AcDb2dVertex
 10
-102.179194869574
 20
240.4027178944049
 30
0.0
  0
VERTEX
  5
46A
330
45E
100
AcDbEntity
  8
0
100
AcDbVertex
100
AcDb2dVertex
 10
-97.84906785065175
 20
242.9027178944049
 30
0.0
  0
VERTEX
  5
46B
330
45E
100
AcDbEntity
  8
0
100
AcDbVertex
100
AcDb2dVertex
 10
-99.64906785065176
 20
246.0204093480289
 30
0.0
  0
VERTEX
  5
46C
330
45E
100
AcDbEntity
  8
0
100
AcDbVertex
100
AcDb2dVertex
 10
-103.979194869574
 20
243.5204093480289
 30
0.0
  0
VERTEX
  5
46D
330
45E
100
AcDbEntity
  8
0
100
AcDbVertex
100
AcDb2dVertex
 10
-115.9829733859621
 20
264.3115636212169
 30
0.0
  0
SEQEND
  5
46E
330
45E
100
AcDbEntity
  8
0
  0
POLYLINE
  5
46F
330
1F
100
AcDbEntity
  8
0
100
AcDb2dPolyline
 66
     1
 10
0.0
 20
0.0
 30
0.0
 70
     1
  0
VERTEX
  5
470
330
46F
100
AcDbEntity
  8
0
100
AcDbVertex
100
AcDb2dVertex
 10
-120.2835265584776
 20
220.0265003993655
 30
0.0
  0
VERTEX
  5
471
330
46F
100
AcDbEntity
  8
0
100
AcDbVertex
100
AcDb2dVertex
 10
-120.2835265584776
 20
225.0265003993655
 30
0.0
  0
VERTEX
  5
472
330
46F
100
AcDbEntity
  8
0
100
AcDbVertex
100
AcDb2dVertex
 10
-123.8835265584776
 20
225.0265003993655
 30
0.0
  0
VERTEX
  5
473
330
46F
100
AcDbEntity
  8
0
100
AcDbVertex
100
AcDb2dVertex
 10
-123.8835265584776
 20
220.0265003993655
 30
0.0
  0
VERTEX
  5
474
330
46F
100
AcDbEntity
  8
0
100
AcDbVertex
100
AcDb2dVertex
 10
-147.8910835912538
 20
220.0265003993655
 30
0.0
  0
VERTEX
  5
475
330
46F
100
AcDbEntity
  8
0
100
AcDbVertex
100
AcDb2dVertex
 10
-135.8873050748658
 20
240.8176546725535
 30
0.0
  0
VERTEX
  5
476
330
46F
100
AcDbEntity
  8
0
100
AcDbVertex
100
AcDb2dVertex
 10
-131.5571780559436
 20
238.3176546725535
 30
0.0
  0
VERTEX
  5
477
330
46F
100
AcDbEntity
  8
0
100
AcDbVertex
100
AcDb2dVertex
 10
-129.7571780559435
 20
241.4353461261775
 30
0.0
  0
VERTEX
  5
478
330
46F
100
AcDbEntity
  8
0
100
AcDbVertex
100
AcDb2dVertex
 10
-134.0873050748658
 20
243.9353461261775
 30
0.0
  0
VERTEX
  5
479
330
46F
100
AcDbEntity
  8
0
100
AcDbVertex
100
AcDb2dVertex
 10
-122.0835265584776
 20
264.7265003993655
 30
0.0
  0
VERTEX
  5
47A
330
46F
100
AcDbEntity
  8
0
100
AcDbVertex
100
AcDb2dVertex
 10
-110.0797480420895
 20
243.9353461261775
 30
0.0
  0
VERTEX
  5
47B
330
46F
100
AcDbEntity
  8
0
100
AcDbVertex
100
AcDb2dVertex
 10
-114.4098750610117
 20
241.4353461261775
 30
0.0
  0
VERTEX
  5
47C
330
46F
100
AcDbEntity
  8
0
100
AcDbVertex
100
AcDb2dVertex
 10
-112.6098750610117
 20
238.3176546725535
 30
0.0
  0
VERTEX
  5
47D
330
46F
100
AcDbEntity
  8
0
100
AcDbVertex
100
AcDb2dVertex
 10
-108.2797480420895
 20
240.8176546725535
 30
0.0
  0
VERTEX
  5
47E
330
46F
100
AcDbEntity
  8
0
100
AcDbVertex
100
AcDb2dVertex
 10
-96.27596952570133
 20
220.0265003993655
 30
0.0
  0
SEQEND
  5
47F
330
46F
100
AcDbEntity
  8
0
  0
POLYLINE
  5
480
330
1F
100
AcDbEntity
  8
0
100
AcDb2dPolyline
 66
     1
 10
0.0
 20
0.0
 30
0.0
 70
     1
  0
VERTEX
  5
481
330
480
100
AcDbEntity
  8
0
100
AcDbVertex
100
AcDb2dVertex
 10
-156.0010219160102
 20
264.3115636212169
 30
0.0
  0
VERTEX
  5
482
330
480
100
AcDbEntity
  8
0
100
AcDbVertex
100
AcDb2dVertex
 10
-156.0010219160102
 20
259.3115636212169
 30
0.0
  0
VERTEX
  5
483
330
480
100
AcDbEntity
  8
0
100
AcDbVertex
100
AcDb2dVertex
 10
-152.4010219160102
 20
259.3115636212169
 30
0.0
  0
VERTEX
  5
484
330
480
100
AcDbEntity
  8
0
100
AcDbVertex
100
AcDb2dVertex
 10
-152.4010219160102
 20
264.3115636212169
 30
0.0
  0
VERTEX
  5
485
330
480
100
AcDbEntity
  8
0
100
AcDbVertex
100
AcDb2dVertex
 10
-128.393464883234
 20
264.3115636212169
 30
0.0
  0
VERTEX
  5
486
330
480
100
AcDbEntity
  8
0
100
AcDbVertex
100
AcDb2dVertex
 10
-140.3972433996221
 20
243.5204093480289
 30
0.0
  0
VERTEX
  5
487
330
480
100
AcDbEntity
  8
0
100
AcDbVertex
100
AcDb2dVertex
 10
-144.7273704185443
 20
246.0204093480289
 30
0.0
  0
VERTEX
  5
488
330
480
100
AcDbEntity
  8
0
100
AcDbVertex
100
AcDb2dVertex
 10
-146.5273704185443
 20
242.9027178944049
 30
0.0
  0
VERTEX
  5
489
330
480
100
AcDbEntity
  8
0
100
AcDbVertex
100
AcDb2dVertex
 10
-142.1972433996221
 20
240.4027178944049
 30
0.0
  0
VERTEX
  5
48A
330
480
100
AcDbEntity
  8
0
100
AcDbVertex
100
AcDb2dVertex
 10
-154.2010219160102
 20
219.6115636212169
 30
0.0
  0
VERTEX
  5
48B
330
480
100
AcDbEntity
  8
0
100
AcDbVertex
100
AcDb2dVertex
 10
-166.2048004323984
 20
240.4027178944049
 30
0.0
  0
VERTEX
  5
48C
330
480
100
AcDbEntity
  8
0
100
AcDbVertex
100
AcDb2dVertex
 10
-161.8746734134762
 20
242.9027178944049
 30
0.0
  0
VERTEX
  5
48D
330
480
100
AcDbEntity
  8
0
100
AcDbVertex
100
AcDb2dVertex
 10
-163.6746734134762
 20
246.0204093480289
 30
0.0
  0
VERTEX
  5
48E
330
480
100
AcDbEntity
  8
0
100
AcDbVertex
100
AcDb2dVertex
 10
-168.0048004323984
 20
243.5204093480289
 30
0.0
  0
VERTEX
  5
48F
330
480
100
AcDbEntity
  8
0
100
AcDbVertex
100
AcDb2dVertex
 10
-180.0085789487865
 20
264.3115636212169
 30
0.0
  0
SEQEND
  5
490
330
480
100
AcDbEntity
  8
0
  0
POLYLINE
  5
491
330
1F
100
AcDbEntity
  8
0
100
AcDb2dPolyline
 66
     1
 10
0.0
 20
0.0
 30
0.0
 70
     1
  0
VERTEX
  5
492
330
491
100
AcDbEntity
  8
0
100
AcDbVertex
100
AcDb2dVertex
 10
-184.309132121302
 20
220.0265003993655
 30
0.0
  0
VERTEX
  5
493
330
491
100
AcDbEntity
  8
0
100
AcDbVertex
100
AcDb2dVertex
 10
-184.309132121302
 20
225.0265003993655
 30
0.0
  0
VERTEX
  5
494
330
491
100
AcDbEntity
  8
0
100
AcDbVertex
100
AcDb2dVertex
 10
-187.909132121302
 20
225.0265003993655
 30
0.0
  0
VERTEX
  5
495
330
491
100
AcDbEntity
  8
0
100
AcDbVertex
100
AcDb2dVertex
 10
-187.909132121302
 20
220.0265003993655
 30
0.0
  0
VERTEX
  5
496
330
491
100
AcDbEntity
  8
0
100
AcDbVertex
100
AcDb2dVertex
 10
-211.9166891540783
 20
220.0265003993655
 30
0.0
  0
VERTEX
  5
497
330
491
100
AcDbEntity
  8
0
100
AcDbVertex
100
AcDb2dVertex
 10
-199.9129106376902
 20
240.8176546725535
 30
0.0
  0
VERTEX
  5
498
330
491
100
AcDbEntity
  8
0
100
AcDbVertex
100
AcDb2dVertex
 10
-195.582783618768
 20
238.3176546725535
 30
0.0
  0
VERTEX
  5
499
330
491
100
AcDbEntity
  8
0
100
AcDbVertex
100
AcDb2dVertex
 10
-193.782783618768
 20
241.4353461261775
 30
0.0
  0
VERTEX
  5
49A
330
491
100
AcDbEntity
  8
0
100
AcDbVertex
100
AcDb2dVertex
 10
-198.1129106376902
 20
243.9353461261775
 30
0.0
  0
VERTEX
  5
49B
330
491
100
AcDbEntity
  8
0
100
AcDbVertex
100
AcDb2dVertex
 10
-186.109132121302
 20
264.7265003993655
 30
0.0
  0
VERTEX
  5
49C
330
491
100
AcDbEntity
  8
0
100
AcDbVertex
100
AcDb2dVertex
 10
-174.1053536049139
 20
243.9353461261775
 30
0.0
  0
VERTEX
  5
49D
330
491
100
AcDbEntity
  8
0
100
AcDbVertex
100
AcDb2dVertex
 10
-178.4354806238361
 20
241.4353461261775
 30
0.0
  0
VERTEX
  5
49E
330
491
100
AcDbEntity
  8
0
100
AcDbVertex
100
AcDb2dVertex
 10
-176.6354806238361
 20
238.3176546725535
 30
0.0
  0
VERTEX
  5
49F
330
491
100
AcDbEntity
  8
0
100
AcDbVertex
100
AcDb2dVertex
 10
-172.3053536049139
 20
240.8176546725535
 30
0.0
  0
VERTEX
  5
4A0
330
491
100
AcDbEntity
  8
0
100
AcDbVertex
100
AcDb2dVertex
 10
-160.3015750885257
 20
220.0265003993655
 30
0.0
  0
SEQEND
  5
4A1
330
491
100
AcDbEntity
  8
0
  0
POLYLINE
  5
4A2
330
1F
100
AcDbEntity
  8
0
100
AcDb2dPolyline
 66
     1
 10
0.0
 20
0.0
 30
0.0
 70
     1
  0
VERTEX
  5
4A3
330
4A2
100
AcDbEntity
  8
0
100
AcDbVertex
100
AcDb2dVertex
 10
-220.0266274788347
 20
264.3115636212169
 30
0.0
  0
VERTEX
  5
4A4
330
4A2
100
AcDbEntity
  8
0
100
AcDbVertex
100
AcDb2dVertex
 10
-220.0266274788347
 20
259.3115636212169
 30
0.0
  0
VERTEX
  5
4A5
330
4A2
100
AcDbEntity
  8
0
100
AcDbVertex
100
AcDb2dVertex
 10
-216.4266274788346
 20
259.3115636212169
 30
0.0
  0
VERTEX
  5
4A6
330
4A2
100
AcDbEntity
  8
0
100
AcDbVertex
100
AcDb2dVertex
 10
-216.4266274788346
 20
264.3115636212169
 30
0.0
  0
VERTEX
  5
4A7
330
4A2
100
AcDbEntity
  8
0
100
AcDbVertex
100
AcDb2dVertex
 10
-192.4190704460584
 20
264.3115636212169
 30
0.0
  0
VERTEX
  5
4A8
330
4A2
100
AcDbEntity
  8
0
100
AcDbVertex
100
AcDb2dVertex
 10
-204.4228489624465
 20
243.5204093480289
 30
0.0
  0
VERTEX
  5
4A9
330
4A2
100
AcDbEntity
  8
0
100
AcDbVertex
100
AcDb2dVertex
 10
-208.7529759813687
 20
246.0204093480289
 30
0.0
  0
VERTEX
  5
4AA
330
4A2
100
AcDbEntity
  8
0
100
AcDbVertex
100
AcDb2dVertex
 10
-210.5529759813687
 20
242.9027178944049
 30
0.0
  0
VERTEX
  5
4AB
330
4A2
100
AcDbEntity
  8
0
100
AcDbVertex
100
AcDb2dVertex
 10
-206.2228489624465
 20
240.4027178944049
 30
0.0
  0
VERTEX
  5
4AC
330
4A2
100
AcDbEntity
  8
0
100
AcDbVertex
100
AcDb2dVertex
 10
-218.2266274788346
 20
219.6115636212169
 30
0.0
  0
VERTEX
  5
4AD
330
4A2
100
AcDbEntity
  8
0
100
AcDbVertex
100
AcDb2dVertex
 10
-230.2304059952228
 20
240.4027178944049
 30
0.0
  0
VERTEX
  5
4AE
330
4A2
100
AcDbEntity
  8
0
100
AcDbVertex
100
AcDb2dVertex
 10
-225.9002789763006
 20
242.9027178944049
 30
0.0
  0
VERTEX
  5
4AF
330
4A2
100
AcDbEntity
  8
0
100
AcDbVertex
100
AcDb2dVertex
 10
-227.7002789763006
 20
246.0204093480289
 30
0.0
  0
VERTEX
  5
4B0
330
4A2
100
AcDbEntity
  8
0
100
AcDbVertex
100
AcDb2dVertex
 10
-232.0304059952228
 20
243.5204093480289
 30
0.0
  0
VERTEX
  5
4B1
330
4A2
100
AcDbEntity
  8
0
100
AcDbVertex
100
AcDb2dVertex
 10
-244.0341845116109
 20
264.3115636212169
 30
0.0
  0
SEQEND
  5
4B2
330
4A2
100
AcDbEntity
  8
0
  0
POLYLINE
  5
4B3
330
1F
100
AcDbEntity
  8
0
100
AcDb2dPolyline
 66
     1
 10
0.0
 20
0.0
 30
0.0
 70
     1
  0
VERTEX
  5
4B4
330
4B3
100
AcDbEntity
  8
0
100
AcDbVertex
100
AcDb2dVertex
 10
-248.3347376841264
 20
220.0265003993655
 30
0.0
  0
VERTEX
  5
4B5
330
4B3
100
AcDbEntity
  8
0
100
AcDbVertex
100
AcDb2dVertex
 10
-248.3347376841264
 20
225.0265003993655
 30
0.0
  0
VERTEX
  5
4B6
330
4B3
100
AcDbEntity
  8
0
100
AcDbVertex
100
AcDb2dVertex
 10
-251.9347376841264
 20
225.0265003993655
 30
0.0
  0
VERTEX
  5
4B7
330
4B3
100
AcDbEntity
  8
0
100
AcDbVertex
100
AcDb2dVertex
 10
-251.9347376841264
 20
220.0265003993655
 30
0.0
  0
VERTEX
  5
4B8
330
4B3
100
AcDbEntity
  8
0
100
AcDbVertex
100
AcDb2dVertex
 10
-275.9422947169027
 20
220.0265003993655
 30
0.0
  0
VERTEX
  5
4B9
330
4B3
100
AcDbEntity
  8
0
100
AcDbVertex
100
AcDb2dVertex
 10
-263.9385162005146
 20
240.8176546725535
 30
0.0
  0
VERTEX
  5
4BA
330
4B3
100
AcDbEntity
  8
0
100
AcDbVertex
100
AcDb2dVertex
 10
-259.6083891815924
 20
238.3176546725535
 30
0.0
  0
VERTEX
  5
4BB
330
4B3
100
AcDbEntity
  8
0
100
AcDbVertex
100
AcDb2dVertex
 10
-257.8083891815924
 20
241.4353461261775
 30
0.0
  0
VERTEX
  5
4BC
330
4B3
100
AcDbEntity
  8
0
100
AcDbVertex
100
AcDb2dVertex
 10
-262.1385162005146
 20
243.9353461261775
 30
0.0
  0
VERTEX
  5
4BD
330
4B3
100
AcDbEntity
  8
0
100
AcDbVertex
100
AcDb2dVertex
 10
-250.1347376841264
 20
264.7265003993655
 30
0.0
  0
VERTEX
  5
4BE
330
4B3
100
AcDbEntity
  8
0
100
AcDbVertex
100
AcDb2dVertex
 10
-238.1309591677383
 20
243.9353461261775
 30
0.0
  0
VERTEX
  5
4BF
330
4B3
100
AcDbEntity
  8
0
100
AcDbVertex
100
AcDb2dVertex
 10
-242.4610861866605
 20
241.4353461261775
 30
0.0
  0
VERTEX
  5
4C0
330
4B3
100
AcDbEntity
  8
0
100
AcDbVertex
100
AcDb2dVertex
 10
-240.6610861866605
 20
238.3176546725535
 30
0.0
  0
VERTEX
  5
4C1
330
4B3
100
AcDbEntity
  8
0
100
AcDbVertex
100
AcDb2dVertex
 10
-236.3309591677383
 20
240.8176546725535
 30
0.0
  0
VERTEX
  5
4C2
330
4B3
100
AcDbEntity
  8
0
100
AcDbVertex
100
AcDb2dVertex
 10
-224.3271806513501
 20
220.0265003993655
 30
0.0
  0
SEQEND
  5
4C3
330
4B3
100
AcDbEntity
  8
0
  0
POLYLINE
  5
4C4
330
1F
100
AcDbEntity
  8
0
100
AcDb2dPolyline
 66
     1
 10
0.0
 20
0.0
 30
0.0
 70
     1
  0
VERTEX
  5
4C5
330
4C4
100
AcDbEntity
  8
0
100
AcDbVertex
100
AcDb2dVertex
 10
-284.0522330416591
 20
264.3115636212169
 30
0.0
  0
VERTEX
  5
4C6
330
4C4
100
AcDbEntity
  8
0
100
AcDbVertex
100
AcDb2dVertex
 10
-284.0522330416591
 20
259.3115636212169
 30
0.0
  0
VERTEX
  5
4C7
330
4C4
100
AcDbEntity
  8
0
100
AcDbVertex
100
AcDb2dVertex
 10
-280.452233041659
 20
259.3115636212169
 30
0.0
  0
VERTEX
  5
4C8
330
4C4
100
AcDbEntity
  8
0
100
AcDbVertex
100
AcDb2dVertex
 10
-280.452233041659
 20
264.3115636212169
 30
0.0
  0
VERTEX
  5
4C9
330
4C4
100
AcDbEntity
  8
0
100
AcDbVertex
100
AcDb2dVertex
 10
-256.4446760088828
 20
264.3115636212169
 30
0.0
  0
VERTEX
  5
4CA
330
4C4
100
AcDbEntity
  8
0
100
AcDbVertex
100
AcDb2dVertex
 10
-268.4484545252709
 20
243.5204093480289
 30
0.0
  0
VERTEX
  5
4CB
330
4C4
100
AcDbEntity
  8
0
100
AcDbVertex
100
AcDb2dVertex
 10
-272.7785815441931
 20
246.0204093480289
 30
0.0
  0
VERTEX
  5
4CC
330
4C4
100
AcDbEntity
  8
0
100
AcDbVertex
100
AcDb2dVertex
 10
-274.5785815441931
 20
242.9027178944049
 30
0.0
  0
VERTEX
  5
4CD
330
4C4
100
AcDbEntity
  8
0
100
AcDbVertex
100
AcDb2dVertex
 10
-270.2484545252709
 20
240.4027178944049
 30
0.0
  0
VERTEX
  5
4CE
330
4C4
100
AcDbEntity
  8
0
100
AcDbVertex
100
AcDb2dVertex
 10
-282.2522330416591
 20
219.6115636212169
 30
0.0
  0
VERTEX
  5
4CF
330
4C4
100
AcDbEntity
  8
0
100
AcDbVertex
100
AcDb2dVertex
 10
-294.2560115580472
 20
240.4027178944049
 30
0.0
  0
VERTEX
  5
4D0
330
4C4
100
AcDbEntity
  8
0
100
AcDbVertex
100
AcDb2dVertex
 10
-289.925884539125
 20
242.9027178944049
 30
0.0
  0
VERTEX
  5
4D1
330
4C4
100
AcDbEntity
  8
0
100
AcDbVertex
100
AcDb2dVertex
 10
-291.725884539125
 20
246.0204093480289
 30
0.0
  0
VERTEX
  5
4D2
330
4C4
100
AcDbEntity
  8
0
100
AcDbVertex
100
AcDb2dVertex
 10
-296.0560115580472
 20
243.5204093480289
 30
0.0
  0
VERTEX
  5
4D3
330
4C4
100
AcDbEntity
  8
0
100
AcDbVertex
100
AcDb2dVertex
 10
-308.0597900744353
 20
264.3115636212169
 30
0.0
  0
SEQEND
  5
4D4
330
4C4
100
AcDbEntity
  8
0
  0
POLYLINE
  5
4D5
330
1F
100
AcDbEntity
  8
0
100
AcDb2dPolyline
 66
     1
 10
0.0
 20
0.0
 30
0.0
 70
     1
  0
VERTEX
  5
4D6
330
4D5
100
AcDbEntity
  8
0
100
AcDbVertex
100
AcDb2dVertex
 10
-312.3603432469508
 20
220.0265003993655
 30
0.0
  0
VERTEX
  5
4D7
330
4D5
100
AcDbEntity
  8
0
100
AcDbVertex
100
AcDb2dVertex
 10
-312.3603432469508
 20
225.0265003993655
 30
0.0
  0
VERTEX
  5
4D8
330
4D5
100
AcDbEntity
  8
0
100
AcDbVertex
100
AcDb2dVertex
 10
-315.9603432469509
 20
225.0265003993655
 30
0.0
  0
VERTEX
  5
4D9
330
4D5
100
AcDbEntity
  8
0
100
AcDbVertex
100
AcDb2dVertex
 10
-315.9603432469509
 20
220.0265003993655
 30
0.0
  0
VERTEX
  5
4DA
330
4D5
100
AcDbEntity
  8
0
100
AcDbVertex
100
AcDb2dVertex
 10
-339.9679002797271
 20
220.0265003993655
 30
0.0
  0
VERTEX
  5
4DB
330
4D5
100
AcDbEntity
  8
0
100
AcDbVertex
100
AcDb2dVertex
 10
-327.964121763339
 20
240.8176546725535
 30
0.0
  0
VERTEX
  5
4DC
330
4D5
100
AcDbEntity
  8
0
100
AcDbVertex
100
AcDb2dVertex
 10
-323.6339947444168
 20
238.3176546725535
 30
0.0
  0
VERTEX
  5
4DD
330
4D5
100
AcDbEntity
  8
0
100
AcDbVertex
100
AcDb2dVertex
 10
-321.8339947444168
 20
241.4353461261775
 30
0.0
  0
VERTEX
  5
4DE
330
4D5
100
AcDbEntity
  8
0
100
AcDbVertex
100
AcDb2dVertex
 10
-326.164121763339
 20
243.9353461261775
 30
0.0
  0
VERTEX
  5
4DF
330
4D5
100
AcDbEntity
  8
0
100
AcDbVertex
100
AcDb2dVertex
 10
-314.1603432469508
 20
264.7265003993655
 30
0.0
  0
VERTEX
  5
4E0
330
4D5
100
AcDbEntity
  8
0
100
AcDbVertex
100
AcDb2dVertex
 10
-302.1565647305627
 20
243.9353461261775
 30
0.0
  0
VERTEX
  5
4E1
330
4D5
100
AcDbEntity
  8
0
100
AcDbVertex
100
AcDb2dVertex
 10
-306.4866917494849
 20
241.4353461261775
 30
0.0
  0
VERTEX
  5
4E2
330
4D5
100
AcDbEntity
  8
0
100
AcDbVertex
100
AcDb2dVertex
 10
-304.6866917494849
 20
238.3176546725535
 30
0.0
  0
VERTEX
  5
4E3
330
4D5
100
AcDbEntity
  8
0
100
AcDbVertex
100
AcDb2dVertex
 10
-300.3565647305627
 20
240.8176546725535
 30
0.0
  0
VERTEX
  5
4E4
330
4D5
100
AcDbEntity
  8
0
100
AcDbVertex
100
AcDb2dVertex
 10
-288.3527862141746
 20
220.0265003993655
 30
0.0
  0
SEQEND
  5
4E5
330
4D5
100
AcDbEntity
  8
0
  0
POLYLINE
  5
4E6
330
1F
100
AcDbEntity
  8
0
100
AcDb2dPolyline
 66
     1
 10
0.0
 20
0.0
 30
0.0
 70
     1
  0
VERTEX
  5
4E7
330
4E6
100
AcDbEntity
  8
0
100
AcDbVertex
100
AcDb2dVertex
 10
-348.0778386044835
 20
264.3115636212169
 30
0.0
  0
VERTEX
  5
4E8
330
4E6
100
AcDbEntity
  8
0
100
AcDbVertex
100
AcDb2dVertex
 10
-348.0778386044835
 20
259.3115636212169
 30
0.0
  0
VERTEX
  5
4E9
330
4E6
100
AcDbEntity
  8
0
100
AcDbVertex
100
AcDb2dVertex
 10
-344.4778386044835
 20
259.3115636212169
 30
0.0
  0
VERTEX
  5
4EA
330
4E6
100
AcDbEntity
  8
0
100
AcDbVertex
100
AcDb2dVertex
 10
-344.4778386044835
 20
264.3115636212169
 30
0.0
  0
VERTEX
  5
4EB
330
4E6
100
AcDbEntity
  8
0
100
AcDbVertex
100
AcDb2dVertex
 10
-320.4702815717072
 20
264.3115636212169
 30
0.0
  0
VERTEX
  5
4EC
330
4E6
100
AcDbEntity
  8
0
100
AcDbVertex
100
AcDb2dVertex
 10
-332.4740600880953
 20
243.5204093480289
 30
0.0
  0
VERTEX
  5
4ED
330
4E6
100
AcDbEntity
  8
0
100
AcDbVertex
100
AcDb2dVertex
 10
-336.8041871070175
 20
246.0204093480289
 30
0.0
  0
VERTEX
  5
4EE
330
4E6
100
AcDbEntity
  8
0
100
AcDbVertex
100
AcDb2dVertex
 10
-338.6041871070175
 20
242.9027178944049
 30
0.0
  0
VERTEX
  5
4EF
330
4E6
100
AcDbEntity
  8
0
100
AcDbVertex
100
AcDb2dVertex
 10
-334.2740600880953
 20
240.4027178944049
 30
0.0
  0
VERTEX
  5
4F0
330
4E6
100
AcDbEntity
  8
0
100
AcDbVertex
100
AcDb2dVertex
 10
-346.2778386044835
 20
219.6115636212169
 30
0.0
  0
VERTEX
  5
4F1
330
4E6
100
AcDbEntity
  8
0
100
AcDbVertex
100
AcDb2dVertex
 10
-358.2816171208716
 20
240.4027178944049
 30
0.0
  0
VERTEX
  5
4F2
330
4E6
100
AcDbEntity
  8
0
100
AcDbVertex
100
AcDb2dVertex
 10
-353.9514901019494
 20
242.9027178944049
 30
0.0
  0
VERTEX
  5
4F3
330
4E6
100
AcDbEntity
  8
0
100
AcDbVertex
100
AcDb2dVertex
 10
-355.7514901019494
 20
246.0204093480289
 30
0.0
  0
VERTEX
  5
4F4
330
4E6
100
AcDbEntity
  8
0
100
AcDbVertex
100
AcDb2dVertex
 10
-360.0816171208716
 20
243.5204093480289
 30
0.0
  0
VERTEX
  5
4F5
330
4E6
100
AcDbEntity
  8
0
100
AcDbVertex
100
AcDb2dVertex
 10
-372.0853956372598
 20
264.3115636212169
 30
0.0
  0
SEQEND
  5
4F6
330
4E6
100
AcDbEntity
  8
0
  0
POLYLINE
  5
4F7
330
1F
100
AcDbEntity
  8
0
100
AcDb2dPolyline
 66
     1
 10
0.0
 20
0.0
 30
0.0
 70
     1
  0
VERTEX
  5
4F8
330
4F7
100
AcDbEntity
  8
0
100
AcDbVertex
100
AcDb2dVertex
 10
-376.3859488097752
 20
220.0265003993655
 30
0.0
  0
VERTEX
  5
4F9
330
4F7
100
AcDbEntity
  8
0
100
AcDbVertex
100
AcDb2dVertex
 10
-376.3859488097752
 20
225.0265003993655
 30
0.0
  0
VERTEX
  5
4FA
330
4F7
100
AcDbEntity
  8
0
100
AcDbVertex
100
AcDb2dVertex
 10
-379.9859488097753
 20
225.0265003993655
 30
0.0
  0
VERTEX
  5
4FB
330
4F7
100
AcDbEntity
  8
0
100
AcDbVertex
100
AcDb2dVertex
 10
-379.9859488097753
 20
220.0265003993655
 30
0.0
  0
VERTEX
  5
4FC
330
4F7
100
AcDbEntity
  8
0
100
AcDbVertex
100
AcDb2dVertex
 10
-403.9935058425515
 20
220.0265003993655
 30
0.0
  0
VERTEX
  5
4FD
330
4F7
100
AcDbEntity
  8
0
100
AcDbVertex
100
AcDb2dVertex
 10
-391.9897273261634
 20
240.8176546725535
 30
0.0
  0
VERTEX
  5
4FE
330
4F7
100
AcDbEntity
  8
0
100
AcDbVertex
100
AcDb2dVertex
 10
-387.6596003072412
 20
238.3176546725535
 30
0.0
  0
VERTEX
  5
4FF
330
4F7
100
AcDbEntity
  8
0
100
AcDbVertex
100
AcDb2dVertex
 10
-385.8596003072412
 20
241.4353461261775
 30
0.0
  0
VERTEX
  5
500
330
4F7
100
AcDbEntity
  8
0
100
AcDbVertex
100
AcDb2dVertex
 10
-390.1897273261634
 20
243.9353461261775
 30
0.0
  0
VERTEX
  5
501
330
4F7
100
AcDbEntity
  8
0
100
AcDbVertex
100
AcDb2dVertex
 10
-378.1859488097753
 20
264.7265003993655
 30
0.0
  0
VERTEX
  5
502
330
4F7
100
AcDbEntity
  8
0
100
AcDbVertex
100
AcDb2dVertex
 10
-366.1821702933871
 20
243.9353461261775
 30
0.0
  0
VERTEX
  5
503
330
4F7
100
AcDbEntity
  8
0
100
AcDbVertex
100
AcDb2dVertex
 10
-370.5122973123093
 20
241.4353461261775
 30
0.0
  0
VERTEX
  5
504
330
4F7
100
AcDbEntity
  8
0
100
AcDbVertex
100
AcDb2dVertex
 10
-368.7122973123093
 20
238.3176546725535
 30
0.0
  0
VERTEX
  5
505
330
4F7
100
AcDbEntity
  8
0
100
AcDbVertex
100
AcDb2dVertex
 10
-364.3821702933871
 20
240.8176546725535
 30
0.0
  0
VERTEX
  5
506
330
4F7
100
AcDbEntity
  8
0
100
AcDbVertex
100
AcDb2dVertex
 10
-352.378391776999
 20
220.0265003993655
 30
0.0
  0
SEQEND
  5
507
330
4F7
100
AcDbEntity
  8
0
  0
POLYLINE
  5
508
330
1F
100
AcDbEntity
  8
0
100
AcDb2dPolyline
 66
     1
 10
0.0
 20
0.0
 30
0.0
 70
     1
  0
VERTEX
  5
509
330
508
100
AcDbEntity
  8
0
100
AcDbVertex
100
AcDb2dVertex
 10
-406.6471440047285
 20
84.98859108066053
 30
0.0
  0
VERTEX
  5
50A
330
508
100
AcDbEntity
  8
0
100
AcDbVertex
100
AcDb2dVertex
 10
193.3528559952715
 20
84.98859108066053
 30
0.0
  0
VERTEX
  5
50B
330
508
100
AcDbEntity
  8
0
100
AcDbVertex
100
AcDb2dVertex
 10
193.3528559952715
 20
384.9885910806605
 30
0.0
  0
VERTEX
  5
50C
330
508
100
AcDbEntity
  8
0
100
AcDbVertex
100
AcDb2dVertex
 10
-406.6471440047285
 20
384.9885910806605
 30
0.0
  0
SEQEND
  5
50D
330
508
100
AcDbEntity
  8
0
  0
POLYLINE
  5
50E
330
1F
100
AcDbEntity
  8
0
100
AcDb2dPolyline
 66
     1
 10
0.0
 20
0.0
 30
0.0
 70
     1
  0
VERTEX
  5
50F
330
50E
100
AcDbEntity
  8
0
100
AcDbVertex
100
AcDb2dVertex
 10
-339.1158799800783
 20
277.213547265195
 30
0.0
  0
VERTEX
  5
510
330
50E
100
AcDbEntity
  8
0
100
AcDbVertex
100
AcDb2dVertex
 10
-339.1158799800783
 20
287.213547265195
 30
0.0
  0
VERTEX
  5
511
330
50E
100
AcDbEntity
  8
0
100
AcDbVertex
100
AcDb2dVertex
 10
-321.8158799800783
 20
287.213547265195
 30
0.0
  0
VERTEX
  5
512
330
50E
100
AcDbEntity
  8
0
100
AcDbVertex
100
AcDb2dVertex
 10
-321.8158799800783
 20
277.213547265195
 30
0.0
  0
VERTEX
  5
513
330
50E
100
AcDbEntity
  8
0
100
AcDbVertex
100
AcDb2dVertex
 10
-321.8158799800783
 20
267.063547265195
 30
0.0
  0
VERTEX
  5
514
330
50E
100
AcDbEntity
  8
0
100
AcDbVertex
100
AcDb2dVertex
 10
-402.1158799800783
 20
267.063547265195
 30
0.0
  0
VERTEX
  5
515
330
50E
100
AcDbEntity
  8
0
100
AcDbVertex
100
AcDb2dVertex
 10
-402.1158799800783
 20
277.213547265195
 30
0.0
  0
VERTEX
  5
516
330
50E
100
AcDbEntity
  8
0
100
AcDbVertex
100
AcDb2dVertex
 10
-402.1158799800783
 20
287.213547265195
 30
0.0
  0
VERTEX
  5
517
330
50E
100
AcDbEntity
  8
0
100
AcDbVertex
100
AcDb2dVertex
 10
-384.8158799800783
 20
287.213547265195
 30
0.0
  0
VERTEX
  5
518
330
50E
100
AcDbEntity
  8
0
100
AcDbVertex
100
AcDb2dVertex
 10
-384.8158799800783
 20
277.213547265195
 30
0.0
  0
VERTEX
  5
519
330
50E
100
AcDbEntity
  8
0
100
AcDbVertex
100
AcDb2dVertex
 10
-381.1158799800783
 20
277.213547265195
 30
0.0
  0
VERTEX
  5
51A
330
50E
100
AcDbEntity
  8
0
100
AcDbVertex
100
AcDb2dVertex
 10
-381.1158799800783
 20
287.213547265195
 30
0.0
  0
VERTEX
  5
51B
330
50E
100
AcDbEntity
  8
0
100
AcDbVertex
100
AcDb2dVertex
 10
-363.8158799800783
 20
287.213547265195
 30
0.0
  0
VERTEX
  5
51C
330
50E
100
AcDbEntity
  8
0
100
AcDbVertex
100
AcDb2dVertex
 10
-363.8158799800783
 20
277.213547265195
 30
0.0
  0
VERTEX
  5
51D
330
50E
100
AcDbEntity
  8
0
100
AcDbVertex
100
AcDb2dVertex
 10
-360.1158799800783
 20
277.213547265195
 30
0.0
  0
VERTEX
  5
51E
330
50E
100
AcDbEntity
  8
0
100
AcDbVertex
100
AcDb2dVertex
 10
-360.1158799800783
 20
287.213547265195
 30
0.0
  0
VERTEX
  5
51F
330
50E
100
AcDbEntity
  8
0
100
AcDbVertex
100
AcDb2dVertex
 10
-342.8158799800783
 20
287.213547265195
 30
0.0
  0
VERTEX
  5
520
330
50E
100
AcDbEntity
  8
0
100
AcDbVertex
100
AcDb2dVertex
 10
-342.8158799800783
 20
277.213547265195
 30
0.0
  0
SEQEND
  5
521
330
50E
100
AcDbEntity
  8
0
  0
ARC
  5
522
330
1F
100
AcDbEntity
  8
0
100
AcDbCircle
 10
-136.2515676322151
 20
336.2331674434236
 30
0.0
 40
20.15
210
0.0
220
0.0
230
-1.0
100
AcDbArc
 50
140.4013820540219
 51
219.6901776161641
  0
POLYLINE
  5
523
330
1F
100
AcDbEntity
  8
0
100
AcDb2dPolyline
 66
     1
 10
0.0
 20
0.0
 30
0.0
  0
VERTEX
  5
524
330
523
100
AcDbEntity
  8
0
100
AcDbVertex
100
AcDb2dVertex
 10
151.7571749813364
 20
323.3646539032018
 30
0.0
  0
VERTEX
  5
525
330
523
100
AcDbEntity
  8
0
100
AcDbVertex
100
AcDb2dVertex
 10
147.4401507509873
 20
326.3508831744994
 30
0.0
  0
VERTEX
  5
526
330
523
100
AcDbEntity
  8
0
100
AcDbVertex
100
AcDb2dVertex
 10
145.3352555940626
 20
323.3079542600561
 30
0.0
  0
VERTEX
  5
527
330
523
100
AcDbEntity
  8
0
100
AcDbVertex
100
AcDb2dVertex
 10
149.09528651698
 20
320.7070157885822
 30
0.0
  0
SEQEND
  5
528
330
523
100
AcDbEntity
  8
0
  0
ARC
  5
529
330
1F
100
AcDbEntity
  8
0
100
AcDbCircle
 10
-136.2515676322151
 20
336.2331674434236
 30
0.0
 40
20.15
210
0.0
220
0.0
230
-1.0
100
AcDbArc
 50
230.4013820540218
 51
309.6901776161642
  0
POLYLINE
  5
52A
330
1F
100
AcDbEntity
  8
0
100
AcDb2dPolyline
 66
     1
 10
0.0
 20
0.0
 30
0.0
  0
VERTEX
  5
52B
330
52A
100
AcDbEntity
  8
0
100
AcDbVertex
100
AcDb2dVertex
 10
123.3830540919932
 20
320.7275600943022
 30
0.0
  0
VERTEX
  5
52C
330
52A
100
AcDbEntity
  8
0
100
AcDbVertex
100
AcDb2dVertex
 10
126.3692833632909
 20
325.0445843246514
 30
0.0
  0
VERTEX
  5
52D
330
52A
100
AcDbEntity
  8
0
100
AcDbVertex
100
AcDb2dVertex
 10
123.3263544488476
 20
327.1494794815761
 30
0.0
  0
VERTEX
  5
52E
330
52A
100
AcDbEntity
  8
0
100
AcDbVertex
100
AcDb2dVertex
 10
120.7254159773737
 20
323.3894485586587
 30
0.0
  0
SEQEND
  5
52F
330
52A
100
AcDbEntity
  8
0
  0
ARC
  5
530
330
1F
100
AcDbEntity
  8
0
100
AcDbCircle
 10
-136.2515676322151
 20
336.2331674434236
 30
0.0
 40
20.15
210
0.0
220
0.0
230
-1.0
100
AcDbArc
 50
320.4013820540219
 51
39.69017761616409
  0
POLYLINE
  5
531
330
1F
100
AcDbEntity
  8
0
100
AcDb2dPolyline
 66
     1
 10
0.0
 20
0.0
 30
0.0
  0
VERTEX
  5
532
330
531
100
AcDbEntity
  8
0
100
AcDbVertex
100
AcDb2dVertex
 10
120.7459602830937
 20
349.1016809836455
 30
0.0
  0
VERTEX
  5
533
330
531
100
AcDbEntity
  8
0
100
AcDbVertex
100
AcDb2dVertex
 10
125.0629845134429
 20
346.1154517123478
 30
0.0
  0
VERTEX
  5
534
330
531
100
AcDbEntity
  8
0
100
AcDbVertex
100
AcDb2dVertex
 10
127.1678796703676
 20
349.158380626791
 30
0.0
  0
VERTEX
  5
535
330
531
100
AcDbEntity
  8
0
100
AcDbVertex
100
AcDb2dVertex
 10
123.4078487474502
 20
351.7593190982649
 30
0.0
  0
SEQEND
  5
536
330
531
100
AcDbEntity
  8
0
  0
ARC
  5
537
330
1F
100
AcDbEntity
  8
0
100
AcDbCircle
 10
-136.2515676322151
 20
336.2331674434236
 30
0.0
 40
20.15
210
0.0
220
0.0
230
-1.0
100
AcDbArc
 50
50.40138205402177
 51
129.6901776161641
  0
POLYLINE
  5
538
330
1F
100
AcDbEntity
  8
0
100
AcDb2dPolyline
 66
     1
 10
0.0
 20
0.0
 30
0.0
  0
VERTEX
  5
539
330
538
100
AcDbEntity
  8
0
100
AcDbVertex
100
AcDb2dVertex
 10
149.1200811724369
 20
351.738774792545
 30
0.0
  0
VERTEX
  5
53A
330
538
100
AcDbEntity
  8
0
100
AcDbVertex
100
AcDb2dVertex
 10
146.1338519011393
 20
347.4217505621958
 30
0.0
  0
VERTEX
  5
53B
330
538
100
AcDbEntity
  8
0
100
AcDbVertex
100
AcDb2dVertex
 10
149.1767808155826
 20
345.3168554052711
 30
0.0
  0
VERTEX
  5
53C
330
538
100
AcDbEntity
  8
0
100
AcDbVertex
100
AcDb2dVertex
 10
151.7777192870565
 20
349.0768863281885
 30
0.0
  0
SEQEND
  5
53D
330
538
100
AcDbEntity
  8
0
  0
ARC
  5
53E
330
1F
100
AcDbEntity
  8
0
100
AcDbCircle
 10
136.2515676322151
 20
336.2331674434236
 30
0.0
 40
40.15
100
AcDbArc
 50
92.6409647633901
 51
177.3590352366101
  0
POLYLINE
  5
53F
330
1F
100
AcDbEntity
  8
0
100
AcDb2dPolyline
 66
     1
 10
0.0
 20
0.0
 30
0.0
  0
VERTEX
  5
540
330
53F
100
AcDbEntity
  8
0
100
AcDbVertex
100
AcDb2dVertex
 10
96.1442116984216
 20
338.0831674434236
 30
0.0
  0
VERTEX
  5
541
330
53F
100
AcDbEntity
  8
0
100
AcDbVertex
100
AcDb2dVertex
 10
106.1015676322151
 20
338.0831674434236
 30
0.0
  0
VERTEX
  5
542
330
53F
100
AcDbEntity
  8
0
100
AcDbVertex
100
AcDb2dVertex
 10
106.1015676322151
 20
334.3831674434236
 30
0.0
  0
VERTEX
  5
543
330
53F
100
AcDbEntity
  8
0
100
AcDbVertex
100
AcDb2dVertex
 10
96.1442116984216
 20
334.3831674434236
 30
0.0
  0
SEQEND
  5
544
330
53F
100
AcDbEntity
  8
0
  0
ARC
  5
545
330
1F
100
AcDbEntity
  8
0
100
AcDbCircle
 10
136.2515676322151
 20
336.2331674434236
 30
0.0
 40
40.15
100
AcDbArc
 50
182.6409647633901
 51
267.3590352366099
  0
POLYLINE
  5
546
330
1F
100
AcDbEntity
  8
0
100
AcDb2dPolyline
 66
     1
 10
0.0
 20
0.0
 30
0.0
  0
VERTEX
  5
547
330
546
100
AcDbEntity
  8
0
100
AcDbVertex
100
AcDb2dVertex
 10
134.4015676322151
 20
296.1258115096301
 30
0.0
  0
VERTEX
  5
548
330
546
100
AcDbEntity
  8
0
100
AcDbVertex
100
AcDb2dVertex
 10
134.4015676322151
 20
306.0831674434236
 30
0.0
  0
VERTEX
  5
549
330
546
100
AcDbEntity
  8
0
100
AcDbVertex
100
AcDb2dVertex
 10
138.1015676322151
 20
306.0831674434236
 30
0.0
  0
VERTEX
  5
54A
330
546
100
AcDbEntity
  8
0
100
AcDbVertex
100
AcDb2dVertex
 10
138.1015676322151
 20
296.1258115096301
 30
0.0
  0
SEQEND
  5
54B
330
546
100
AcDbEntity
  8
0
  0
ARC
  5
54C
330
1F
100
AcDbEntity
  8
0
100
AcDbCircle
 10
136.2515676322151
 20
336.2331674434236
 30
0.0
 40
40.15
100
AcDbArc
 50
272.6409647633901
 51
357.3590352366099
  0
POLYLINE
  5
54D
330
1F
100
AcDbEntity
  8
0
100
AcDb2dPolyline
 66
     1
 10
0.0
 20
0.0
 30
0.0
  0
VERTEX
  5
54E
330
54D
100
AcDbEntity
  8
0
100
AcDbVertex
100
AcDb2dVertex
 10
176.3589235660086
 20
334.3831674434236
 30
0.0
  0
VERTEX
  5
54F
330
54D
100
AcDbEntity
  8
0
100
AcDbVertex
100
AcDb2dVertex
 10
166.4015676322151
 20
334.3831674434236
 30
0.0
  0
VERTEX
  5
550
330
54D
100
AcDbEntity
  8
0
100
AcDbVertex
100
AcDb2dVertex
 10
166.4015676322151
 20
338.0831674434236
 30
0.0
  0
VERTEX
  5
551
330
54D
100
AcDbEntity
  8
0
100
AcDbVertex
100
AcDb2dVertex
 10
176.3589235660086
 20
338.0831674434236
 30
0.0
  0
SEQEND
  5
552
330
54D
100
AcDbEntity
  8
0
  0
ARC
  5
553
330
1F
100
AcDbEntity
  8
0
100
AcDbCircle
 10
136.2515676322151
 20
336.2331674434236
 30
0.0
 40
40.15
100
AcDbArc
 50
2.640964763390193
 51
87.3590352366099
  0
POLYLINE
  5
554
330
1F
100
AcDbEntity
  8
0
100
AcDb2dPolyline
 66
     1
 10
0.0
 20
0.0
 30
0.0
  0
VERTEX
  5
555
330
554
100
AcDbEntity
  8
0
100
AcDbVertex
100
AcDb2dVertex
 10
138.1015676322151
 20
376.3405233772171
 30
0.0
  0
VERTEX
  5
556
330
554
100
AcDbEntity
  8
0
100
AcDbVertex
100
AcDb2dVertex
 10
138.1015676322151
 20
366.3831674434236
 30
0.0
  0
VERTEX
  5
557
330
554
100
AcDbEntity
  8
0
100
AcDbVertex
100
AcDb2dVertex
 10
134.4015676322151
 20
366.3831674434236
 30
0.0
  0
VERTEX
  5
558
330
554
100
AcDbEntity
  8
0
100
AcDbVertex
100
AcDb2dVertex
 10
134.4015676322151
 20
376.3405233772171
 30
0.0
  0
SEQEND
  5
559
330
554
100
AcDbEntity
  8
0
  0
ARC
  5
55A
330
1F
100
AcDbEntity
  8
0
100
AcDbCircle
 10
-53.62028576595986
 20
336.2087876679855
 30
0.0
 40
20.15
210
0.0
220
0.0
230
-1.0
100
AcDbArc
 50
140.4013820540219
 51
219.6901776161641
  0
POLYLINE
  5
55B
330
1F
100
AcDbEntity
  8
0
100
AcDb2dPolyline
 66
     1
 10
0.0
 20
0.0
 30
0.0
  0
VERTEX
  5
55C
330
55B
100
AcDbEntity
  8
0
100
AcDbVertex
100
AcDb2dVertex
 10
69.12589311508123
 20
323.3402741277636
 30
0.0
  0
VERTEX
  5
55D
330
55B
100
AcDbEntity
  8
0
100
AcDbVertex
100
AcDb2dVertex
 10
64.80886888473208
 20
326.3265033990613
 30
0.0
  0
VERTEX
  5
55E
330
55B
100
AcDbEntity
  8
0
100
AcDbVertex
100
AcDb2dVertex
 10
62.70397372780735
 20
323.283574484618
 30
0.0
  0
VERTEX
  5
55F
330
55B
100
AcDbEntity
  8
0
100
AcDbVertex
100
AcDb2dVertex
 10
66.4640046507248
 20
320.6826360131441
 30
0.0
  0
SEQEND
  5
560
330
55B
100
AcDbEntity
  8
0
  0
ARC
  5
561
330
1F
100
AcDbEntity
  8
0
100
AcDbCircle
 10
-53.62028576595986
 20
336.2087876679855
 30
0.0
 40
20.15
210
0.0
220
0.0
230
-1.0
100
AcDbArc
 50
230.4013820540218
 51
309.6901776161642
  0
POLYLINE
  5
562
330
1F
100
AcDbEntity
  8
0
100
AcDb2dPolyline
 66
     1
 10
0.0
 20
0.0
 30
0.0
  0
VERTEX
  5
563
330
562
100
AcDbEntity
  8
0
100
AcDbVertex
100
AcDb2dVertex
 10
40.75177222573802
 20
320.703180318864
 30
0.0
  0
VERTEX
  5
564
330
562
100
AcDbEntity
  8
0
100
AcDbVertex
100
AcDb2dVertex
 10
43.73800149703567
 20
325.0202045492132
 30
0.0
  0
VERTEX
  5
565
330
562
100
AcDbEntity
  8
0
100
AcDbVertex
100
AcDb2dVertex
 10
40.69507258259239
 20
327.125099706138
 30
0.0
  0
VERTEX
  5
566
330
562
100
AcDbEntity
  8
0
100
AcDbVertex
100
AcDb2dVertex
 10
38.09413411111848
 20
323.3650687832206
 30
0.0
  0
SEQEND
  5
567
330
562
100
AcDbEntity
  8
0
  0
ARC
  5
568
330
1F
100
AcDbEntity
  8
0
100
AcDbCircle
 10
-53.62028576595986
 20
336.2087876679855
 30
0.0
 40
20.15
210
0.0
220
0.0
230
-1.0
100
AcDbArc
 50
320.401382054022
 51
39.69017761616409
  0
POLYLINE
  5
569
330
1F
100
AcDbEntity
  8
0
100
AcDb2dPolyline
 66
     1
 10
0.0
 20
0.0
 30
0.0
  0
VERTEX
  5
56A
330
569
100
AcDbEntity
  8
0
100
AcDbVertex
100
AcDb2dVertex
 10
38.1146784168385
 20
349.0773012082073
 30
0.0
  0
VERTEX
  5
56B
330
569
100
AcDbEntity
  8
0
100
AcDbVertex
100
AcDb2dVertex
 10
42.43170264718765
 20
346.0910719369097
 30
0.0
  0
VERTEX
  5
56C
330
569
100
AcDbEntity
  8
0
100
AcDbVertex
100
AcDb2dVertex
 10
44.53659780411238
 20
349.1340008513529
 30
0.0
  0
VERTEX
  5
56D
330
569
100
AcDbEntity
  8
0
100
AcDbVertex
100
AcDb2dVertex
 10
40.77656688119498
 20
351.7349393228268
 30
0.0
  0
SEQEND
  5
56E
330
569
100
AcDbEntity
  8
0
  0
ARC
  5
56F
330
1F
100
AcDbEntity
  8
0
100
AcDbCircle
 10
-53.62028576595986
 20
336.2087876679855
 30
0.0
 40
20.15
210
0.0
220
0.0
230
-1.0
100
AcDbArc
 50
50.40138205402177
 51
129.6901776161641
  0
POLYLINE
  5
570
330
1F
100
AcDbEntity
  8
0
100
AcDb2dPolyline
 66
     1
 10
0.0
 20
0.0
 30
0.0
  0
VERTEX
  5
571
330
570
100
AcDbEntity
  8
0
100
AcDbVertex
100
AcDb2dVertex
 10
66.4887993061817
 20
351.7143950171068
 30
0.0
  0
VERTEX
  5
572
330
570
100
AcDbEntity
  8
0
100
AcDbVertex
100
AcDb2dVertex
 10
63.50257003488406
 20
347.3973707867577
 30
0.0
  0
VERTEX
  5
573
330
570
100
AcDbEntity
  8
0
100
AcDbVertex
100
AcDb2dVertex
 10
66.54549894932734
 20
345.2924756298329
 30
0.0
  0
VERTEX
  5
574
330
570
100
AcDbEntity
  8
0
100
AcDbVertex
100
AcDb2dVertex
 10
69.14643742080125
 20
349.0525065527503
 30
0.0
  0
SEQEND
  5
575
330
570
100
AcDbEntity
  8
0
  0
ARC
  5
576
330
1F
100
AcDbEntity
  8
0
100
AcDbCircle
 10
53.62028576595986
 20
336.2087876679855
 30
0.0
 40
40.15
100
AcDbArc
 50
92.64096476339013
 51
177.3590352366101
  0
POLYLINE
  5
577
330
1F
100
AcDbEntity
  8
0
100
AcDb2dPolyline
 66
     1
 10
0.0
 20
0.0
 30
0.0
  0
VERTEX
  5
578
330
577
100
AcDbEntity
  8
0
100
AcDbVertex
100
AcDb2dVertex
 10
13.51292983216638
 20
338.0587876679854
 30
0.0
  0
VERTEX
  5
579
330
577
100
AcDbEntity
  8
0
100
AcDbVertex
100
AcDb2dVertex
 10
23.47028576595989
 20
338.0587876679854
 30
0.0
  0
VERTEX
  5
57A
330
577
100
AcDbEntity
  8
0
100
AcDbVertex
100
AcDb2dVertex
 10
23.47028576595989
 20
334.3587876679854
 30
0.0
  0
VERTEX
  5
57B
330
577
100
AcDbEntity
  8
0
100
AcDbVertex
100
AcDb2dVertex
 10
13.51292983216638
 20
334.3587876679854
 30
0.0
  0
SEQEND
  5
57C
330
577
100
AcDbEntity
  8
0
  0
ARC
  5
57D
330
1F
100
AcDbEntity
  8
0
100
AcDbCircle
 10
53.62028576595986
 20
336.2087876679855
 30
0.0
 40
40.15
100
AcDbArc
 50
182.6409647633901
 51
267.3590352366099
  0
POLYLINE
  5
57E
330
1F
100
AcDbEntity
  8
0
100
AcDb2dPolyline
 66
     1
 10
0.0
 20
0.0
 30
0.0
  0
VERTEX
  5
57F
330
57E
100
AcDbEntity
  8
0
100
AcDbVertex
100
AcDb2dVertex
 10
51.7702857659599
 20
296.101431734192
 30
0.0
  0
VERTEX
  5
580
330
57E
100
AcDbEntity
  8
0
100
AcDbVertex
100
AcDb2dVertex
 10
51.7702857659599
 20
306.0587876679855
 30
0.0
  0
VERTEX
  5
581
330
57E
100
AcDbEntity
  8
0
100
AcDbVertex
100
AcDb2dVertex
 10
55.47028576595989
 20
306.0587876679855
 30
0.0
  0
VERTEX
  5
582
330
57E
100
AcDbEntity
  8
0
100
AcDbVertex
100
AcDb2dVertex
 10
55.47028576595989
 20
296.101431734192
 30
0.0
  0
SEQEND
  5
583
330
57E
100
AcDbEntity
  8
0
  0
ARC
  5
584
330
1F
100
AcDbEntity
  8
0
100
AcDbCircle
 10
53.62028576595986
 20
336.2087876679855
 30
0.0
 40
40.15
100
AcDbArc
 50
272.6409647633901
 51
357.3590352366099
  0
POLYLINE
  5
585
330
1F
100
AcDbEntity
  8
0
100
AcDb2dPolyline
 66
     1
 10
0.0
 20
0.0
 30
0.0
  0
VERTEX
  5
586
330
585
100
AcDbEntity
  8
0
100
AcDbVertex
100
AcDb2dVertex
 10
93.72764169975335
 20
334.3587876679855
 30
0.0
  0
VERTEX
  5
587
330
585
100
AcDbEntity
  8
0
100
AcDbVertex
100
AcDb2dVertex
 10
83.77028576595984
 20
334.3587876679855
 30
0.0
  0
VERTEX
  5
588
330
585
100
AcDbEntity
  8
0
100
AcDbVertex
100
AcDb2dVertex
 10
83.77028576595984
 20
338.0587876679855
 30
0.0
  0
VERTEX
  5
589
330
585
100
AcDbEntity
  8
0
100
AcDbVertex
100
AcDb2dVertex
 10
93.72764169975335
 20
338.0587876679855
 30
0.0
  0
SEQEND
  5
58A
330
585
100
AcDbEntity
  8
0
  0
ARC
  5
58B
330
1F
100
AcDbEntity
  8
0
100
AcDbCircle
 10
53.62028576595986
 20
336.2087876679855
 30
0.0
 40
40.15
100
AcDbArc
 50
2.640964763390193
 51
87.35903523660991
  0
POLYLINE
  5
58C
330
1F
100
AcDbEntity
  8
0
100
AcDb2dPolyline
 66
     1
 10
0.0
 20
0.0
 30
0.0
  0
VERTEX
  5
58D
330
58C
100
AcDbEntity
  8
0
100
AcDbVertex
100
AcDb2dVertex
 10
55.47028576595989
 20
376.3161436017789
 30
0.0
  0
VERTEX
  5
58E
330
58C
100
AcDbEntity
  8
0
100
AcDbVertex
100
AcDb2dVertex
 10
55.47028576595983
 20
366.3587876679854
 30
0.0
  0
VERTEX
  5
58F
330
58C
100
AcDbEntity
  8
0
100
AcDbVertex
100
AcDb2dVertex
 10
51.77028576595984
 20
366.3587876679854
 30
0.0
  0
VERTEX
  5
590
330
58C
100
AcDbEntity
  8
0
100
AcDbVertex
100
AcDb2dVertex
 10
51.77028576595984
 20
376.3161436017789
 30
0.0
  0
SEQEND
  5
591
330
58C
100
AcDbEntity
  8
0
  0
ARC
  5
592
330
1F
100
AcDbEntity
  8
0
100
AcDbCircle
 10
28.64228219200464
 20
336.7201737202918
 30
0.0
 40
20.15
210
0.0
220
0.0
230
-1.0
100
AcDbArc
 50
140.4013820540219
 51
219.6901776161641
  0
POLYLINE
  5
593
330
1F
100
AcDbEntity
  8
0
100
AcDb2dPolyline
 66
     1
 10
0.0
 20
0.0
 30
0.0
  0
VERTEX
  5
594
330
593
100
AcDbEntity
  8
0
100
AcDbVertex
100
AcDb2dVertex
 10
-13.13667484288328
 20
323.8516601800699
 30
0.0
  0
VERTEX
  5
595
330
593
100
AcDbEntity
  8
0
100
AcDbVertex
100
AcDb2dVertex
 10
-17.45369907323243
 20
326.8378894513676
 30
0.0
  0
VERTEX
  5
596
330
593
100
AcDbEntity
  8
0
100
AcDbVertex
100
AcDb2dVertex
 10
-19.55859423015715
 20
323.7949605369243
 30
0.0
  0
VERTEX
  5
597
330
593
100
AcDbEntity
  8
0
100
AcDbVertex
100
AcDb2dVertex
 10
-15.7985633072397
 20
321.1940220654504
 30
0.0
  0
SEQEND
  5
598
330
593
100
AcDbEntity
  8
0
  0
ARC
  5
599
330
1F
100
AcDbEntity
  8
0
100
AcDbCircle
 10
28.64228219200464
 20
336.7201737202918
 30
0.0
 40
20.15
210
0.0
220
0.0
230
-1.0
100
AcDbArc
 50
230.4013820540218
 51
309.6901776161642
  0
POLYLINE
  5
59A
330
1F
100
AcDbEntity
  8
0
100
AcDb2dPolyline
 66
     1
 10
0.0
 20
0.0
 30
0.0
  0
VERTEX
  5
59B
330
59A
100
AcDbEntity
  8
0
100
AcDbVertex
100
AcDb2dVertex
 10
-41.51079573222648
 20
321.2145663711703
 30
0.0
  0
VERTEX
  5
59C
330
59A
100
AcDbEntity
  8
0
100
AcDbVertex
100
AcDb2dVertex
 10
-38.52456646092884
 20
325.5315906015196
 30
0.0
  0
VERTEX
  5
59D
330
59A
100
AcDbEntity
  8
0
100
AcDbVertex
100
AcDb2dVertex
 10
-41.56749537537212
 20
327.6364857584443
 30
0.0
  0
VERTEX
  5
59E
330
59A
100
AcDbEntity
  8
0
100
AcDbVertex
100
AcDb2dVertex
 10
-44.16843384684603
 20
323.8764548355269
 30
0.0
  0
SEQEND
  5
59F
330
59A
100
AcDbEntity
  8
0
  0
ARC
  5
5A0
330
1F
100
AcDbEntity
  8
0
100
AcDbCircle
 10
28.64228219200464
 20
336.7201737202918
 30
0.0
 40
20.15
210
0.0
220
0.0
230
-1.0
100
AcDbArc
 50
320.401382054022
 51
39.69017761616409
  0
POLYLINE
  5
5A1
330
1F
100
AcDbEntity
  8
0
100
AcDb2dPolyline
 66
     1
 10
0.0
 20
0.0
 30
0.0
  0
VERTEX
  5
5A2
330
5A1
100
AcDbEntity
  8
0
100
AcDbVertex
100
AcDb2dVertex
 10
-44.14788954112601
 20
349.5886872605136
 30
0.0
  0
VERTEX
  5
5A3
330
5A1
100
AcDbEntity
  8
0
100
AcDbVertex
100
AcDb2dVertex
 10
-39.83086531077686
 20
346.602457989216
 30
0.0
  0
VERTEX
  5
5A4
330
5A1
100
AcDbEntity
  8
0
100
AcDbVertex
100
AcDb2dVertex
 10
-37.72597015385213
 20
349.6453869036592
 30
0.0
  0
VERTEX
  5
5A5
330
5A1
100
AcDbEntity
  8
0
100
AcDbVertex
100
AcDb2dVertex
 10
-41.48600107676953
 20
352.2463253751331
 30
0.0
  0
SEQEND
  5
5A6
330
5A1
100
AcDbEntity
  8
0
  0
ARC
  5
5A7
330
1F
100
AcDbEntity
  8
0
100
AcDbCircle
 10
28.64228219200464
 20
336.7201737202918
 30
0.0
 40
20.15
210
0.0
220
0.0
230
-1.0
100
AcDbArc
 50
50.40138205402177
 51
129.6901776161641
  0
POLYLINE
  5
5A8
330
1F
100
AcDbEntity
  8
0
100
AcDb2dPolyline
 66
     1
 10
0.0
 20
0.0
 30
0.0
  0
VERTEX
  5
5A9
330
5A8
100
AcDbEntity
  8
0
100
AcDbVertex
100
AcDb2dVertex
 10
-15.7737686517828
 20
352.2257810694131
 30
0.0
  0
VERTEX
  5
5AA
330
5A8
100
AcDbEntity
  8
0
100
AcDbVertex
100
AcDb2dVertex
 10
-18.75999792308045
 20
347.908756839064
 30
0.0
  0
VERTEX
  5
5AB
330
5A8
100
AcDbEntity
  8
0
100
AcDbVertex
100
AcDb2dVertex
 10
-15.71706900863717
 20
345.8038616821393
 30
0.0
  0
VERTEX
  5
5AC
330
5A8
100
AcDbEntity
  8
0
100
AcDbVertex
100
AcDb2dVertex
 10
-13.11613053716326
 20
349.5638926050567
 30
0.0
  0
SEQEND
  5
5AD
330
5A8
100
AcDbEntity
  8
0
  0
ARC
  5
5AE
330
1F
100
AcDbEntity
  8
0
100
AcDbCircle
 10
-28.64228219200464
 20
336.7201737202918
 30
0.0
 40
40.15
100
AcDbArc
 50
92.64096476339013
 51
177.3590352366101
  0
POLYLINE
  5
5AF
330
1F
100
AcDbEntity
  8
0
100
AcDb2dPolyline
 66
     1
 10
0.0
 20
0.0
 30
0.0
  0
VERTEX
  5
5B0
330
5AF
100
AcDbEntity
  8
0
100
AcDbVertex
100
AcDb2dVertex
 10
-68.74963812579813
 20
338.5701737202917
 30
0.0
  0
VERTEX
  5
5B1
330
5AF
100
AcDbEntity
  8
0
100
AcDbVertex
100
AcDb2dVertex
 10
-58.79228219200462
 20
338.5701737202917
 30
0.0
  0
VERTEX
  5
5B2
330
5AF
100
AcDbEntity
  8
0
100
AcDbVertex
100
AcDb2dVertex
 10
-58.79228219200462
 20
334.8701737202917
 30
0.0
  0
VERTEX
  5
5B3
330
5AF
100
AcDbEntity
  8
0
100
AcDbVertex
100
AcDb2dVertex
 10
-68.74963812579813
 20
334.8701737202917
 30
0.0
  0
SEQEND
  5
5B4
330
5AF
100
AcDbEntity
  8
0
  0
ARC
  5
5B5
330
1F
100
AcDbEntity
  8
0
100
AcDbCircle
 10
-28.64228219200464
 20
336.7201737202918
 30
0.0
 40
40.15
100
AcDbArc
 50
182.6409647633901
 51
267.3590352366099
  0
POLYLINE
  5
5B6
330
1F
100
AcDbEntity
  8
0
100
AcDb2dPolyline
 66
     1
 10
0.0
 20
0.0
 30
0.0
  0
VERTEX
  5
5B7
330
5B6
100
AcDbEntity
  8
0
100
AcDbVertex
100
AcDb2dVertex
 10
-30.49228219200461
 20
296.6128177864983
 30
0.0
  0
VERTEX
  5
5B8
330
5B6
100
AcDbEntity
  8
0
100
AcDbVertex
100
AcDb2dVertex
 10
-30.49228219200461
 20
306.5701737202918
 30
0.0
  0
VERTEX
  5
5B9
330
5B6
100
AcDbEntity
  8
0
100
AcDbVertex
100
AcDb2dVertex
 10
-26.79228219200462
 20
306.5701737202918
 30
0.0
  0
VERTEX
  5
5BA
330
5B6
100
AcDbEntity
  8
0
100
AcDbVertex
100
AcDb2dVertex
 10
-26.79228219200462
 20
296.6128177864983
 30
0.0
  0
SEQEND
  5
5BB
330
5B6
100
AcDbEntity
  8
0
  0
ARC
  5
5BC
330
1F
100
AcDbEntity
  8
0
100
AcDbCircle
 10
-28.64228219200464
 20
336.7201737202918
 30
0.0
 40
40.15
100
AcDbArc
 50
272.6409647633901
 51
357.3590352366099
  0
POLYLINE
  5
5BD
330
1F
100
AcDbEntity
  8
0
100
AcDb2dPolyline
 66
     1
 10
0.0
 20
0.0
 30
0.0
  0
VERTEX
  5
5BE
330
5BD
100
AcDbEntity
  8
0
100
AcDbVertex
100
AcDb2dVertex
 10
11.46507374178884
 20
334.8701737202918
 30
0.0
  0
VERTEX
  5
5BF
330
5BD
100
AcDbEntity
  8
0
100
AcDbVertex
100
AcDb2dVertex
 10
1.507717807995334
 20
334.8701737202918
 30
0.0
  0
VERTEX
  5
5C0
330
5BD
100
AcDbEntity
  8
0
100
AcDbVertex
100
AcDb2dVertex
 10
1.507717807995334
 20
338.5701737202918
 30
0.0
  0
VERTEX
  5
5C1
330
5BD
100
AcDbEntity
  8
0
100
AcDbVertex
100
AcDb2dVertex
 10
11.46507374178884
 20
338.5701737202918
 30
0.0
  0
SEQEND
  5
5C2
330
5BD
100
AcDbEntity
  8
0
  0
ARC
  5
5C3
330
1F
100
AcDbEntity
  8
0
100
AcDbCircle
 10
-28.64228219200464
 20
336.7201737202918
 30
0.0
 40
40.15
100
AcDbArc
 50
2.640964763390193
 51
87.35903523660991
  0
POLYLINE
  5
5C4
330
1F
100
AcDbEntity
  8
0
100
AcDb2dPolyline
 66
     1
 10
0.0
 20
0.0
 30
0.0
  0
VERTEX
  5
5C5
330
5C4
100
AcDbEntity
  8
0
100
AcDbVertex
100
AcDb2dVertex
 10
-26.79228219200462
 20
376.8275296540853
 30
0.0
  0
VERTEX
  5
5C6
330
5C4
100
AcDbEntity
  8
0
100
AcDbVertex
100
AcDb2dVertex
 10
-26.79228219200468
 20
366.8701737202917
 30
0.0
  0
VERTEX
  5
5C7
330
5C4
100
AcDbEntity
  8
0
100
AcDbVertex
100
AcDb2dVertex
 10
-30.49228219200467
 20
366.8701737202917
 30
0.0
  0
VERTEX
  5
5C8
330
5C4
100
AcDbEntity
  8
0
100
AcDbVertex
100
AcDb2dVertex
 10
-30.49228219200467
 20
376.8275296540853
 30
0.0
  0
SEQEND
  5
5C9
330
5C4
100
AcDbEntity
  8
0
  0
ARC
  5
5CA
330
1F
100
AcDbEntity
  8
0
100
AcDbCircle
 10
110.3572286887679
 20
336.3291287163024
 30
0.0
 40
20.15
210
0.0
220
0.0
230
-1.0
100
AcDbArc
 50
140.4013820540219
 51
219.6901776161641
  0
POLYLINE
  5
5CB
330
1F
100
AcDbEntity
  8
0
100
AcDb2dPolyline
 66
     1
 10
0.0
 20
0.0
 30
0.0
  0
VERTEX
  5
5CC
330
5CB
100
AcDbEntity
  8
0
100
AcDbVertex
100
AcDb2dVertex
 10
-94.8516213396465
 20
323.4606151760805
 30
0.0
  0
VERTEX
  5
5CD
330
5CB
100
AcDbEntity
  8
0
100
AcDbVertex
100
AcDb2dVertex
 10
-99.16864556999565
 20
326.4468444473782
 30
0.0
  0
VERTEX
  5
5CE
330
5CB
100
AcDbEntity
  8
0
100
AcDbVertex
100
AcDb2dVertex
 10
-101.2735407269204
 20
323.4039155329349
 30
0.0
  0
VERTEX
  5
5CF
330
5CB
100
AcDbEntity
  8
0
100
AcDbVertex
100
AcDb2dVertex
 10
-97.51350980400292
 20
320.802977061461
 30
0.0
  0
SEQEND
  5
5D0
330
5CB
100
AcDbEntity
  8
0
  0
ARC
  5
5D1
330
1F
100
AcDbEntity
  8
0
100
AcDbCircle
 10
110.3572286887679
 20
336.3291287163024
 30
0.0
 40
20.15
210
0.0
220
0.0
230
-1.0
100
AcDbArc
 50
230.4013820540218
 51
309.6901776161642
  0
POLYLINE
  5
5D2
330
1F
100
AcDbEntity
  8
0
100
AcDb2dPolyline
 66
     1
 10
0.0
 20
0.0
 30
0.0
  0
VERTEX
  5
5D3
330
5D2
100
AcDbEntity
  8
0
100
AcDbVertex
100
AcDb2dVertex
 10
-123.2257422289897
 20
320.8235213671809
 30
0.0
  0
VERTEX
  5
5D4
330
5D2
100
AcDbEntity
  8
0
100
AcDbVertex
100
AcDb2dVertex
 10
-120.2395129576921
 20
325.1405455975301
 30
0.0
  0
VERTEX
  5
5D5
330
5D2
100
AcDbEntity
  8
0
100
AcDbVertex
100
AcDb2dVertex
 10
-123.2824418721353
 20
327.2454407544549
 30
0.0
  0
VERTEX
  5
5D6
330
5D2
100
AcDbEntity
  8
0
100
AcDbVertex
100
AcDb2dVertex
 10
-125.8833803436092
 20
323.4854098315375
 30
0.0
  0
SEQEND
  5
5D7
330
5D2
100
AcDbEntity
  8
0
  0
ARC
  5
5D8
330
1F
100
AcDbEntity
  8
0
100
AcDbCircle
 10
110.3572286887679
 20
336.3291287163024
 30
0.0
 40
20.15
210
0.0
220
0.0
230
-1.0
100
AcDbArc
 50
320.4013820540219
 51
39.69017761616409
  0
POLYLINE
  5
5D9
330
1F
100
AcDbEntity
  8
0
100
AcDb2dPolyline
 66
     1
 10
0.0
 20
0.0
 30
0.0
  0
VERTEX
  5
5DA
330
5D9
100
AcDbEntity
  8
0
100
AcDbVertex
100
AcDb2dVertex
 10
-125.8628360378892
 20
349.1976422565242
 30
0.0
  0
VERTEX
  5
5DB
330
5D9
100
AcDbEntity
  8
0
100
AcDbVertex
100
AcDb2dVertex
 10
-121.5458118075401
 20
346.2114129852266
 30
0.0
  0
VERTEX
  5
5DC
330
5D9
100
AcDbEntity
  8
0
100
AcDbVertex
100
AcDb2dVertex
 10
-119.4409166506153
 20
349.2543418996698
 30
0.0
  0
VERTEX
  5
5DD
330
5D9
100
AcDbEntity
  8
0
100
AcDbVertex
100
AcDb2dVertex
 10
-123.2009475735327
 20
351.8552803711437
 30
0.0
  0
SEQEND
  5
5DE
330
5D9
100
AcDbEntity
  8
0
  0
ARC
  5
5DF
330
1F
100
AcDbEntity
  8
0
100
AcDbCircle
 10
110.3572286887679
 20
336.3291287163024
 30
0.0
 40
20.15
210
0.0
220
0.0
230
-1.0
100
AcDbArc
 50
50.40138205402177
 51
129.6901776161641
  0
POLYLINE
  5
5E0
330
1F
100
AcDbEntity
  8
0
100
AcDb2dPolyline
 66
     1
 10
0.0
 20
0.0
 30
0.0
  0
VERTEX
  5
5E1
330
5E0
100
AcDbEntity
  8
0
100
AcDbVertex
100
AcDb2dVertex
 10
-97.48871514854602
 20
351.8347360654237
 30
0.0
  0
VERTEX
  5
5E2
330
5E0
100
AcDbEntity
  8
0
100
AcDbVertex
100
AcDb2dVertex
 10
-100.4749444198437
 20
347.5177118350746
 30
0.0
  0
VERTEX
  5
5E3
330
5E0
100
AcDbEntity
  8
0
100
AcDbVertex
100
AcDb2dVertex
 10
-97.43201550540039
 20
345.4128166781499
 30
0.0
  0
VERTEX
  5
5E4
330
5E0
100
AcDbEntity
  8
0
100
AcDbVertex
100
AcDb2dVertex
 10
-94.83107703392648
 20
349.1728476010672
 30
0.0
  0
SEQEND
  5
5E5
330
5E0
100
AcDbEntity
  8
0
  0
ARC
  5
5E6
330
1F
100
AcDbEntity
  8
0
100
AcDbCircle
 10
-110.3572286887679
 20
336.3291287163024
 30
0.0
 40
40.15
100
AcDbArc
 50
92.64096476339014
 51
177.3590352366101
  0
POLYLINE
  5
5E7
330
1F
100
AcDbEntity
  8
0
100
AcDb2dPolyline
 66
     1
 10
0.0
 20
0.0
 30
0.0
  0
VERTEX
  5
5E8
330
5E7
100
AcDbEntity
  8
0
100
AcDbVertex
100
AcDb2dVertex
 10
-150.4645846225613
 20
338.1791287163023
 30
0.0
  0
VERTEX
  5
5E9
330
5E7
100
AcDbEntity
  8
0
100
AcDbVertex
100
AcDb2dVertex
 10
-140.5072286887678
 20
338.1791287163023
 30
0.0
  0
VERTEX
  5
5EA
330
5E7
100
AcDbEntity
  8
0
100
AcDbVertex
100
AcDb2dVertex
 10
-140.5072286887678
 20
334.4791287163023
 30
0.0
  0
VERTEX
  5
5EB
330
5E7
100
AcDbEntity
  8
0
100
AcDbVertex
100
AcDb2dVertex
 10
-150.4645846225613
 20
334.4791287163023
 30
0.0
  0
SEQEND
  5
5EC
330
5E7
100
AcDbEntity
  8
0
  0
ARC
  5
5ED
330
1F
100
AcDbEntity
  8
0
100
AcDbCircle
 10
-110.3572286887679
 20
336.3291287163024
 30
0.0
 40
40.15
100
AcDbArc
 50
182.6409647633901
 51
267.3590352366099
  0
POLYLINE
  5
5EE
330
1F
100
AcDbEntity
  8
0
100
AcDb2dPolyline
 66
     1
 10
0.0
 20
0.0
 30
0.0
  0
VERTEX
  5
5EF
330
5EE
100
AcDbEntity
  8
0
100
AcDbVertex
100
AcDb2dVertex
 10
-112.2072286887678
 20
296.2217727825089
 30
0.0
  0
VERTEX
  5
5F0
330
5EE
100
AcDbEntity
  8
0
100
AcDbVertex
100
AcDb2dVertex
 10
-112.2072286887678
 20
306.1791287163024
 30
0.0
  0
VERTEX
  5
5F1
330
5EE
100
AcDbEntity
  8
0
100
AcDbVertex
100
AcDb2dVertex
 10
-108.5072286887678
 20
306.1791287163024
 30
0.0
  0
VERTEX
  5
5F2
330
5EE
100
AcDbEntity
  8
0
100
AcDbVertex
100
AcDb2dVertex
 10
-108.5072286887678
 20
296.2217727825089
 30
0.0
  0
SEQEND
  5
5F3
330
5EE
100
AcDbEntity
  8
0
  0
ARC
  5
5F4
330
1F
100
AcDbEntity
  8
0
100
AcDbCircle
 10
-110.3572286887679
 20
336.3291287163024
 30
0.0
 40
40.15
100
AcDbArc
 50
272.6409647633901
 51
357.3590352366099
  0
POLYLINE
  5
5F5
330
1F
100
AcDbEntity
  8
0
100
AcDb2dPolyline
 66
     1
 10
0.0
 20
0.0
 30
0.0
  0
VERTEX
  5
5F6
330
5F5
100
AcDbEntity
  8
0
100
AcDbVertex
100
AcDb2dVertex
 10
-70.24987275497438
 20
334.4791287163024
 30
0.0
  0
VERTEX
  5
5F7
330
5F5
100
AcDbEntity
  8
0
100
AcDbVertex
100
AcDb2dVertex
 10
-80.20722868876788
 20
334.4791287163024
 30
0.0
  0
VERTEX
  5
5F8
330
5F5
100
AcDbEntity
  8
0
100
AcDbVertex
100
AcDb2dVertex
 10
-80.20722868876788
 20
338.1791287163024
 30
0.0
  0
VERTEX
  5
5F9
330
5F5
100
AcDbEntity
  8
0
100
AcDbVertex
100
AcDb2dVertex
 10
-70.24987275497438
 20
338.1791287163024
 30
0.0
  0
SEQEND
  5
5FA
330
5F5
100
AcDbEntity
  8
0
  0
ARC
  5
5FB
330
1F
100
AcDbEntity
  8
0
100
AcDbCircle
 10
-110.3572286887679
 20
336.3291287163024
 30
0.0
 40
40.15
100
AcDbArc
 50
2.640964763390193
 51
87.35903523660991
  0
POLYLINE
  5
5FC
330
1F
100
AcDbEntity
  8
0
100
AcDb2dPolyline
 66
     1
 10
0.0
 20
0.0
 30
0.0
  0
VERTEX
  5
5FD
330
5FC
100
AcDbEntity
  8
0
100
AcDbVertex
100
AcDb2dVertex
 10
-108.5072286887678
 20
376.4364846500958
 30
0.0
  0
VERTEX
  5
5FE
330
5FC
100
AcDbEntity
  8
0
100
AcDbVertex
100
AcDb2dVertex
 10
-108.5072286887679
 20
366.4791287163023
 30
0.0
  0
VERTEX
  5
5FF
330
5FC
100
AcDbEntity
  8
0
100
AcDbVertex
100
AcDb2dVertex
 10
-112.2072286887679
 20
366.4791287163023
 30
0.0
  0
VERTEX
  5
600
330
5FC
100
AcDbEntity
  8
0
100
AcDbVertex
100
AcDb2dVertex
 10
-112.2072286887679
 20
376.4364846500958
 30
0.0
  0
SEQEND
  5
601
330
5FC
100
AcDbEntity
  8
0
  0
ARC
  5
602
330
1F
100
AcDbEntity
  8
0
100
AcDbCircle
 10
192.6258885434016
 20
336.3291287163024
 30
0.0
 40
20.15
210
0.0
220
0.0
230
-1.0
100
AcDbArc
 50
140.4013820540219
 51
219.6901776161641
  0
POLYLINE
  5
603
330
1F
100
AcDbEntity
  8
0
100
AcDb2dPolyline
 66
     1
 10
0.0
 20
0.0
 30
0.0
  0
VERTEX
  5
604
330
603
100
AcDbEntity
  8
0
100
AcDbVertex
100
AcDb2dVertex
 10
-177.1202811942803
 20
323.4606151760805
 30
0.0
  0
VERTEX
  5
605
330
603
100
AcDbEntity
  8
0
100
AcDbVertex
100
AcDb2dVertex
 10
-181.4373054246294
 20
326.4468444473782
 30
0.0
  0
VERTEX
  5
606
330
603
100
AcDbEntity
  8
0
100
AcDbVertex
100
AcDb2dVertex
 10
-183.5422005815541
 20
323.4039155329349
 30
0.0
  0
VERTEX
  5
607
330
603
100
AcDbEntity
  8
0
100
AcDbVertex
100
AcDb2dVertex
 10
-179.7821696586367
 20
320.802977061461
 30
0.0
  0
SEQEND
  5
608
330
603
100
AcDbEntity
  8
0
  0
ARC
  5
609
330
1F
100
AcDbEntity
  8
0
100
AcDbCircle
 10
192.6258885434016
 20
336.3291287163024
 30
0.0
 40
20.15
210
0.0
220
0.0
230
-1.0
100
AcDbArc
 50
230.4013820540218
 51
309.6901776161642
  0
POLYLINE
  5
60A
330
1F
100
AcDbEntity
  8
0
100
AcDb2dPolyline
 66
     1
 10
0.0
 20
0.0
 30
0.0
  0
VERTEX
  5
60B
330
60A
100
AcDbEntity
  8
0
100
AcDbVertex
100
AcDb2dVertex
 10
-205.4944020836235
 20
320.8235213671809
 30
0.0
  0
VERTEX
  5
60C
330
60A
100
AcDbEntity
  8
0
100
AcDbVertex
100
AcDb2dVertex
 10
-202.5081728123258
 20
325.1405455975301
 30
0.0
  0
VERTEX
  5
60D
330
60A
100
AcDbEntity
  8
0
100
AcDbVertex
100
AcDb2dVertex
 10
-205.5511017267691
 20
327.2454407544549
 30
0.0
  0
VERTEX
  5
60E
330
60A
100
AcDbEntity
  8
0
100
AcDbVertex
100
AcDb2dVertex
 10
-208.152040198243
 20
323.4854098315375
 30
0.0
  0
SEQEND
  5
60F
330
60A
100
AcDbEntity
  8
0
  0
ARC
  5
610
330
1F
100
AcDbEntity
  8
0
100
AcDbCircle
 10
192.6258885434016
 20
336.3291287163024
 30
0.0
 40
20.15
210
0.0
220
0.0
230
-1.0
100
AcDbArc
 50
320.401382054022
 51
39.69017761616409
  0
POLYLINE
  5
611
330
1F
100
AcDbEntity
  8
0
100
AcDb2dPolyline
 66
     1
 10
0.0
 20
0.0
 30
0.0
  0
VERTEX
  5
612
330
611
100
AcDbEntity
  8
0
100
AcDbVertex
100
AcDb2dVertex
 10
-208.131495892523
 20
349.1976422565242
 30
0.0
  0
VERTEX
  5
613
330
611
100
AcDbEntity
  8
0
100
AcDbVertex
100
AcDb2dVertex
 10
-203.8144716621738
 20
346.2114129852266
 30
0.0
  0
VERTEX
  5
614
330
611
100
AcDbEntity
  8
0
100
AcDbVertex
100
AcDb2dVertex
 10
-201.7095765052491
 20
349.2543418996698
 30
0.0
  0
VERTEX
  5
615
330
611
100
AcDbEntity
  8
0
100
AcDbVertex
100
AcDb2dVertex
 10
-205.4696074281665
 20
351.8552803711437
 30
0.0
  0
SEQEND
  5
616
330
611
100
AcDbEntity
  8
0
  0
ARC
  5
617
330
1F
100
AcDbEntity
  8
0
100
AcDbCircle
 10
192.6258885434016
 20
336.3291287163024
 30
0.0
 40
20.15
210
0.0
220
0.0
230
-1.0
100
AcDbArc
 50
50.40138205402177
 51
129.6901776161641
  0
POLYLINE
  5
618
330
1F
100
AcDbEntity
  8
0
100
AcDb2dPolyline
 66
     1
 10
0.0
 20
0.0
 30
0.0
  0
VERTEX
  5
619
330
618
100
AcDbEntity
  8
0
100
AcDbVertex
100
AcDb2dVertex
 10
-179.7573750031798
 20
351.8347360654237
 30
0.0
  0
VERTEX
  5
61A
330
618
100
AcDbEntity
  8
0
100
AcDbVertex
100
AcDb2dVertex
 10
-182.7436042744774
 20
347.5177118350746
 30
0.0
  0
VERTEX
  5
61B
330
618
100
AcDbEntity
  8
0
100
AcDbVertex
100
AcDb2dVertex
 10
-179.7006753600342
 20
345.4128166781499
 30
0.0
  0
VERTEX
  5
61C
330
618
100
AcDbEntity
  8
0
100
AcDbVertex
100
AcDb2dVertex
 10
-177.0997368885602
 20
349.1728476010672
 30
0.0
  0
SEQEND
  5
61D
330
618
100
AcDbEntity
  8
0
  0
ARC
  5
61E
330
1F
100
AcDbEntity
  8
0
100
AcDbCircle
 10
-192.6258885434016
 20
336.3291287163024
 30
0.0
 40
40.15
100
AcDbArc
 50
92.6409647633901
 51
177.3590352366101
  0
POLYLINE
  5
61F
330
1F
100
AcDbEntity
  8
0
100
AcDb2dPolyline
 66
     1
 10
0.0
 20
0.0
 30
0.0
  0
VERTEX
  5
620
330
61F
100
AcDbEntity
  8
0
100
AcDbVertex
100
AcDb2dVertex
 10
-232.7332444771951
 20
338.1791287163023
 30
0.0
  0
VERTEX
  5
621
330
61F
100
AcDbEntity
  8
0
100
AcDbVertex
100
AcDb2dVertex
 10
-222.7758885434016
 20
338.1791287163023
 30
0.0
  0
VERTEX
  5
622
330
61F
100
AcDbEntity
  8
0
100
AcDbVertex
100
AcDb2dVertex
 10
-222.7758885434016
 20
334.4791287163023
 30
0.0
  0
VERTEX
  5
623
330
61F
100
AcDbEntity
  8
0
100
AcDbVertex
100
AcDb2dVertex
 10
-232.7332444771951
 20
334.4791287163023
 30
0.0
  0
SEQEND
  5
624
330
61F
100
AcDbEntity
  8
0
  0
ARC
  5
625
330
1F
100
AcDbEntity
  8
0
100
AcDbCircle
 10
-192.6258885434016
 20
336.3291287163024
 30
0.0
 40
40.15
100
AcDbArc
 50
182.6409647633901
 51
267.3590352366099
  0
POLYLINE
  5
626
330
1F
100
AcDbEntity
  8
0
100
AcDb2dPolyline
 66
     1
 10
0.0
 20
0.0
 30
0.0
  0
VERTEX
  5
627
330
626
100
AcDbEntity
  8
0
100
AcDbVertex
100
AcDb2dVertex
 10
-194.4758885434016
 20
296.2217727825089
 30
0.0
  0
VERTEX
  5
628
330
626
100
AcDbEntity
  8
0
100
AcDbVertex
100
AcDb2dVertex
 10
-194.4758885434016
 20
306.1791287163024
 30
0.0
  0
VERTEX
  5
629
330
626
100
AcDbEntity
  8
0
100
AcDbVertex
100
AcDb2dVertex
 10
-190.7758885434016
 20
306.1791287163024
 30
0.0
  0
VERTEX
  5
62A
330
626
100
AcDbEntity
  8
0
100
AcDbVertex
100
AcDb2dVertex
 10
-190.7758885434016
 20
296.2217727825089
 30
0.0
  0
SEQEND
  5
62B
330
626
100
AcDbEntity
  8
0
  0
ARC
  5
62C
330
1F
100
AcDbEntity
  8
0
100
AcDbCircle
 10
-192.6258885434016
 20
336.3291287163024
 30
0.0
 40
40.15
100
AcDbArc
 50
272.6409647633901
 51
357.3590352366099
  0
POLYLINE
  5
62D
330
1F
100
AcDbEntity
  8
0
100
AcDb2dPolyline
 66
     1
 10
0.0
 20
0.0
 30
0.0
  0
VERTEX
  5
62E
330
62D
100
AcDbEntity
  8
0
100
AcDbVertex
100
AcDb2dVertex
 10
-152.5185326096081
 20
334.4791287163024
 30
0.0
  0
VERTEX
  5
62F
330
62D
100
AcDbEntity
  8
0
100
AcDbVertex
100
AcDb2dVertex
 10
-162.4758885434017
 20
334.4791287163024
 30
0.0
  0
VERTEX
  5
630
330
62D
100
AcDbEntity
  8
0
100
AcDbVertex
100
AcDb2dVertex
 10
-162.4758885434017
 20
338.1791287163024
 30
0.0
  0
VERTEX
  5
631
330
62D
100
AcDbEntity
  8
0
100
AcDbVertex
100
AcDb2dVertex
 10
-152.5185326096081
 20
338.1791287163024
 30
0.0
  0
SEQEND
  5
632
330
62D
100
AcDbEntity
  8
0
  0
ARC
  5
633
330
1F
100
AcDbEntity
  8
0
100
AcDbCircle
 10
-192.6258885434016
 20
336.3291287163024
 30
0.0
 40
40.15
100
AcDbArc
 50
2.640964763390193
 51
87.3590352366099
  0
POLYLINE
  5
634
330
1F
100
AcDbEntity
  8
0
100
AcDb2dPolyline
 66
     1
 10
0.0
 20
0.0
 30
0.0
  0
VERTEX
  5
635
330
634
100
AcDbEntity
  8
0
100
AcDbVertex
100
AcDb2dVertex
 10
-190.7758885434016
 20
376.4364846500958
 30
0.0
  0
VERTEX
  5
636
330
634
100
AcDbEntity
  8
0
100
AcDbVertex
100
AcDb2dVertex
 10
-190.7758885434017
 20
366.4791287163023
 30
0.0
  0
VERTEX
  5
637
330
634
100
AcDbEntity
  8
0
100
AcDbVertex
100
AcDb2dVertex
 10
-194.4758885434017
 20
366.4791287163023
 30
0.0
  0
VERTEX
  5
638
330
634
100
AcDbEntity
  8
0
100
AcDbVertex
100
AcDb2dVertex
 10
-194.4758885434017
 20
376.4364846500958
 30
0.0
  0
SEQEND
  5
639
330
634
100
AcDbEntity
  8
0
  0
ARC
  5
63A
330
1F
100
AcDbEntity
  8
0
100
AcDbCircle
 10
274.8945483980354
 20
335.8149495922109
 30
0.0
 40
20.15
210
0.0
220
0.0
230
-1.0
100
AcDbArc
 50
140.4013820540218
 51
219.6901776161641
  0
POLYLINE
  5
63B
330
1F
100
AcDbEntity
  8
0
100
AcDb2dPolyline
 66
     1
 10
0.0
 20
0.0
 30
0.0
  0
VERTEX
  5
63C
330
63B
100
AcDbEntity
  8
0
100
AcDbVertex
100
AcDb2dVertex
 10
-259.388941048914
 20
322.9464360519891
 30
0.0
  0
VERTEX
  5
63D
330
63B
100
AcDbEntity
  8
0
100
AcDbVertex
100
AcDb2dVertex
 10
-263.7059652792632
 20
325.9326653232867
 30
0.0
  0
VERTEX
  5
63E
330
63B
100
AcDbEntity
  8
0
100
AcDbVertex
100
AcDb2dVertex
 10
-265.8108604361879
 20
322.8897364088434
 30
0.0
  0
VERTEX
  5
63F
330
63B
100
AcDbEntity
  8
0
100
AcDbVertex
100
AcDb2dVertex
 10
-262.0508295132705
 20
320.2887979373695
 30
0.0
  0
SEQEND
  5
640
330
63B
100
AcDbEntity
  8
0
  0
ARC
  5
641
330
1F
100
AcDbEntity
  8
0
100
AcDbCircle
 10
274.8945483980354
 20
335.8149495922109
 30
0.0
 40
20.15
210
0.0
220
0.0
230
-1.0
100
AcDbArc
 50
230.4013820540218
 51
309.6901776161643
  0
POLYLINE
  5
642
330
1F
100
AcDbEntity
  8
0
100
AcDb2dPolyline
 66
     1
 10
0.0
 20
0.0
 30
0.0
  0
VERTEX
  5
643
330
642
100
AcDbEntity
  8
0
100
AcDbVertex
100
AcDb2dVertex
 10
-287.7630619382572
 20
320.3093422430895
 30
0.0
  0
VERTEX
  5
644
330
642
100
AcDbEntity
  8
0
100
AcDbVertex
100
AcDb2dVertex
 10
-284.7768326669596
 20
324.6263664734387
 30
0.0
  0
VERTEX
  5
645
330
642
100
AcDbEntity
  8
0
100
AcDbVertex
100
AcDb2dVertex
 10
-287.8197615814029
 20
326.7312616303634
 30
0.0
  0
VERTEX
  5
646
330
642
100
AcDbEntity
  8
0
100
AcDbVertex
100
AcDb2dVertex
 10
-290.4207000528768
 20
322.971230707446
 30
0.0
  0
SEQEND
  5
647
330
642
100
AcDbEntity
  8
0
  0
ARC
  5
648
330
1F
100
AcDbEntity
  8
0
100
AcDbCircle
 10
274.8945483980354
 20
335.8149495922109
 30
0.0
 40
20.15
210
0.0
220
0.0
230
-1.0
100
AcDbArc
 50
320.401382054022
 51
39.69017761616415
  0
POLYLINE
  5
649
330
1F
100
AcDbEntity
  8
0
100
AcDb2dPolyline
 66
     1
 10
0.0
 20
0.0
 30
0.0
  0
VERTEX
  5
64A
330
649
100
AcDbEntity
  8
0
100
AcDbVertex
100
AcDb2dVertex
 10
-290.4001557471568
 20
348.6834631324327
 30
0.0
  0
VERTEX
  5
64B
330
649
100
AcDbEntity
  8
0
100
AcDbVertex
100
AcDb2dVertex
 10
-286.0831315168076
 20
345.6972338611351
 30
0.0
  0
VERTEX
  5
64C
330
649
100
AcDbEntity
  8
0
100
AcDbVertex
100
AcDb2dVertex
 10
-283.9782363598829
 20
348.7401627755783
 30
0.0
  0
VERTEX
  5
64D
330
649
100
AcDbEntity
  8
0
100
AcDbVertex
100
AcDb2dVertex
 10
-287.7382672828003
 20
351.3411012470522
 30
0.0
  0
SEQEND
  5
64E
330
649
100
AcDbEntity
  8
0
  0
ARC
  5
64F
330
1F
100
AcDbEntity
  8
0
100
AcDbCircle
 10
274.8945483980354
 20
335.8149495922109
 30
0.0
 40
20.15
210
0.0
220
0.0
230
-1.0
100
AcDbArc
 50
50.40138205402183
 51
129.6901776161641
  0
POLYLINE
  5
650
330
1F
100
AcDbEntity
  8
0
100
AcDb2dPolyline
 66
     1
 10
0.0
 20
0.0
 30
0.0
  0
VERTEX
  5
651
330
650
100
AcDbEntity
  8
0
100
AcDbVertex
100
AcDb2dVertex
 10
-262.0260348578136
 20
351.3205569413323
 30
0.0
  0
VERTEX
  5
652
330
650
100
AcDbEntity
  8
0
100
AcDbVertex
100
AcDb2dVertex
 10
-265.0122641291112
 20
347.0035327109831
 30
0.0
  0
VERTEX
  5
653
330
650
100
AcDbEntity
  8
0
100
AcDbVertex
100
AcDb2dVertex
 10
-261.9693352146679
 20
344.8986375540584
 30
0.0
  0
VERTEX
  5
654
330
650
100
AcDbEntity
  8
0
100
AcDbVertex
100
AcDb2dVertex
 10
-259.368396743194
 20
348.6586684769758
 30
0.0
  0
SEQEND
  5
655
330
650
100
AcDbEntity
  8
0
  0
ARC
  5
656
330
1F
100
AcDbEntity
  8
0
100
AcDbCircle
 10
-274.8945483980354
 20
335.8149495922109
 30
0.0
 40
40.15
100
AcDbArc
 50
92.6409647633901
 51
177.3590352366101
  0
POLYLINE
  5
657
330
1F
100
AcDbEntity
  8
0
100
AcDb2dPolyline
 66
     1
 10
0.0
 20
0.0
 30
0.0
  0
VERTEX
  5
658
330
657
100
AcDbEntity
  8
0
100
AcDbVertex
100
AcDb2dVertex
 10
-315.0019043318289
 20
337.6649495922109
 30
0.0
  0
VERTEX
  5
659
330
657
100
AcDbEntity
  8
0
100
AcDbVertex
100
AcDb2dVertex
 10
-305.0445483980354
 20
337.6649495922109
 30
0.0
  0
VERTEX
  5
65A
330
657
100
AcDbEntity
  8
0
100
AcDbVertex
100
AcDb2dVertex
 10
-305.0445483980354
 20
333.9649495922109
 30
0.0
  0
VERTEX
  5
65B
330
657
100
AcDbEntity
  8
0
100
AcDbVertex
100
AcDb2dVertex
 10
-315.0019043318289
 20
333.9649495922109
 30
0.0
  0
SEQEND
  5
65C
330
657
100
AcDbEntity
  8
0
  0
ARC
  5
65D
330
1F
100
AcDbEntity
  8
0
100
AcDbCircle
 10
-274.8945483980354
 20
335.8149495922109
 30
0.0
 40
40.15
100
AcDbArc
 50
182.6409647633901
 51
267.3590352366099
  0
POLYLINE
  5
65E
330
1F
100
AcDbEntity
  8
0
100
AcDb2dPolyline
 66
     1
 10
0.0
 20
0.0
 30
0.0
  0
VERTEX
  5
65F
330
65E
100
AcDbEntity
  8
0
100
AcDbVertex
100
AcDb2dVertex
 10
-276.7445483980354
 20
295.7075936584174
 30
0.0
  0
VERTEX
  5
660
330
65E
100
AcDbEntity
  8
0
100
AcDbVertex
100
AcDb2dVertex
 10
-276.7445483980354
 20
305.6649495922109
 30
0.0
  0
VERTEX
  5
661
330
65E
100
AcDbEntity
  8
0
100
AcDbVertex
100
AcDb2dVertex
 10
-273.0445483980354
 20
305.6649495922109
 30
0.0
  0
VERTEX
  5
662
330
65E
100
AcDbEntity
  8
0
100
AcDbVertex
100
AcDb2dVertex
 10
-273.0445483980354
 20
295.7075936584174
 30
0.0
  0
SEQEND
  5
663
330
65E
100
AcDbEntity
  8
0
  0
ARC
  5
664
330
1F
100
AcDbEntity
  8
0
100
AcDbCircle
 10
-274.8945483980354
 20
335.8149495922109
 30
0.0
 40
40.15
100
AcDbArc
 50
272.6409647633901
 51
357.3590352366099
  0
POLYLINE
  5
665
330
1F
100
AcDbEntity
  8
0
100
AcDb2dPolyline
 66
     1
 10
0.0
 20
0.0
 30
0.0
  0
VERTEX
  5
666
330
665
100
AcDbEntity
  8
0
100
AcDbVertex
100
AcDb2dVertex
 10
-234.7871924642419
 20
333.9649495922109
 30
0.0
  0
VERTEX
  5
667
330
665
100
AcDbEntity
  8
0
100
AcDbVertex
100
AcDb2dVertex
 10
-244.7445483980354
 20
333.9649495922109
 30
0.0
  0
VERTEX
  5
668
330
665
100
AcDbEntity
  8
0
100
AcDbVertex
100
AcDb2dVertex
 10
-244.7445483980354
 20
337.6649495922109
 30
0.0
  0
VERTEX
  5
669
330
665
100
AcDbEntity
  8
0
100
AcDbVertex
100
AcDb2dVertex
 10
-234.7871924642419
 20
337.6649495922109
 30
0.0
  0
SEQEND
  5
66A
330
665
100
AcDbEntity
  8
0
  0
ARC
  5
66B
330
1F
100
AcDbEntity
  8
0
100
AcDbCircle
 10
-274.8945483980354
 20
335.8149495922109
 30
0.0
 40
40.15
100
AcDbArc
 50
2.640964763390193
 51
87.35903523660997
  0
POLYLINE
  5
66C
330
1F
100
AcDbEntity
  8
0
100
AcDb2dPolyline
 66
     1
 10
0.0
 20
0.0
 30
0.0
  0
VERTEX
  5
66D
330
66C
100
AcDbEntity
  8
0
100
AcDbVertex
100
AcDb2dVertex
 10
-273.0445483980354
 20
375.9223055260044
 30
0.0
  0
VERTEX
  5
66E
330
66C
100
AcDbEntity
  8
0
100
AcDbVertex
100
AcDb2dVertex
 10
-273.0445483980354
 20
365.9649495922109
 30
0.0
  0
VERTEX
  5
66F
330
66C
100
AcDbEntity
  8
0
100
AcDbVertex
100
AcDb2dVertex
 10
-276.7445483980354
 20
365.9649495922109
 30
0.0
  0
VERTEX
  5
670
330
66C
100
AcDbEntity
  8
0
100
AcDbVertex
100
AcDb2dVertex
 10
-276.7445483980354
 20
375.9223055260044
 30
0.0
  0
SEQEND
  5
671
330
66C
100
AcDbEntity
  8
0
  0
ARC
  5
672
330
1F
100
AcDbEntity
  8
0
100
AcDbCircle
 10
357.1632082526691
 20
335.8149495922109
 30
0.0
 40
20.15
210
0.0
220
0.0
230
-1.0
100
AcDbArc
 50
140.4013820540218
 51
219.6901776161641
  0
POLYLINE
  5
673
330
1F
100
AcDbEntity
  8
0
100
AcDb2dPolyline
 66
     1
 10
0.0
 20
0.0
 30
0.0
  0
VERTEX
  5
674
330
673
100
AcDbEntity
  8
0
100
AcDbVertex
100
AcDb2dVertex
 10
-341.6576009035477
 20
322.9464360519891
 30
0.0
  0
VERTEX
  5
675
330
673
100
AcDbEntity
  8
0
100
AcDbVertex
100
AcDb2dVertex
 10
-345.9746251338969
 20
325.9326653232867
 30
0.0
  0
VERTEX
  5
676
330
673
100
AcDbEntity
  8
0
100
AcDbVertex
100
AcDb2dVertex
 10
-348.0795202908216
 20
322.8897364088434
 30
0.0
  0
VERTEX
  5
677
330
673
100
AcDbEntity
  8
0
100
AcDbVertex
100
AcDb2dVertex
 10
-344.3194893679042
 20
320.2887979373695
 30
0.0
  0
SEQEND
  5
678
330
673
100
AcDbEntity
  8
0
  0
ARC
  5
679
330
1F
100
AcDbEntity
  8
0
100
AcDbCircle
 10
357.1632082526691
 20
335.8149495922109
 30
0.0
 40
20.15
210
0.0
220
0.0
230
-1.0
100
AcDbArc
 50
230.4013820540218
 51
309.6901776161643
  0
POLYLINE
  5
67A
330
1F
100
AcDbEntity
  8
0
100
AcDb2dPolyline
 66
     1
 10
0.0
 20
0.0
 30
0.0
  0
VERTEX
  5
67B
330
67A
100
AcDbEntity
  8
0
100
AcDbVertex
100
AcDb2dVertex
 10
-370.0317217928909
 20
320.3093422430895
 30
0.0
  0
VERTEX
  5
67C
330
67A
100
AcDbEntity
  8
0
100
AcDbVertex
100
AcDb2dVertex
 10
-367.0454925215933
 20
324.6263664734387
 30
0.0
  0
VERTEX
  5
67D
330
67A
100
AcDbEntity
  8
0
100
AcDbVertex
100
AcDb2dVertex
 10
-370.0884214360366
 20
326.7312616303634
 30
0.0
  0
VERTEX
  5
67E
330
67A
100
AcDbEntity
  8
0
100
AcDbVertex
100
AcDb2dVertex
 10
-372.6893599075105
 20
322.971230707446
 30
0.0
  0
SEQEND
  5
67F
330
67A
100
AcDbEntity
  8
0
  0
ARC
  5
680
330
1F
100
AcDbEntity
  8
0
100
AcDbCircle
 10
357.1632082526691
 20
335.8149495922109
 30
0.0
 40
20.15
210
0.0
220
0.0
230
-1.0
100
AcDbArc
 50
320.401382054022
 51
39.69017761616415
  0
POLYLINE
  5
681
330
1F
100
AcDbEntity
  8
0
100
AcDb2dPolyline
 66
     1
 10
0.0
 20
0.0
 30
0.0
  0
VERTEX
  5
682
330
681
100
AcDbEntity
  8
0
100
AcDbVertex
100
AcDb2dVertex
 10
-372.6688156017905
 20
348.6834631324327
 30
0.0
  0
VERTEX
  5
683
330
681
100
AcDbEntity
  8
0
100
AcDbVertex
100
AcDb2dVertex
 10
-368.3517913714413
 20
345.6972338611351
 30
0.0
  0
VERTEX
  5
684
330
681
100
AcDbEntity
  8
0
100
AcDbVertex
100
AcDb2dVertex
 10
-366.2468962145166
 20
348.7401627755783
 30
0.0
  0
VERTEX
  5
685
330
681
100
AcDbEntity
  8
0
100
AcDbVertex
100
AcDb2dVertex
 10
-370.006927137434
 20
351.3411012470522
 30
0.0
  0
SEQEND
  5
686
330
681
100
AcDbEntity
  8
0
  0
ARC
  5
687
330
1F
100
AcDbEntity
  8
0
100
AcDbCircle
 10
357.1632082526691
 20
335.8149495922109
 30
0.0
 40
20.15
210
0.0
220
0.0
230
-1.0
100
AcDbArc
 50
50.40138205402183
 51
129.6901776161641
  0
POLYLINE
  5
688
330
1F
100
AcDbEntity
  8
0
100
AcDb2dPolyline
 66
     1
 10
0.0
 20
0.0
 30
0.0
  0
VERTEX
  5
689
330
688
100
AcDbEntity
  8
0
100
AcDbVertex
100
AcDb2dVertex
 10
-344.2946947124473
 20
351.3205569413323
 30
0.0
  0
VERTEX
  5
68A
330
688
100
AcDbEntity
  8
0
100
AcDbVertex
100
AcDb2dVertex
 10
-347.2809239837449
 20
347.0035327109831
 30
0.0
  0
VERTEX
  5
68B
330
688
100
AcDbEntity
  8
0
100
AcDbVertex
100
AcDb2dVertex
 10
-344.2379950693016
 20
344.8986375540584
 30
0.0
  0
VERTEX
  5
68C
330
688
100
AcDbEntity
  8
0
100
AcDbVertex
100
AcDb2dVertex
 10
-341.6370565978277
 20
348.6586684769758
 30
0.0
  0
SEQEND
  5
68D
330
688
100
AcDbEntity
  8
0
  0
ARC
  5
68E
330
1F
100
AcDbEntity
  8
0
100
AcDbCircle
 10
-357.1632082526691
 20
335.8149495922109
 30
0.0
 40
40.15
100
AcDbArc
 50
92.6409647633901
 51
177.3590352366101
  0
POLYLINE
  5
68F
330
1F
100
AcDbEntity
  8
0
100
AcDb2dPolyline
 66
     1
 10
0.0
 20
0.0
 30
0.0
  0
VERTEX
  5
690
330
68F
100
AcDbEntity
  8
0
100
AcDbVertex
100
AcDb2dVertex
 10
-397.2705641864626
 20
337.6649495922109
 30
0.0
  0
VERTEX
  5
691
330
68F
100
AcDbEntity
  8
0
100
AcDbVertex
100
AcDb2dVertex
 10
-387.3132082526691
 20
337.6649495922109
 30
0.0
  0
VERTEX
  5
692
330
68F
100
AcDbEntity
  8
0
100
AcDbVertex
100
AcDb2dVertex
 10
-387.3132082526691
 20
333.9649495922109
 30
0.0
  0
VERTEX
  5
693
330
68F
100
AcDbEntity
  8
0
100
AcDbVertex
100
AcDb2dVertex
 10
-397.2705641864626
 20
333.9649495922109
 30
0.0
  0
SEQEND
  5
694
330
68F
100
AcDbEntity
  8
0
  0
ARC
  5
695
330
1F
100
AcDbEntity
  8
0
100
AcDbCircle
 10
-357.1632082526691
 20
335.8149495922109
 30
0.0
 40
40.15
100
AcDbArc
 50
182.6409647633901
 51
267.3590352366099
  0
POLYLINE
  5
696
330
1F
100
AcDbEntity
  8
0
100
AcDb2dPolyline
 66
     1
 10
0.0
 20
0.0
 30
0.0
  0
VERTEX
  5
697
330
696
100
AcDbEntity
  8
0
100
AcDbVertex
100
AcDb2dVertex
 10
-359.0132082526691
 20
295.7075936584174
 30
0.0
  0
VERTEX
  5
698
330
696
100
AcDbEntity
  8
0
100
AcDbVertex
100
AcDb2dVertex
 10
-359.0132082526691
 20
305.6649495922109
 30
0.0
  0
VERTEX
  5
699
330
696
100
AcDbEntity
  8
0
100
AcDbVertex
100
AcDb2dVertex
 10
-355.3132082526691
 20
305.6649495922109
 30
0.0
  0
VERTEX
  5
69A
330
696
100
AcDbEntity
  8
0
100
AcDbVertex
100
AcDb2dVertex
 10
-355.3132082526691
 20
295.7075936584174
 30
0.0
  0
SEQEND
  5
69B
330
696
100
AcDbEntity
  8
0
  0
ARC
  5
69C
330
1F
100
AcDbEntity
  8
0
100
AcDbCircle
 10
-357.1632082526691
 20
335.8149495922109
 30
0.0
 40
40.15
100
AcDbArc
 50
272.6409647633901
 51
357.3590352366099
  0
POLYLINE
  5
69D
330
1F
100
AcDbEntity
  8
0
100
AcDb2dPolyline
 66
     1
 10
0.0
 20
0.0
 30
0.0
  0
VERTEX
  5
69E
330
69D
100
AcDbEntity
  8
0
100
AcDbVertex
100
AcDb2dVertex
 10
-317.0558523188756
 20
333.9649495922109
 30
0.0
  0
VERTEX
  5
69F
330
69D
100
AcDbEntity
  8
0
100
AcDbVertex
100
AcDb2dVertex
 10
-327.0132082526691
 20
333.9649495922109
 30
0.0
  0
VERTEX
  5
6A0
330
69D
100
AcDbEntity
  8
0
100
AcDbVertex
100
AcDb2dVertex
 10
-327.0132082526691
 20
337.6649495922109
 30
0.0
  0
VERTEX
  5
6A1
330
69D
100
AcDbEntity
  8
0
100
AcDbVertex
100
AcDb2dVertex
 10
-317.0558523188756
 20
337.6649495922109
 30
0.0
  0
SEQEND
  5
6A2
330
69D
100
AcDbEntity
  8
0
  0
ARC
  5
6A3
330
1F
100
AcDbEntity
  8
0
100
AcDbCircle
 10
-357.1632082526691
 20
335.8149495922109
 30
0.0
 40
40.15
100
AcDbArc
 50
2.640964763390193
 51
87.35903523660997
  0
POLYLINE
  5
6A4
330
1F
100
AcDbEntity
  8
0
100
AcDb2dPolyline
 66
     1
 10
0.0
 20
0.0
 30
0.0
  0
VERTEX
  5
6A5
330
6A4
100
AcDbEntity
  8
0
100
AcDbVertex
100
AcDb2dVertex
 10
-355.3132082526691
 20
375.9223055260044
 30
0.0
  0
VERTEX
  5
6A6
330
6A4
100
AcDbEntity
  8
0
100
AcDbVertex
100
AcDb2dVertex
 10
-355.3132082526691
 20
365.9649495922109
 30
0.0
  0
VERTEX
  5
6A7
330
6A4
100
AcDbEntity
  8
0
100
AcDbVertex
100
AcDb2dVertex
 10
-359.0132082526691
 20
365.9649495922109
 30
0.0
  0
VERTEX
  5
6A8
330
6A4
100
AcDbEntity
  8
0
100
AcDbVertex
100
AcDb2dVertex
 10
-359.0132082526691
 20
375.9223055260044
 30
0.0
  0
SEQEND
  5
6A9
330
6A4
100
AcDbEntity
  8
0
  0
ENDSEC
  0
SECTION
  2
OBJECTS
  0
DICTIONARY
  5
C
330
0
100
AcDbDictionary
281
     1
  3
ACAD_DETAILVIEWSTYLE
350
6E5
  3
ACAD_GROUP
350
D
  3
ACAD_LAYOUT
350
1A
  3
ACAD_MATERIAL
350
43
  3
ACAD_MLEADERSTYLE
350
6B
  3
ACAD_MLINESTYLE
350
17
  3
ACAD_PLOTSETTINGS
350
19
  3
ACAD_PLOTSTYLENAME
350
E
  3
ACAD_SCALELIST
350
47
  3
ACAD_SECTIONVIEWSTYLE
350
6E6
  3
ACAD_TABLESTYLE
350
69
  3
ACAD_VISUALSTYLE
350
2A
  3
ACDB_RECOMPOSE_DATA
350
6E2
  3
AcDbVariableDictionary
350
6AA
  0
SUN
  5
6D
330
29
100
AcDbSun
 90
        1
290
     0
 63
     7
421
 16777215
 40
1.0
291
     1
 91
  2455826
 92
 54000000
292
     0
 70
     2
 71
   256
280
     1
  0
DICTIONARY
  5
6E5
102
{ACAD_REACTORS
330
C
102
}
330
C
100
AcDbDictionary
281
     1
  0
DICTIONARY
  5
D
102
{ACAD_REACTORS
330
C
102
}
330
C
100
AcDbDictionary
281
     1
  0
DICTIONARY
  5
1A
102
{ACAD_REACTORS
330
C
102
}
330
C
100
AcDbDictionary
281
     1
  3
Layout1
350
1E
  3
Layout2
350
26
  3
Model
350
22
  0
DICTIONARY
  5
43
102
{ACAD_REACTORS
330
C
102
}
330
C
100
AcDbDictionary
281
     1
  3
ByBlock
350
45
  3
ByLayer
350
44
  3
Global
350
46
  0
DICTIONARY
  5
6B
102
{ACAD_REACTORS
330
C
102
}
330
C
100
AcDbDictionary
281
     1
  3
Standard
350
6C
  0
DICTIONARY
  5
17
102
{ACAD_REACTORS
330
C
102
}
330
C
100
AcDbDictionary
281
     1
  3
Standard
350
18
  0
DICTIONARY
  5
19
102
{ACAD_REACTORS
330
C
102
}
330
C
100
AcDbDictionary
281
     1
  0
ACDBDICTIONARYWDFLT
  5
E
102
{ACAD_REACTORS
330
C
102
}
330
C
100
AcDbDictionary
281
     1
  3
Normal
350
F
100
AcDbDictionaryWithDefault
340
F
  0
DICTIONARY
  5
47
102
{ACAD_REACTORS
330
C
102
}
330
C
100
AcDbDictionary
281
     1
  3
A0
350
48
  3
A1
350
49
  3
A2
350
4A
  3
A3
350
4B
  3
A4
350
4C
  3
A5
350
4D
  3
A6
350
4E
  3
A7
350
4F
  3
A8
350
50
  3
A9
350
51
  3
B0
350
52
  3
B1
350
53
  3
B2
350
54
  3
B3
350
55
  3
B4
350
56
  3
B5
350
57
  3
B6
350
58
  3
B7
350
59
  3
B8
350
5A
  3
B9
350
5B
  3
C0
350
5C
  3
C1
350
5D
  3
C2
350
5E
  3
C3
350
5F
  3
C4
350
60
  3
C5
350
61
  3
C6
350
62
  3
C7
350
63
  3
C8
350
64
  3
C9
350
65
  3
D0
350
66
  3
D1
350
67
  3
D2
350
68
  0
DICTIONARY
  5
6E6
102
{ACAD_REACTORS
330
C
102
}
330
C
100
AcDbDictionary
281
     1
  0
DICTIONARY
  5
69
102
{ACAD_REACTORS
330
C
102
}
330
C
100
AcDbDictionary
281
     1
  3
Standard
350
6A
  0
DICTIONARY
  5
2A
102
{ACAD_REACTORS
330
C
102
}
330
C
100
AcDbDictionary
281
     1
  3
2dWireframe
350
2F
  3
Basic
350
32
  3
Brighten
350
36
  3
ColorChange
350
3A
  3
Conceptual
350
34
  3
Dim
350
35
  3
EdgeColorOff
350
3D
  3
Facepattern
350
39
  3
Flat
350
2B
  3
FlatWithEdges
350
2C
  3
Gouraud
350
2D
  3
GouraudWithEdges
350
2E
  3
Hidden
350
31
  3
JitterOff
350
3B
  3
Linepattern
350
38
  3
OverhangOff
350
3C
  3
Realistic
350
33
  3
Shaded
350
42
  3
Shaded with edges
350
41
  3
Shades of Gray
350
3E
  3
Sketchy
350
3F
  3
Thicken
350
37
  3
Wireframe
350
30
  3
X-Ray
350
40
  0
XRECORD
  5
6E2
102
{ACAD_REACTORS
330
C
102
}
330
C
100
AcDbXrecord
280
     1
 90
        1
330
6A
  0
DICTIONARY
  5
6AA
102
{ACAD_REACTORS
330
C
102
}
330
C
100
AcDbDictionary
281
     1
  3
CANNOSCALE
350
6AB
  3
CMLEADERSTYLE
350
6E4
  3
CTABLESTYLE
350
6E3
  3
XCLIPFRAME
350
6AC
  0
LAYOUT
  5
1E
102
{ACAD_REACTORS
330
1A
102
}
330
1A
100
AcDbPlotSettings
  1

  2
none_device
  4

  6

 40
0.0
 41
0.0
 42
0.0
 43
0.0
 44
0.0
 45
0.0
 46
0.0
 47
0.0
 48
0.0
 49
0.0
140
0.0
141
0.0
142
1.0
143
1.0
 70
   688
 72
     0
 73
     0
 74
     5
  7

 75
    16
 76
     0
 77
     2
 78
   300
147
1.0
148
0.0
149
0.0
100
AcDbLayout
  1
Layout1
 70
     1
 71
     1
 10
0.0
 20
0.0
 11
12.0
 21
9.0
 12
0.0
 22
0.0
 32
0.0
 14
1.000000000000000E+20
 24
1.000000000000000E+20
 34
1.000000000000000E+20
 15
-1.000000000000000E+20
 25
-1.000000000000000E+20
 35
-1.000000000000000E+20
146
0.0
 13
0.0
 23
0.0
 33
0.0
 16
1.0
 26
0.0
 36
0.0
 17
0.0
 27
1.0
 37
0.0
 76
     0
330
1B
  0
LAYOUT
  5
26
102
{ACAD_REACTORS
330
1A
102
}
330
1A
100
AcDbPlotSettings
  1

  2
none_device
  4

  6

 40
0.0
 41
0.0
 42
0.0
 43
0.0
 44
0.0
 45
0.0
 46
0.0
 47
0.0
 48
0.0
 49
0.0
140
0.0
141
0.0
142
1.0
143
1.0
 70
   688
 72
     0
 73
     0
 74
     5
  7

 75
    16
 76
     0
 77
     2
 78
   300
147
1.0
148
0.0
149
0.0
100
AcDbLayout
  1
Layout2
 70
     1
 71
     2
 10
0.0
 20
0.0
 11
0.0
 21
0.0
 12
0.0
 22
0.0
 32
0.0
 14
0.0
 24
0.0
 34
0.0
 15
0.0
 25
0.0
 35
0.0
146
0.0
 13
0.0
 23
0.0
 33
0.0
 16
1.0
 26
0.0
 36
0.0
 17
0.0
 27
1.0
 37
0.0
 76
     0
330
23
  0
LAYOUT
  5
22
102
{ACAD_REACTORS
330
1A
102
}
330
1A
100
AcDbPlotSettings
  1

  2
none_device
  4
Letter_(8.50_x_11.00_Inches)
  6

 40
6.35
 41
6.35
 42
6.35000508
 43
6.35000508
 44
215.9
 45
279.4
 46
0.0
 47
0.0
 48
0.0
 49
0.0
140
0.0
141
0.0
142
1.0
143
1.0
 70
  1712
 72
     0
 73
     0
 74
     0
  7

 75
     0
 76
     0
 77
     2
 78
   300
147
1.0
148
0.0
149
0.0
100
AcDbLayout
  1
Model
 70
     1
 71
     0
 10
0.0
 20
0.0
 11
12.0
 21
9.0
 12
0.0
 22
0.0
 32
0.0
 14
1.000000000000000E+20
 24
1.000000000000000E+20
 34
1.000000000000000E+20
 15
-1.000000000000000E+20
 25
-1.000000000000000E+20
 35
-1.000000000000000E+20
146
0.0
 13
0.0
 23
0.0
 33
0.0
 16
1.0
 26
0.0
 36
0.0
 17
0.0
 27
1.0
 37
0.0
 76
     0
330
1F
331
29
  0
MATERIAL
  5
45
102
{ACAD_REACTORS
330
43
102
}
330
43
100
AcDbMaterial
  1
ByBlock
 72
     1
 94
      127
  0
MATERIAL
  5
44
102
{ACAD_REACTORS
330
43
102
}
330
43
100
AcDbMaterial
  1
ByLayer
 72
     1
 94
      127
  0
MATERIAL
  5
46
102
{ACAD_REACTORS
330
43
102
}
330
43
100
AcDbMaterial
  1
Global
 72
     1
 94
      127
  0
MLEADERSTYLE
  5
6C
102
{ACAD_REACTORS
330
6B
102
}
102
{ACAD_XDICTIONARY
360
6E0
102
}
330
6B
100
AcDbMLeaderStyle
170
     2
171
     1
172
     0
 90
        2
 40
0.0
 41
0.0
173
     1
 91
-1056964608
340
14
 92
       -2
290
     1
 42
0.09
291
     1
 43
0.36
  3
Standard
341
0
 44
0.18
300

342
11
174
     1
178
     6
175
     1
176
     0
 93
-1056964608
 45
0.18
292
     0
297
     0
 46
0.18
343
0
 94
-1056964608
 47
1.0
 49
1.0
140
1.0
293
     1
141
0.0
294
     1
177
     0
142
1.0
295
     0
296
     0
143
0.125
1001
ACAD_MLEADERVER
1070
     2
  0
MLINESTYLE
  5
18
102
{ACAD_REACTORS
330
17
102
}
330
17
100
AcDbMlineStyle
  2
Standard
 70
     0
  3

 62
   256
 51
90.0
 52
90.0
 71
     2
 49
0.5
 62
   256
  6
BYLAYER
 49
-0.5
 62
   256
  6
BYLAYER
  0
ACDBPLACEHOLDER
  5
F
102
{ACAD_REACTORS
330
E
102
}
330
E
  0
SCALE
  5
48
102
{ACAD_REACTORS
330
47
102
}
330
47
100
AcDbScale
 70
     0
300
1:1
140
1.0
141
1.0
290
     1
  0
SCALE
  5
49
102
{ACAD_REACTORS
330
47
102
}
330
47
100
AcDbScale
 70
     0
300
1:2
140
1.0
141
2.0
290
     0
  0
SCALE
  5
4A
102
{ACAD_REACTORS
330
47
102
}
330
47
100
AcDbScale
 70
     0
300
1:4
140
1.0
141
4.0
290
     0
  0
SCALE
  5
4B
102
{ACAD_REACTORS
330
47
102
}
330
47
100
AcDbScale
 70
     0
300
1:5
140
1.0
141
5.0
290
     0
  0
SCALE
  5
4C
102
{ACAD_REACTORS
330
47
102
}
330
47
100
AcDbScale
 70
     0
300
1:8
140
1.0
141
8.0
290
     0
  0
SCALE
  5
4D
102
{ACAD_REACTORS
330
47
102
}
330
47
100
AcDbScale
 70
     0
300
1:10
140
1.0
141
10.0
290
     0
  0
SCALE
  5
4E
102
{ACAD_REACTORS
330
47
102
}
330
47
100
AcDbScale
 70
     0
300
1:16
140
1.0
141
16.0
290
     0
  0
SCALE
  5
4F
102
{ACAD_REACTORS
330
47
102
}
330
47
100
AcDbScale
 70
     0
300
1:20
140
1.0
141
20.0
290
     0
  0
SCALE
  5
50
102
{ACAD_REACTORS
330
47
102
}
330
47
100
AcDbScale
 70
     0
300
1:30
140
1.0
141
30.0
290
     0
  0
SCALE
  5
51
102
{ACAD_REACTORS
330
47
102
}
330
47
100
AcDbScale
 70
     0
300
1:40
140
1.0
141
40.0
290
     0
  0
SCALE
  5
52
102
{ACAD_REACTORS
330
47
102
}
330
47
100
AcDbScale
 70
     0
300
1:50
140
1.0
141
50.0
290
     0
  0
SCALE
  5
53
102
{ACAD_REACTORS
330
47
102
}
330
47
100
AcDbScale
 70
     0
300
1:100
140
1.0
141
100.0
290
     0
  0
SCALE
  5
54
102
{ACAD_REACTORS
330
47
102
}
330
47
100
AcDbScale
 70
     0
300
2:1
140
2.0
141
1.0
290
     0
  0
SCALE
  5
55
102
{ACAD_REACTORS
330
47
102
}
330
47
100
AcDbScale
 70
     0
300
4:1
140
4.0
141
1.0
290
     0
  0
SCALE
  5
56
102
{ACAD_REACTORS
330
47
102
}
330
47
100
AcDbScale
 70
     0
300
8:1
140
8.0
141
1.0
290
     0
  0
SCALE
  5
57
102
{ACAD_REACTORS
330
47
102
}
330
47
100
AcDbScale
 70
     0
300
10:1
140
10.0
141
1.0
290
     0
  0
SCALE
  5
58
102
{ACAD_REACTORS
330
47
102
}
330
47
100
AcDbScale
 70
     0
300
100:1
140
100.0
141
1.0
290
     0
  0
SCALE
  5
59
102
{ACAD_REACTORS
330
47
102
}
330
47
100
AcDbScale
 70
     0
300
1/128" = 1'-0"
140
0.0078125
141
12.0
290
     0
  0
SCALE
  5
5A
102
{ACAD_REACTORS
330
47
102
}
330
47
100
AcDbScale
 70
     0
300
1/64" = 1'-0"
140
0.015625
141
12.0
290
     0
  0
SCALE
  5
5B
102
{ACAD_REACTORS
330
47
102
}
330
47
100
AcDbScale
 70
     0
300
1/32" = 1'-0"
140
0.03125
141
12.0
290
     0
  0
SCALE
  5
5C
102
{ACAD_REACTORS
330
47
102
}
330
47
100
AcDbScale
 70
     0
300
1/16" = 1'-0"
140
0.0625
141
12.0
290
     0
  0
SCALE
  5
5D
102
{ACAD_REACTORS
330
47
102
}
330
47
100
AcDbScale
 70
     0
300
3/32" = 1'-0"
140
0.09375
141
12.0
290
     0
  0
SCALE
  5
5E
102
{ACAD_REACTORS
330
47
102
}
330
47
100
AcDbScale
 70
     0
300
1/8" = 1'-0"
140
0.125
141
12.0
290
     0
  0
SCALE
  5
5F
102
{ACAD_REACTORS
330
47
102
}
330
47
100
AcDbScale
 70
     0
300
3/16" = 1'-0"
140
0.1875
141
12.0
290
     0
  0
SCALE
  5
60
102
{ACAD_REACTORS
330
47
102
}
330
47
100
AcDbScale
 70
     0
300
1/4" = 1'-0"
140
0.25
141
12.0
290
     0
  0
SCALE
  5
61
102
{ACAD_REACTORS
330
47
102
}
330
47
100
AcDbScale
 70
     0
300
3/8" = 1'-0"
140
0.375
141
12.0
290
     0
  0
SCALE
  5
62
102
{ACAD_REACTORS
330
47
102
}
330
47
100
AcDbScale
 70
     0
300
1/2" = 1'-0"
140
0.5
141
12.0
290
     0
  0
SCALE
  5
63
102
{ACAD_REACTORS
330
47
102
}
330
47
100
AcDbScale
 70
     0
300
3/4" = 1'-0"
140
0.75
141
12.0
290
     0
  0
SCALE
  5
64
102
{ACAD_REACTORS
330
47
102
}
330
47
100
AcDbScale
 70
     0
300
1" = 1'-0"
140
1.0
141
12.0
290
     0
  0
SCALE
  5
65
102
{ACAD_REACTORS
330
47
102
}
330
47
100
AcDbScale
 70
     0
300
1-1/2" = 1'-0"
140
1.5
141
12.0
290
     0
  0
SCALE
  5
66
102
{ACAD_REACTORS
330
47
102
}
330
47
100
AcDbScale
 70
     0
300
3" = 1'-0"
140
3.0
141
12.0
290
     0
  0
SCALE
  5
67
102
{ACAD_REACTORS
330
47
102
}
330
47
100
AcDbScale
 70
     0
300
6" = 1'-0"
140
6.0
141
12.0
290
     0
  0
SCALE
  5
68
102
{ACAD_REACTORS
330
47
102
}
330
47
100
AcDbScale
 70
     0
300
1'-0" = 1'-0"
140
12.0
141
12.0
290
     0
  0
TABLESTYLE
  5
6A
102
{ACAD_REACTORS
330
69
102
}
102
{ACAD_XDICTIONARY
360
6DD
102
}
330
69
100
AcDbTableStyle
  3
Standard
 70
     0
 71
     0
 40
0.06
 41
0.06
280
     0
281
     0
  7
Standard
140
0.18
170
     2
 62
     0
 63
   257
283
     0
 90
        4
 91
        0
  1

274
    -2
284
     1
 64
     0
275
    -2
285
     1
 65
     0
276
    -2
286
     1
 66
     0
277
    -2
287
     1
 67
     0
278
    -2
288
     1
 68
     0
279
    -2
289
     1
 69
     0
  7
Standard
140
0.25
170
     5
 62
     0
 63
   257
283
     0
 90
        4
 91
        0
  1

274
    -2
284
     1
 64
     0
275
    -2
285
     1
 65
     0
276
    -2
286
     1
 66
     0
277
    -2
287
     1
 67
     0
278
    -2
288
     1
 68
     0
279
    -2
289
     1
 69
     0
  7
Standard
140
0.18
170
     5
 62
     0
 63
   257
283
     0
 90
        4
 91
        0
  1

274
    -2
284
     1
 64
     0
275
    -2
285
     1
 65
     0
276
    -2
286
     1
 66
     0
277
    -2
287
     1
 67
     0
278
    -2
288
     1
 68
     0
279
    -2
289
     1
 69
     0
  0
VISUALSTYLE
  5
2F
102
{ACAD_REACTORS
330
2A
102
}
102
{ACAD_XDICTIONARY
360
6B5
102
}
330
2A
100
AcDbVisualStyle
  2
2dWireframe
 70
     4
 71
     0
 72
     2
 73
     0
 90
        0
 40
0.6
 41
30.0
 62
     5
 63
     7
421
 16777215
 74
     1
 91
        4
 64
     7
 65
   257
 75
     1
175
     1
 42
1.0
 92
        0
 66
   257
 43
1.0
 76
     1
 77
     6
 78
     2
 67
     7
 79
     5
170
     0
171
     0
290
     0
174
     0
 93
        1
 44
0.0
173
     0
291
     0
 45
0.0
  0
VISUALSTYLE
  5
32
102
{ACAD_REACTORS
330
2A
102
}
102
{ACAD_XDICTIONARY
360
6BB
102
}
330
2A
100
AcDbVisualStyle
  2
Basic
 70
     7
 71
     1
 72
     0
 73
     1
 90
        0
 40
0.6
 41
30.0
 62
     5
 63
     7
421
 16777215
 74
     0
 91
        4
 64
     7
 65
   257
 75
     1
175
     1
 42
1.0
 92
        8
 66
     7
 43
1.0
 76
     1
 77
     6
 78
     2
 67
     7
 79
     5
170
     0
171
     0
290
     0
174
     0
 93
        1
 44
0.0
173
     0
291
     1
 45
0.0
  0
VISUALSTYLE
  5
36
102
{ACAD_REACTORS
330
2A
102
}
102
{ACAD_XDICTIONARY
360
6C3
102
}
330
2A
100
AcDbVisualStyle
  2
Brighten
 70
    12
 71
     2
 72
     2
 73
     0
 90
        0
 40
0.6
 41
30.0
 62
     5
 63
     7
421
 16777215
 74
     1
 91
        4
 64
     7
 65
   257
 75
     1
175
     1
 42
1.0
 92
        8
 66
     7
 43
1.0
 76
     1
 77
     6
 78
     2
 67
     7
 79
     5
170
     0
171
     0
290
     0
174
     0
 93
        1
 44
50.0
173
     0
291
     1
 45
0.0
  0
VISUALSTYLE
  5
3A
102
{ACAD_REACTORS
330
2A
102
}
102
{ACAD_XDICTIONARY
360
6CB
102
}
330
2A
100
AcDbVisualStyle
  2
ColorChange
 70
    16
 71
     2
 72
     2
 73
     3
 90
        0
 40
0.6
 41
30.0
 62
     5
 63
     8
421
  8421504
 74
     1
 91
        4
 64
     7
 65
   257
 75
     1
175
     1
 42
1.0
 92
        8
 66
     8
424
  8421504
 43
1.0
 76
     1
 77
     6
 78
     2
 67
     7
 79
     5
170
     0
171
     0
290
     0
174
     0
 93
        1
 44
0.0
173
     0
291
     1
 45
0.0
  0
VISUALSTYLE
  5
34
102
{ACAD_REACTORS
330
2A
102
}
102
{ACAD_XDICTIONARY
360
6BF
102
}
330
2A
100
AcDbVisualStyle
  2
Conceptual
 70
     9
 71
     3
 72
     2
 73
     0
 90
        0
 40
0.6
 41
30.0
 62
     5
 63
     7
421
 16777215
 74
     2
 91
        2
 64
     7
 65
   257
 75
     1
175
     1
 42
179.0
 92
        8
 66
     7
 43
1.0
 76
     1
 77
     6
 78
     2
 67
     7
 79
     3
170
     0
171
     0
290
     0
174
     0
 93
        1
 44
0.0
173
     0
291
     0
 45
0.0
  0
VISUALSTYLE
  5
35
102
{ACAD_REACTORS
330
2A
102
}
102
{ACAD_XDICTIONARY
360
6C1
102
}
330
2A
100
AcDbVisualStyle
  2
Dim
 70
    11
 71
     2
 72
     2
 73
     0
 90
        0
 40
0.6
 41
30.0
 62
     5
 63
     7
421
 16777215
 74
     1
 91
        4
 64
     7
 65
   257
 75
     1
175
     1
 42
1.0
 92
        8
 66
     7
 43
1.0
 76
     1
 77
     6
 78
     2
 67
     7
 79
     5
170
     0
171
     0
290
     0
174
     0
 93
        1
 44
-50.0
173
     0
291
     1
 45
0.0
  0
VISUALSTYLE
  5
3D
102
{ACAD_REACTORS
330
2A
102
}
102
{ACAD_XDICTIONARY
360
6D1
102
}
330
2A
100
AcDbVisualStyle
  2
EdgeColorOff
 70
    22
 71
     2
 72
     2
 73
     0
 90
        0
 40
0.6
 41
30.0
 62
     5
 63
     7
421
 16777215
 74
     1
 91
        4
 64
     7
 65
   257
 75
     1
175
     1
 42
1.0
 92
        8
 66
     7
 43
1.0
 76
     1
 77
     6
 78
     2
 67
     7
 79
     5
170
     0
171
     0
290
     0
174
     0
 93
        1
 44
0.0
173
     0
291
     1
 45
0.0
  0
VISUALSTYLE
  5
39
102
{ACAD_REACTORS
330
2A
102
}
102
{ACAD_XDICTIONARY
360
6C9
102
}
330
2A
100
AcDbVisualStyle
  2
Facepattern
 70
    15
 71
     2
 72
     2
 73
     0
 90
        0
 40
0.6
 41
30.0
 62
     5
 63
     7
421
 16777215
 74
     1
 91
        4
 64
     7
 65
   257
 75
     1
175
     1
 42
1.0
 92
        8
 66
     7
 43
1.0
 76
     1
 77
     6
 78
     2
 67
     7
 79
     5
170
     0
171
     0
290
     0
174
     0
 93
        1
 44
0.0
173
     0
291
     1
 45
0.0
  0
VISUALSTYLE
  5
2B
102
{ACAD_REACTORS
330
2A
102
}
102
{ACAD_XDICTIONARY
360
6AD
102
}
330
2A
100
AcDbVisualStyle
  2
Flat
 70
     0
 71
     2
 72
     1
 73
     1
 90
        2
 40
0.6
 41
30.0
 62
     5
 63
     7
421
 16777215
 74
     0
 91
        0
 64
     7
 65
   257
 75
     1
175
     1
 42
1.0
 92
        8
 66
     7
 43
1.0
 76
     1
 77
     6
 78
     2
 67
     7
 79
     5
170
     0
171
     0
290
     0
174
     0
 93
       13
 44
0.0
173
     0
291
     1
 45
0.0
  0
VISUALSTYLE
  5
2C
102
{ACAD_REACTORS
330
2A
102
}
102
{ACAD_XDICTIONARY
360
6AF
102
}
330
2A
100
AcDbVisualStyle
  2
FlatWithEdges
 70
     1
 71
     2
 72
     1
 73
     1
 90
        2
 40
0.6
 41
30.0
 62
     5
 63
     7
421
 16777215
 74
     1
 91
        0
 64
     7
 65
   257
 75
     1
175
     1
 42
1.0
 92
        0
 66
   257
 43
1.0
 76
     1
 77
     6
 78
     2
 67
     7
 79
     5
170
     0
171
     0
290
     0
174
     0
 93
       13
 44
0.0
173
     0
291
     1
 45
0.0
  0
VISUALSTYLE
  5
2D
102
{ACAD_REACTORS
330
2A
102
}
102
{ACAD_XDICTIONARY
360
6B1
102
}
330
2A
100
AcDbVisualStyle
  2
Gouraud
 70
     2
 71
     2
 72
     2
 73
     1
 90
        2
 40
0.6
 41
30.0
 62
     5
 63
     7
421
 16777215
 74
     0
 91
        0
 64
     7
 65
   257
 75
     1
175
     1
 42
1.0
 92
        0
 66
     7
 43
1.0
 76
     1
 77
     6
 78
     2
 67
     7
 79
     5
170
     0
171
     0
290
     0
174
     0
 93
       13
 44
0.0
173
     0
291
     1
 45
0.0
  0
VISUALSTYLE
  5
2E
102
{ACAD_REACTORS
330
2A
102
}
102
{ACAD_XDICTIONARY
360
6B3
102
}
330
2A
100
AcDbVisualStyle
  2
GouraudWithEdges
 70
     3
 71
     2
 72
     2
 73
     1
 90
        2
 40
0.6
 41
30.0
 62
     5
 63
     7
421
 16777215
 74
     1
 91
        0
 64
     7
 65
   257
 75
     1
175
     1
 42
1.0
 92
        0
 66
   257
 43
1.0
 76
     1
 77
     6
 78
     2
 67
     7
 79
     5
170
     0
171
     0
290
     0
174
     0
 93
       13
 44
0.0
173
     0
291
     1
 45
0.0
  0
VISUALSTYLE
  5
31
102
{ACAD_REACTORS
330
2A
102
}
102
{ACAD_XDICTIONARY
360
6B9
102
}
330
2A
100
AcDbVisualStyle
  2
Hidden
 70
     6
 71
     1
 72
     2
 73
     2
 90
        0
 40
0.6
 41
30.0
 62
     5
 63
     7
421
 16777215
 74
     2
 91
        2
 64
     7
 65
   257
 75
     2
175
     1
 42
40.0
 92
        0
 66
   257
 43
1.0
 76
     1
 77
     6
 78
     2
 67
     7
 79
     3
170
     0
171
     0
290
     0
174
     0
 93
        1
 44
0.0
173
     0
291
     0
 45
0.0
  0
VISUALSTYLE
  5
3B
102
{ACAD_REACTORS
330
2A
102
}
102
{ACAD_XDICTIONARY
360
6CD
102
}
330
2A
100
AcDbVisualStyle
  2
JitterOff
 70
    20
 71
     2
 72
     2
 73
     0
 90
        0
 40
0.6
 41
30.0
 62
     5
 63
     7
421
 16777215
 74
     1
 91
        4
 64
     7
 65
   257
 75
     1
175
     1
 42
1.0
 92
       10
 66
     7
 43
1.0
 76
     1
 77
     6
 78
     2
 67
     7
 79
     5
170
     0
171
     0
290
     0
174
     0
 93
        1
 44
0.0
173
     0
291
     1
 45
0.0
  0
VISUALSTYLE
  5
38
102
{ACAD_REACTORS
330
2A
102
}
102
{ACAD_XDICTIONARY
360
6C7
102
}
330
2A
100
AcDbVisualStyle
  2
Linepattern
 70
    14
 71
     2
 72
     2
 73
     0
 90
        0
 40
0.6
 41
30.0
 62
     5
 63
     7
421
 16777215
 74
     1
 91
        4
 64
     7
 65
   257
 75
     7
175
     7
 42
1.0
 92
        8
 66
     7
 43
1.0
 76
     1
 77
     6
 78
     2
 67
     7
 79
     5
170
     0
171
     0
290
     0
174
     0
 93
        1
 44
0.0
173
     0
291
     1
 45
0.0
  0
VISUALSTYLE
  5
3C
102
{ACAD_REACTORS
330
2A
102
}
102
{ACAD_XDICTIONARY
360
6CF
102
}
330
2A
100
AcDbVisualStyle
  2
OverhangOff
 70
    21
 71
     2
 72
     2
 73
     0
 90
        0
 40
0.6
 41
30.0
 62
     5
 63
     7
421
 16777215
 74
     1
 91
        4
 64
     7
 65
   257
 75
     1
175
     1
 42
1.0
 92
        9
 66
     7
 43
1.0
 76
     1
 77
     6
 78
     2
 67
     7
 79
     5
170
     0
171
     0
290
     0
174
     0
 93
        1
 44
0.0
173
     0
291
     1
 45
0.0
  0
VISUALSTYLE
  5
33
102
{ACAD_REACTORS
330
2A
102
}
102
{ACAD_XDICTIONARY
360
6BD
102
}
330
2A
100
AcDbVisualStyle
  2
Realistic
 70
     8
 71
     2
 72
     3
 73
     0
 90
        2
 40
0.6
 41
30.0
 62
     5
 63
     7
421
 16777215
 74
     0
 91
        0
 64
     7
 65
   257
 75
     1
175
     1
 42
1.0
 92
        8
 66
   257
 43
1.0
 76
     1
 77
     6
 78
     2
 67
     7
 79
     3
170
     0
171
     0
290
     0
174
     0
 93
       13
 44
0.0
173
     0
291
     0
 45
0.0
  0
VISUALSTYLE
  5
42
102
{ACAD_REACTORS
330
2A
102
}
102
{ACAD_XDICTIONARY
360
6DB
102
}
330
2A
100
AcDbVisualStyle
  2
Shaded
 70
    27
 71
     2
 72
     2
 73
     1
 90
        2
 40
0.6
 41
30.0
 62
     5
 63
     7
421
 16777215
 74
     0
 91
        4
 64
     7
 65
   257
 75
     1
175
     1
 42
1.0
 92
        8
 66
   257
 43
1.0
 76
     1
 77
     6
 78
     2
 67
     8
425
  7895160
 79
     3
170
     0
171
     0
290
     0
174
     0
 93
        5
 44
0.0
173
     0
291
     0
 45
0.0
  0
VISUALSTYLE
  5
41
102
{ACAD_REACTORS
330
2A
102
}
102
{ACAD_XDICTIONARY
360
6D9
102
}
330
2A
100
AcDbVisualStyle
  2
Shaded with edges
 70
    26
 71
     2
 72
     2
 73
     1
 90
        2
 40
0.6
 41
30.0
 62
     5
 63
     7
421
 16777215
 74
     1
 91
       10
 64
     7
 65
   257
 75
     2
175
     1
 42
1.0
 92
        8
 66
   257
 43
1.0
 76
     1
 77
     6
 78
     2
 67
     7
 79
     3
170
     0
171
     0
290
     0
174
     0
 93
        5
 44
0.0
173
     0
291
     0
 45
0.0
  0
VISUALSTYLE
  5
3E
102
{ACAD_REACTORS
330
2A
102
}
102
{ACAD_XDICTIONARY
360
6D3
102
}
330
2A
100
AcDbVisualStyle
  2
Shades of Gray
 70
    23
 71
     2
 72
     2
 73
     3
 90
        0
 40
0.6
 41
30.0
 62
     5
 63
     7
421
 16777215
 74
     2
 91
        2
 64
     7
 65
     7
 75
     1
175
     1
 42
40.0
 92
        8
 66
     7
 43
1.0
 76
     1
 77
     6
 78
     2
 67
     7
 79
     3
170
     0
171
     0
290
     0
174
     0
 93
        1
 44
0.0
173
     0
291
     0
 45
0.0
  0
VISUALSTYLE
  5
3F
102
{ACAD_REACTORS
330
2A
102
}
102
{ACAD_XDICTIONARY
360
6D5
102
}
330
2A
100
AcDbVisualStyle
  2
Sketchy
 70
    24
 71
     1
 72
     2
 73
     2
 90
        0
 40
0.6
 41
30.0
 62
     5
 63
     7
421
 16777215
 74
     2
 91
        2
 64
     7
 65
     7
 75
     1
175
     1
 42
40.0
 92
       11
 66
     7
 43
1.0
 76
     1
 77
     6
 78
     2
 67
     7
 79
     6
170
     0
171
     0
290
     0
174
     0
 93
        1
 44
0.0
173
     0
291
     0
 45
0.0
  0
VISUALSTYLE
  5
37
102
{ACAD_REACTORS
330
2A
102
}
102
{ACAD_XDICTIONARY
360
6C5
102
}
330
2A
100
AcDbVisualStyle
  2
Thicken
 70
    13
 71
     2
 72
     2
 73
     0
 90
        0
 40
0.6
 41
30.0
 62
     5
 63
     7
421
 16777215
 74
     1
 91
        4
 64
     7
 65
   257
 75
     1
175
     1
 42
1.0
 92
       12
 66
     7
 43
1.0
 76
     1
 77
     6
 78
     2
 67
     7
 79
     5
170
     0
171
     0
290
     0
174
     0
 93
        1
 44
0.0
173
     0
291
     1
 45
0.0
  0
VISUALSTYLE
  5
30
102
{ACAD_REACTORS
330
2A
102
}
102
{ACAD_XDICTIONARY
360
6B7
102
}
330
2A
100
AcDbVisualStyle
  2
Wireframe
 70
     5
 71
     0
 72
     2
 73
     0
 90
        0
 40
0.6
 41
30.0
 62
     5
 63
     7
421
 16777215
 74
     1
 91
        4
 64
     7
 65
   257
 75
     1
175
     1
 42
1.0
 92
        0
 66
   257
 43
1.0
 76
     1
 77
     6
 78
     2
 67
     7
 79
     3
170
     0
171
     0
290
     0
174
     0
 93
        1
 44
0.0
173
     0
291
     0
 45
0.0
  0
VISUALSTYLE
  5
40
102
{ACAD_REACTORS
330
2A
102
}
102
{ACAD_XDICTIONARY
360
6D7
102
}
330
2A
100
AcDbVisualStyle
  2
X-Ray
 70
    25
 71
     2
 72
     2
 73
     1
 90
        1
 40
0.5
 41
30.0
 62
     5
 63
     7
421
 16777215
 74
     1
 91
        0
 64
     7
 65
   257
 75
     1
175
     1
 42
1.0
 92
        8
 66
     7
 43
1.0
 76
     1
 77
     6
 78
     2
 67
     7
 79
     3
170
     0
171
     0
290
     0
174
     0
 93
       13
 44
0.0
173
     0
291
     0
 45
0.0
  0
DICTIONARYVAR
  5
6AB
102
{ACAD_REACTORS
330
6AA
102
}
330
6AA
100
DictionaryVariables
280
     0
  1
1:1
  0
DICTIONARYVAR
  5
6E4
102
{ACAD_REACTORS
330
6AA
102
}
330
6AA
100
DictionaryVariables
280
     0
  1
Standard
  0
DICTIONARYVAR
  5
6E3
102
{ACAD_REACTORS
330
6AA
102
}
330
6AA
100
DictionaryVariables
280
     0
  1
Standard
  0
DICTIONARYVAR
  5
6AC
102
{ACAD_REACTORS
330
6AA
102
}
330
6AA
100
DictionaryVariables
280
     0
  1
2
  0
DICTIONARY
  5
6E0
330
6C
100
AcDbDictionary
280
     1
281
     1
  3
ACAD_XREC_ROUNDTRIP
360
6E1
  0
DICTIONARY
  5
6DD
330
6A
100
AcDbDictionary
280
     1
281
     1
  3
ACAD_ROUNDTRIP_2008_TABLESTYLE_CELLSTYLEMAP
360
6DE
  0
DICTIONARY
  5
6B5
330
2F
100
AcDbDictionary
280
     1
281
     1
  3
ACAD_XREC_ROUNDTRIP
360
6B6
  0
DICTIONARY
  5
6BB
330
32
100
AcDbDictionary
280
     1
281
     1
  3
ACAD_XREC_ROUNDTRIP
360
6BC
  0
DICTIONARY
  5
6C3
330
36
100
AcDbDictionary
280
     1
281
     1
  3
ACAD_XREC_ROUNDTRIP
360
6C4
  0
DICTIONARY
  5
6CB
330
3A
100
AcDbDictionary
280
     1
281
     1
  3
ACAD_XREC_ROUNDTRIP
360
6CC
  0
DICTIONARY
  5
6BF
330
34
100
AcDbDictionary
280
     1
281
     1
  3
ACAD_XREC_ROUNDTRIP
360
6C0
  0
DICTIONARY
  5
6C1
330
35
100
AcDbDictionary
280
     1
281
     1
  3
ACAD_XREC_ROUNDTRIP
360
6C2
  0
DICTIONARY
  5
6D1
330
3D
100
AcDbDictionary
280
     1
281
     1
  3
ACAD_XREC_ROUNDTRIP
360
6D2
  0
DICTIONARY
  5
6C9
330
39
100
AcDbDictionary
280
     1
281
     1
  3
ACAD_XREC_ROUNDTRIP
360
6CA
  0
DICTIONARY
  5
6AD
330
2B
100
AcDbDictionary
280
     1
281
     1
  3
ACAD_XREC_ROUNDTRIP
360
6AE
  0
DICTIONARY
  5
6AF
330
2C
100
AcDbDictionary
280
     1
281
     1
  3
ACAD_XREC_ROUNDTRIP
360
6B0
  0
DICTIONARY
  5
6B1
330
2D
100
AcDbDictionary
280
     1
281
     1
  3
ACAD_XREC_ROUNDTRIP
360
6B2
  0
DICTIONARY
  5
6B3
330
2E
100
AcDbDictionary
280
     1
281
     1
  3
ACAD_XREC_ROUNDTRIP
360
6B4
  0
DICTIONARY
  5
6B9
330
31
100
AcDbDictionary
280
     1
281
     1
  3
ACAD_XREC_ROUNDTRIP
360
6BA
  0
DICTIONARY
  5
6CD
330
3B
100
AcDbDictionary
280
     1
281
     1
  3
ACAD_XREC_ROUNDTRIP
360
6CE
  0
DICTIONARY
  5
6C7
330
38
100
AcDbDictionary
280
     1
281
     1
  3
ACAD_XREC_ROUNDTRIP
360
6C8
  0
DICTIONARY
  5
6CF
330
3C
100
AcDbDictionary
280
     1
281
     1
  3
ACAD_XREC_ROUNDTRIP
360
6D0
  0
DICTIONARY
  5
6BD
330
33
100
AcDbDictionary
280
     1
281
     1
  3
ACAD_XREC_ROUNDTRIP
360
6BE
  0
DICTIONARY
  5
6DB
330
42
100
AcDbDictionary
280
     1
281
     1
  3
ACAD_XREC_ROUNDTRIP
360
6DC
  0
DICTIONARY
  5
6D9
330
41
100
AcDbDictionary
280
     1
281
     1
  3
ACAD_XREC_ROUNDTRIP
360
6DA
  0
DICTIONARY
  5
6D3
330
3E
100
AcDbDictionary
280
     1
281
     1
  3
ACAD_XREC_ROUNDTRIP
360
6D4
  0
DICTIONARY
  5
6D5
330
3F
100
AcDbDictionary
280
     1
281
     1
  3
ACAD_XREC_ROUNDTRIP
360
6D6
  0
DICTIONARY
  5
6C5
330
37
100
AcDbDictionary
280
     1
281
     1
  3
ACAD_XREC_ROUNDTRIP
360
6C6
  0
DICTIONARY
  5
6B7
330
30
100
AcDbDictionary
280
     1
281
     1
  3
ACAD_XREC_ROUNDTRIP
360
6B8
  0
DICTIONARY
  5
6D7
330
40
100
AcDbDictionary
280
     1
281
     1
  3
ACAD_XREC_ROUNDTRIP
360
6D8
  0
XRECORD
  5
6E1
102
{ACAD_REACTORS
330
6E0
102
}
330
6E0
100
AcDbXrecord
280
     1
102
ACAD_ROUNDTRIP_2010_MLEADER_STYLE
  0
CELLSTYLEMAP
  5
6DE
102
{ACAD_REACTORS
330
6DD
102
}
330
6DD
100
AcDbCellStyleMap
 90
        3
300
CELLSTYLE
  1
TABLEFORMAT_BEGIN
 90
        5
170
     1
 91
        0
 92
    32768
 62
   257
 93
        1
300
CONTENTFORMAT
  1
CONTENTFORMAT_BEGIN
 90
        0
 91
        0
 92
        4
 93
        0
300

 40
0.0
140
1.0
 94
        5
 62
     0
340
11
144
0.25
309
CONTENTFORMAT_END
171
     1
301
MARGIN
  1
CELLMARGIN_BEGIN
 40
0.06
 40
0.06
 40
0.06
 40
0.06
 40
0.06
 40
0.06
309
CELLMARGIN_END
 94
        6
 95
        1
302
GRIDFORMAT
  1
GRIDFORMAT_BEGIN
 90
        0
 91
        1
 62
     0
 92
       -2
340
14
 93
        0
 40
0.045
309
GRIDFORMAT_END
 95
        2
302
GRIDFORMAT
  1
GRIDFORMAT_BEGIN
 90
        0
 91
        1
 62
     0
 92
       -2
340
14
 93
        0
 40
0.045
309
GRIDFORMAT_END
 95
        4
302
GRIDFORMAT
  1
GRIDFORMAT_BEGIN
 90
        0
 91
        1
 62
     0
 92
       -2
340
14
 93
        0
 40
0.045
309
GRIDFORMAT_END
 95
        8
302
GRIDFORMAT
  1
GRIDFORMAT_BEGIN
 90
        0
 91
        1
 62
     0
 92
       -2
340
14
 93
        0
 40
0.045
309
GRIDFORMAT_END
 95
       16
302
GRIDFORMAT
  1
GRIDFORMAT_BEGIN
 90
        0
 91
        1
 62
     0
 92
       -2
340
14
 93
        0
 40
0.045
309
GRIDFORMAT_END
 95
       32
302
GRIDFORMAT
  1
GRIDFORMAT_BEGIN
 90
        0
 91
        1
 62
     0
 92
       -2
340
14
 93
        0
 40
0.045
309
GRIDFORMAT_END
309
TABLEFORMAT_END
  1
CELLSTYLE_BEGIN
 90
        1
 91
        1
300
_TITLE
309
CELLSTYLE_END
300
CELLSTYLE
  1
TABLEFORMAT_BEGIN
 90
        5
170
     1
 91
        0
 92
        0
 62
   257
 93
        1
300
CONTENTFORMAT
  1
CONTENTFORMAT_BEGIN
 90
        0
 91
        0
 92
        4
 93
        0
300

 40
0.0
140
1.0
 94
        5
 62
     0
340
11
144
0.18
309
CONTENTFORMAT_END
171
     1
301
MARGIN
  1
CELLMARGIN_BEGIN
 40
0.06
 40
0.06
 40
0.06
 40
0.06
 40
0.06
 40
0.06
309
CELLMARGIN_END
 94
        6
 95
        1
302
GRIDFORMAT
  1
GRIDFORMAT_BEGIN
 90
        0
 91
        1
 62
     0
 92
       -2
340
14
 93
        0
 40
0.045
309
GRIDFORMAT_END
 95
        2
302
GRIDFORMAT
  1
GRIDFORMAT_BEGIN
 90
        0
 91
        1
 62
     0
 92
       -2
340
14
 93
        0
 40
0.045
309
GRIDFORMAT_END
 95
        4
302
GRIDFORMAT
  1
GRIDFORMAT_BEGIN
 90
        0
 91
        1
 62
     0
 92
       -2
340
14
 93
        0
 40
0.045
309
GRIDFORMAT_END
 95
        8
302
GRIDFORMAT
  1
GRIDFORMAT_BEGIN
 90
        0
 91
        1
 62
     0
 92
       -2
340
14
 93
        0
 40
0.045
309
GRIDFORMAT_END
 95
       16
302
GRIDFORMAT
  1
GRIDFORMAT_BEGIN
 90
        0
 91
        1
 62
     0
 92
       -2
340
14
 93
        0
 40
0.045
309
GRIDFORMAT_END
 95
       32
302
GRIDFORMAT
  1
GRIDFORMAT_BEGIN
 90
        0
 91
        1
 62
     0
 92
       -2
340
14
 93
        0
 40
0.045
309
GRIDFORMAT_END
309
TABLEFORMAT_END
  1
CELLSTYLE_BEGIN
 90
        2
 91
        1
300
_HEADER
309
CELLSTYLE_END
300
CELLSTYLE
  1
TABLEFORMAT_BEGIN
 90
        5
170
     1
 91
        0
 92
        0
 62
   257
 93
        1
300
CONTENTFORMAT
  1
CONTENTFORMAT_BEGIN
 90
        0
 91
        0
 92
        4
 93
        0
300

 40
0.0
140
1.0
 94
        2
 62
     0
340
11
144
0.18
309
CONTENTFORMAT_END
171
     1
301
MARGIN
  1
CELLMARGIN_BEGIN
 40
0.06
 40
0.06
 40
0.06
 40
0.06
 40
0.06
 40
0.06
309
CELLMARGIN_END
 94
        6
 95
        1
302
GRIDFORMAT
  1
GRIDFORMAT_BEGIN
 90
        0
 91
        1
 62
     0
 92
       -2
340
14
 93
        0
 40
0.045
309
GRIDFORMAT_END
 95
        2
302
GRIDFORMAT
  1
GRIDFORMAT_BEGIN
 90
        0
 91
        1
 62
     0
 92
       -2
340
14
 93
        0
 40
0.045
309
GRIDFORMAT_END
 95
        4
302
GRIDFORMAT
  1
GRIDFORMAT_BEGIN
 90
        0
 91
        1
 62
     0
 92
       -2
340
14
 93
        0
 40
0.045
309
GRIDFORMAT_END
 95
        8
302
GRIDFORMAT
  1
GRIDFORMAT_BEGIN
 90
        0
 91
        1
 62
     0
 92
       -2
340
14
 93
        0
 40
0.045
309
GRIDFORMAT_END
 95
       16
302
GRIDFORMAT
  1
GRIDFORMAT_BEGIN
 90
        0
 91
        1
 62
     0
 92
       -2
340
14
 93
        0
 40
0.045
309
GRIDFORMAT_END
 95
       32
302
GRIDFORMAT
  1
GRIDFORMAT_BEGIN
 90
        0
 91
        1
 62
     0
 92
       -2
340
14
 93
        0
 40
0.045
309
GRIDFORMAT_END
309
TABLEFORMAT_END
  1
CELLSTYLE_BEGIN
 90
        3
 91
        2
300
_DATA
309
CELLSTYLE_END
  0
XRECORD
  5
6B6
102
{ACAD_REACTORS
330
6B5
102
}
330
6B5
100
AcDbXrecord
280
     1
102
RTVSPropertyOp0
 70
     1
102
RTVSPropertyOp1
 70
     1
102
RTVSPropertyOp2
 70
     1
102
RTVSPropertyOp3
 70
     1
102
RTVSPropertyOp4
 70
     1
102
RTVSPropertyOp5
 70
     1
102
RTVSPropertyOp6
 70
     1
102
RTVSPropertyOp7
 70
     1
102
RTVSPropertyOp8
 70
     1
102
RTVSPropertyOp9
 70
     1
102
RTVSPropertyOp10
 70
     1
102
RTVSPropertyOp11
 70
     1
102
RTVSPropertyOp12
 70
     1
102
RTVSPropertyOp13
 70
     1
102
RTVSPropertyOp14
 70
     1
102
RTVSPropertyOp15
 70
     1
102
RTVSPropertyOp16
 70
     1
102
RTVSPropertyOp17
 70
     1
102
RTVSPropertyOp18
 70
     1
102
RTVSPropertyOp19
 70
     1
102
RTVSPropertyOp20
 70
     1
102
RTVSPropertyOp21
 70
     1
102
RTVSPropertyOp22
 70
     1
102
RTVSPropertyOp23
 70
     1
102
RTVSPropertyOp24
 70
     1
102
RTVSPropertyOp25
 70
     1
102
RTVSPropertyOp26
 70
     1
102
RTVSPropertyOp27
 70
     1
102
RTVSPropertyOp28
 70
     1
102
RTVSPropertyOp29
 70
     1
102
RTVSPropertyOp30
 70
     1
102
RTVSPropertyOp31
 70
     1
102
RTVSPropertyOp32
 70
     1
102
RTVSPropertyOp33
 70
     1
102
RTVSPropertyOp34
 70
     1
102
RTVSPropertyOp35
 70
     1
102
RTVSPropertyOp36
 70
     1
102
RTVSPropertyOp37
 70
     1
102
RTVSPropertyOp38
 70
     1
102
RTVSPropertyOp39
 70
     1
102
RTVSPropertyOp40
 70
     1
102
RTVSPropertyOp41
 70
     1
102
RTVSPropertyOp42
 70
     1
102
RTVSPropertyOp43
 70
     1
102
RTVSPropertyOp44
 70
     1
102
RTVSPropertyOp45
 70
     1
102
RTVSPropertyOp46
 70
     1
102
RTVSPropertyOp47
 70
     1
102
RTVSPropertyOp48
 70
     1
102
RTVSPropertyOp49
 70
     1
102
RTVSPropertyOp50
 70
     1
102
RTVSPropertyOp51
 70
     0
102
RTVSPropertyOp52
 70
     0
102
RTVSPropertyOp53
 70
     1
102
RTVSPropertyOp54
 70
     1
102
RTVSPropertyOp55
 70
     1
102
RTVSPropertyOp56
 70
     1
102
RTVSPropertyOp57
 70
     1
102
RTVSPost2010Prop28
280
     1
102
RTVSPost2010PropOp28
 70
     1
102
RTVSPost2010Prop29
280
     1
102
RTVSPost2010PropOp29
 70
     1
102
RTVSPost2010Prop30
280
     0
102
RTVSPost2010PropOp30
 70
     1
102
RTVSPost2010Prop31
280
     0
102
RTVSPost2010PropOp31
 70
     1
102
RTVSPost2010Prop32
280
     0
102
RTVSPost2010PropOp32
 70
     1
102
RTVSPost2010Prop33
280
     0
102
RTVSPost2010PropOp33
 70
     1
102
RTVSPost2010Prop34
280
     0
102
RTVSPost2010PropOp34
 70
     1
102
RTVSPost2010Prop35
280
     0
102
RTVSPost2010PropOp35
 70
     1
102
RTVSPost2010Prop36
280
     0
102
RTVSPost2010PropOp36
 70
     1
102
RTVSPost2010Prop37
 90
       50
102
RTVSPost2010PropOp37
 70
     1
102
RTVSPost2010Prop38
140
0.0
102
RTVSPost2010PropOp38
 70
     1
102
RTVSPost2010Prop39
140
1.0
102
RTVSPost2010PropOp39
 70
     1
102
RTVSPost2010Prop40
 90
        0
102
RTVSPost2010PropOp40
 70
     1
102
RTVSPost2010Prop41ColorIndex
 90
       18
102
RTVSPost2010Prop41ColorRGB
 90
        0
102
RTVSPost2010PropOp41
 70
     1
102
RTVSPost2010Prop42
 90
       50
102
RTVSPost2010PropOp42
 70
     1
102
RTVSPost2010Prop43
 90
        3
102
RTVSPost2010PropOp43
 70
     1
102
RTVSPost2010Prop44ColorIndex
 90
        5
102
RTVSPost2010Prop44ColorRGB
 90
      255
102
RTVSPost2010PropOp44
 70
     1
102
RTVSPost2010Prop45
280
     0
102
RTVSPost2010PropOp45
 70
     1
102
RTVSPost2010Prop46
 90
       50
102
RTVSPost2010PropOp46
 70
     1
102
RTVSPost2010Prop47
 90
       50
102
RTVSPost2010PropOp47
 70
     1
102
RTVSPost2010Prop48
 90
       50
102
RTVSPost2010PropOp48
 70
     1
102
RTVSPost2010Prop49
280
     0
102
RTVSPost2010PropOp49
 70
     1
102
RTVSPost2010Prop50
 90
       50
102
RTVSPost2010PropOp50
 70
     1
102
RTVSPost2010Prop51ColorIndex
 90
      256
102
RTVSPost2010Prop51ColorRGB
 90
-16777216
102
RTVSPost2010PropOp51
 70
     0
102
RTVSPost2010Prop52
140
1.0
102
RTVSPost2010PropOp52
 70
     0
102
RTVSPost2010Prop53
 90
        2
102
RTVSPost2010PropOp53
 70
     1
102
RTVSPost2010Prop54
  1
strokes_ogs.tif
102
RTVSPost2010PropOp54
 70
     1
102
RTVSPost2010Prop55
280
     0
102
RTVSPost2010PropOp55
 70
     1
102
RTVSPost2010Prop56
140
1.0
102
RTVSPost2010PropOp56
 70
     1
102
RTVSPost2010Prop57
140
1.0
102
RTVSPost2010PropOp57
 70
     1
  0
XRECORD
  5
6BC
102
{ACAD_REACTORS
330
6BB
102
}
330
6BB
100
AcDbXrecord
280
     1
102
RTVSPropertyOp0
 70
     1
102
RTVSPropertyOp1
 70
     1
102
RTVSPropertyOp2
 70
     1
102
RTVSPropertyOp3
 70
     1
102
RTVSPropertyOp4
 70
     1
102
RTVSPropertyOp5
 70
     1
102
RTVSPropertyOp6
 70
     1
102
RTVSPropertyOp7
 70
     1
102
RTVSPropertyOp8
 70
     1
102
RTVSPropertyOp9
 70
     1
102
RTVSPropertyOp10
 70
     1
102
RTVSPropertyOp11
 70
     1
102
RTVSPropertyOp12
 70
     1
102
RTVSPropertyOp13
 70
     1
102
RTVSPropertyOp14
 70
     1
102
RTVSPropertyOp15
 70
     1
102
RTVSPropertyOp16
 70
     1
102
RTVSPropertyOp17
 70
     1
102
RTVSPropertyOp18
 70
     1
102
RTVSPropertyOp19
 70
     1
102
RTVSPropertyOp20
 70
     1
102
RTVSPropertyOp21
 70
     1
102
RTVSPropertyOp22
 70
     1
102
RTVSPropertyOp23
 70
     1
102
RTVSPropertyOp24
 70
     1
102
RTVSPropertyOp25
 70
     1
102
RTVSPropertyOp26
 70
     1
102
RTVSPropertyOp27
 70
     1
102
RTVSPropertyOp28
 70
     1
102
RTVSPropertyOp29
 70
     1
102
RTVSPropertyOp30
 70
     1
102
RTVSPropertyOp31
 70
     1
102
RTVSPropertyOp32
 70
     1
102
RTVSPropertyOp33
 70
     1
102
RTVSPropertyOp34
 70
     1
102
RTVSPropertyOp35
 70
     1
102
RTVSPropertyOp36
 70
     1
102
RTVSPropertyOp37
 70
     1
102
RTVSPropertyOp38
 70
     1
102
RTVSPropertyOp39
 70
     1
102
RTVSPropertyOp40
 70
     1
102
RTVSPropertyOp41
 70
     1
102
RTVSPropertyOp42
 70
     1
102
RTVSPropertyOp43
 70
     1
102
RTVSPropertyOp44
 70
     1
102
RTVSPropertyOp45
 70
     1
102
RTVSPropertyOp46
 70
     1
102
RTVSPropertyOp47
 70
     1
102
RTVSPropertyOp48
 70
     1
102
RTVSPropertyOp49
 70
     1
102
RTVSPropertyOp50
 70
     1
102
RTVSPropertyOp51
 70
     0
102
RTVSPropertyOp52
 70
     0
102
RTVSPropertyOp53
 70
     1
102
RTVSPropertyOp54
 70
     1
102
RTVSPropertyOp55
 70
     1
102
RTVSPropertyOp56
 70
     1
102
RTVSPropertyOp57
 70
     1
102
RTVSPost2010Prop28
280
     0
102
RTVSPost2010PropOp28
 70
     1
102
RTVSPost2010Prop29
280
     1
102
RTVSPost2010PropOp29
 70
     1
102
RTVSPost2010Prop30
280
     1
102
RTVSPost2010PropOp30
 70
     1
102
RTVSPost2010Prop31
280
     0
102
RTVSPost2010PropOp31
 70
     1
102
RTVSPost2010Prop32
280
     0
102
RTVSPost2010PropOp32
 70
     1
102
RTVSPost2010Prop33
280
     0
102
RTVSPost2010PropOp33
 70
     1
102
RTVSPost2010Prop34
280
     0
102
RTVSPost2010PropOp34
 70
     1
102
RTVSPost2010Prop35
280
     0
102
RTVSPost2010PropOp35
 70
     1
102
RTVSPost2010Prop36
280
     0
102
RTVSPost2010PropOp36
 70
     1
102
RTVSPost2010Prop37
 90
       50
102
RTVSPost2010PropOp37
 70
     1
102
RTVSPost2010Prop38
140
0.0
102
RTVSPost2010PropOp38
 70
     1
102
RTVSPost2010Prop39
140
1.0
102
RTVSPost2010PropOp39
 70
     1
102
RTVSPost2010Prop40
 90
        0
102
RTVSPost2010PropOp40
 70
     1
102
RTVSPost2010Prop41ColorIndex
 90
       18
102
RTVSPost2010Prop41ColorRGB
 90
        0
102
RTVSPost2010PropOp41
 70
     1
102
RTVSPost2010Prop42
 90
       50
102
RTVSPost2010PropOp42
 70
     1
102
RTVSPost2010Prop43
 90
        3
102
RTVSPost2010PropOp43
 70
     1
102
RTVSPost2010Prop44ColorIndex
 90
        5
102
RTVSPost2010Prop44ColorRGB
 90
      255
102
RTVSPost2010PropOp44
 70
     1
102
RTVSPost2010Prop45
280
     0
102
RTVSPost2010PropOp45
 70
     1
102
RTVSPost2010Prop46
 90
       50
102
RTVSPost2010PropOp46
 70
     1
102
RTVSPost2010Prop47
 90
       50
102
RTVSPost2010PropOp47
 70
     1
102
RTVSPost2010Prop48
 90
       50
102
RTVSPost2010PropOp48
 70
     1
102
RTVSPost2010Prop49
280
     0
102
RTVSPost2010PropOp49
 70
     1
102
RTVSPost2010Prop50
 90
       50
102
RTVSPost2010PropOp50
 70
     1
102
RTVSPost2010Prop51ColorIndex
 90
      256
102
RTVSPost2010Prop51ColorRGB
 90
-16777216
102
RTVSPost2010PropOp51
 70
     0
102
RTVSPost2010Prop52
140
1.0
102
RTVSPost2010PropOp52
 70
     0
102
RTVSPost2010Prop53
 90
        2
102
RTVSPost2010PropOp53
 70
     1
102
RTVSPost2010Prop54
  1
strokes_ogs.tif
102
RTVSPost2010PropOp54
 70
     1
102
RTVSPost2010Prop55
280
     0
102
RTVSPost2010PropOp55
 70
     1
102
RTVSPost2010Prop56
140
1.0
102
RTVSPost2010PropOp56
 70
     1
102
RTVSPost2010Prop57
140
1.0
102
RTVSPost2010PropOp57
 70
     1
  0
XRECORD
  5
6C4
102
{ACAD_REACTORS
330
6C3
102
}
330
6C3
100
AcDbXrecord
280
     1
102
RTVSPropertyOp0
 70
     1
102
RTVSPropertyOp1
 70
     1
102
RTVSPropertyOp2
 70
     1
102
RTVSPropertyOp3
 70
     1
102
RTVSPropertyOp4
 70
     1
102
RTVSPropertyOp5
 70
     1
102
RTVSPropertyOp6
 70
     1
102
RTVSPropertyOp7
 70
     1
102
RTVSPropertyOp8
 70
     1
102
RTVSPropertyOp9
 70
     1
102
RTVSPropertyOp10
 70
     1
102
RTVSPropertyOp11
 70
     1
102
RTVSPropertyOp12
 70
     1
102
RTVSPropertyOp13
 70
     1
102
RTVSPropertyOp14
 70
     1
102
RTVSPropertyOp15
 70
     1
102
RTVSPropertyOp16
 70
     1
102
RTVSPropertyOp17
 70
     1
102
RTVSPropertyOp18
 70
     1
102
RTVSPropertyOp19
 70
     1
102
RTVSPropertyOp20
 70
     1
102
RTVSPropertyOp21
 70
     1
102
RTVSPropertyOp22
 70
     1
102
RTVSPropertyOp23
 70
     1
102
RTVSPropertyOp24
 70
     1
102
RTVSPropertyOp25
 70
     1
102
RTVSPropertyOp26
 70
     1
102
RTVSPropertyOp27
 70
     1
102
RTVSPropertyOp28
 70
     1
102
RTVSPropertyOp29
 70
     1
102
RTVSPropertyOp30
 70
     1
102
RTVSPropertyOp31
 70
     1
102
RTVSPropertyOp32
 70
     1
102
RTVSPropertyOp33
 70
     1
102
RTVSPropertyOp34
 70
     1
102
RTVSPropertyOp35
 70
     1
102
RTVSPropertyOp36
 70
     1
102
RTVSPropertyOp37
 70
     1
102
RTVSPropertyOp38
 70
     1
102
RTVSPropertyOp39
 70
     1
102
RTVSPropertyOp40
 70
     1
102
RTVSPropertyOp41
 70
     1
102
RTVSPropertyOp42
 70
     1
102
RTVSPropertyOp43
 70
     1
102
RTVSPropertyOp44
 70
     1
102
RTVSPropertyOp45
 70
     1
102
RTVSPropertyOp46
 70
     1
102
RTVSPropertyOp47
 70
     1
102
RTVSPropertyOp48
 70
     1
102
RTVSPropertyOp49
 70
     1
102
RTVSPropertyOp50
 70
     1
102
RTVSPropertyOp51
 70
     0
102
RTVSPropertyOp52
 70
     0
102
RTVSPropertyOp53
 70
     1
102
RTVSPropertyOp54
 70
     1
102
RTVSPropertyOp55
 70
     1
102
RTVSPropertyOp56
 70
     1
102
RTVSPropertyOp57
 70
     1
102
RTVSPost2010Prop28
280
     0
102
RTVSPost2010PropOp28
 70
     1
102
RTVSPost2010Prop29
280
     1
102
RTVSPost2010PropOp29
 70
     1
102
RTVSPost2010Prop30
280
     1
102
RTVSPost2010PropOp30
 70
     1
102
RTVSPost2010Prop31
280
     0
102
RTVSPost2010PropOp31
 70
     1
102
RTVSPost2010Prop32
280
     0
102
RTVSPost2010PropOp32
 70
     1
102
RTVSPost2010Prop33
280
     0
102
RTVSPost2010PropOp33
 70
     1
102
RTVSPost2010Prop34
280
     0
102
RTVSPost2010PropOp34
 70
     1
102
RTVSPost2010Prop35
280
     0
102
RTVSPost2010PropOp35
 70
     1
102
RTVSPost2010Prop36
280
     0
102
RTVSPost2010PropOp36
 70
     1
102
RTVSPost2010Prop37
 90
       50
102
RTVSPost2010PropOp37
 70
     1
102
RTVSPost2010Prop38
140
0.0
102
RTVSPost2010PropOp38
 70
     1
102
RTVSPost2010Prop39
140
1.0
102
RTVSPost2010PropOp39
 70
     1
102
RTVSPost2010Prop40
 90
        0
102
RTVSPost2010PropOp40
 70
     1
102
RTVSPost2010Prop41ColorIndex
 90
       18
102
RTVSPost2010Prop41ColorRGB
 90
        0
102
RTVSPost2010PropOp41
 70
     1
102
RTVSPost2010Prop42
 90
       50
102
RTVSPost2010PropOp42
 70
     1
102
RTVSPost2010Prop43
 90
        3
102
RTVSPost2010PropOp43
 70
     1
102
RTVSPost2010Prop44ColorIndex
 90
        5
102
RTVSPost2010Prop44ColorRGB
 90
      255
102
RTVSPost2010PropOp44
 70
     1
102
RTVSPost2010Prop45
280
     0
102
RTVSPost2010PropOp45
 70
     1
102
RTVSPost2010Prop46
 90
       50
102
RTVSPost2010PropOp46
 70
     1
102
RTVSPost2010Prop47
 90
       50
102
RTVSPost2010PropOp47
 70
     1
102
RTVSPost2010Prop48
 90
       50
102
RTVSPost2010PropOp48
 70
     1
102
RTVSPost2010Prop49
280
     0
102
RTVSPost2010PropOp49
 70
     1
102
RTVSPost2010Prop50
 90
       50
102
RTVSPost2010PropOp50
 70
     1
102
RTVSPost2010Prop51ColorIndex
 90
      256
102
RTVSPost2010Prop51ColorRGB
 90
-16777216
102
RTVSPost2010PropOp51
 70
     0
102
RTVSPost2010Prop52
140
1.0
102
RTVSPost2010PropOp52
 70
     0
102
RTVSPost2010Prop53
 90
        2
102
RTVSPost2010PropOp53
 70
     1
102
RTVSPost2010Prop54
  1
strokes_ogs.tif
102
RTVSPost2010PropOp54
 70
     1
102
RTVSPost2010Prop55
280
     0
102
RTVSPost2010PropOp55
 70
     1
102
RTVSPost2010Prop56
140
1.0
102
RTVSPost2010PropOp56
 70
     1
102
RTVSPost2010Prop57
140
1.0
102
RTVSPost2010PropOp57
 70
     1
  0
XRECORD
  5
6CC
102
{ACAD_REACTORS
330
6CB
102
}
330
6CB
100
AcDbXrecord
280
     1
102
RTVSPropertyOp0
 70
     1
102
RTVSPropertyOp1
 70
     1
102
RTVSPropertyOp2
 70
     1
102
RTVSPropertyOp3
 70
     1
102
RTVSPropertyOp4
 70
     1
102
RTVSPropertyOp5
 70
     1
102
RTVSPropertyOp6
 70
     1
102
RTVSPropertyOp7
 70
     1
102
RTVSPropertyOp8
 70
     1
102
RTVSPropertyOp9
 70
     1
102
RTVSPropertyOp10
 70
     1
102
RTVSPropertyOp11
 70
     1
102
RTVSPropertyOp12
 70
     1
102
RTVSPropertyOp13
 70
     1
102
RTVSPropertyOp14
 70
     1
102
RTVSPropertyOp15
 70
     1
102
RTVSPropertyOp16
 70
     1
102
RTVSPropertyOp17
 70
     1
102
RTVSPropertyOp18
 70
     1
102
RTVSPropertyOp19
 70
     1
102
RTVSPropertyOp20
 70
     1
102
RTVSPropertyOp21
 70
     1
102
RTVSPropertyOp22
 70
     1
102
RTVSPropertyOp23
 70
     1
102
RTVSPropertyOp24
 70
     1
102
RTVSPropertyOp25
 70
     1
102
RTVSPropertyOp26
 70
     1
102
RTVSPropertyOp27
 70
     1
102
RTVSPropertyOp28
 70
     1
102
RTVSPropertyOp29
 70
     1
102
RTVSPropertyOp30
 70
     1
102
RTVSPropertyOp31
 70
     1
102
RTVSPropertyOp32
 70
     1
102
RTVSPropertyOp33
 70
     1
102
RTVSPropertyOp34
 70
     1
102
RTVSPropertyOp35
 70
     1
102
RTVSPropertyOp36
 70
     1
102
RTVSPropertyOp37
 70
     1
102
RTVSPropertyOp38
 70
     1
102
RTVSPropertyOp39
 70
     1
102
RTVSPropertyOp40
 70
     1
102
RTVSPropertyOp41
 70
     1
102
RTVSPropertyOp42
 70
     1
102
RTVSPropertyOp43
 70
     1
102
RTVSPropertyOp44
 70
     1
102
RTVSPropertyOp45
 70
     1
102
RTVSPropertyOp46
 70
     1
102
RTVSPropertyOp47
 70
     1
102
RTVSPropertyOp48
 70
     1
102
RTVSPropertyOp49
 70
     1
102
RTVSPropertyOp50
 70
     1
102
RTVSPropertyOp51
 70
     0
102
RTVSPropertyOp52
 70
     0
102
RTVSPropertyOp53
 70
     1
102
RTVSPropertyOp54
 70
     1
102
RTVSPropertyOp55
 70
     1
102
RTVSPropertyOp56
 70
     1
102
RTVSPropertyOp57
 70
     1
102
RTVSPost2010Prop28
280
     0
102
RTVSPost2010PropOp28
 70
     1
102
RTVSPost2010Prop29
280
     1
102
RTVSPost2010PropOp29
 70
     1
102
RTVSPost2010Prop30
280
     1
102
RTVSPost2010PropOp30
 70
     1
102
RTVSPost2010Prop31
280
     0
102
RTVSPost2010PropOp31
 70
     1
102
RTVSPost2010Prop32
280
     0
102
RTVSPost2010PropOp32
 70
     1
102
RTVSPost2010Prop33
280
     0
102
RTVSPost2010PropOp33
 70
     1
102
RTVSPost2010Prop34
280
     0
102
RTVSPost2010PropOp34
 70
     1
102
RTVSPost2010Prop35
280
     0
102
RTVSPost2010PropOp35
 70
     1
102
RTVSPost2010Prop36
280
     0
102
RTVSPost2010PropOp36
 70
     1
102
RTVSPost2010Prop37
 90
       50
102
RTVSPost2010PropOp37
 70
     1
102
RTVSPost2010Prop38
140
0.0
102
RTVSPost2010PropOp38
 70
     1
102
RTVSPost2010Prop39
140
1.0
102
RTVSPost2010PropOp39
 70
     1
102
RTVSPost2010Prop40
 90
        0
102
RTVSPost2010PropOp40
 70
     1
102
RTVSPost2010Prop41ColorIndex
 90
       18
102
RTVSPost2010Prop41ColorRGB
 90
        0
102
RTVSPost2010PropOp41
 70
     1
102
RTVSPost2010Prop42
 90
       50
102
RTVSPost2010PropOp42
 70
     1
102
RTVSPost2010Prop43
 90
        3
102
RTVSPost2010PropOp43
 70
     1
102
RTVSPost2010Prop44ColorIndex
 90
        5
102
RTVSPost2010Prop44ColorRGB
 90
      255
102
RTVSPost2010PropOp44
 70
     1
102
RTVSPost2010Prop45
280
     0
102
RTVSPost2010PropOp45
 70
     1
102
RTVSPost2010Prop46
 90
       50
102
RTVSPost2010PropOp46
 70
     1
102
RTVSPost2010Prop47
 90
       50
102
RTVSPost2010PropOp47
 70
     1
102
RTVSPost2010Prop48
 90
       50
102
RTVSPost2010PropOp48
 70
     1
102
RTVSPost2010Prop49
280
     0
102
RTVSPost2010PropOp49
 70
     1
102
RTVSPost2010Prop50
 90
       50
102
RTVSPost2010PropOp50
 70
     1
102
RTVSPost2010Prop51ColorIndex
 90
      256
102
RTVSPost2010Prop51ColorRGB
 90
-16777216
102
RTVSPost2010PropOp51
 70
     0
102
RTVSPost2010Prop52
140
1.0
102
RTVSPost2010PropOp52
 70
     0
102
RTVSPost2010Prop53
 90
        2
102
RTVSPost2010PropOp53
 70
     1
102
RTVSPost2010Prop54
  1
strokes_ogs.tif
102
RTVSPost2010PropOp54
 70
     1
102
RTVSPost2010Prop55
280
     0
102
RTVSPost2010PropOp55
 70
     1
102
RTVSPost2010Prop56
140
1.0
102
RTVSPost2010PropOp56
 70
     1
102
RTVSPost2010Prop57
140
1.0
102
RTVSPost2010PropOp57
 70
     1
  0
XRECORD
  5
6C0
102
{ACAD_REACTORS
330
6BF
102
}
330
6BF
100
AcDbXrecord
280
     1
102
RTVSPropertyOp0
 70
     1
102
RTVSPropertyOp1
 70
     1
102
RTVSPropertyOp2
 70
     1
102
RTVSPropertyOp3
 70
     1
102
RTVSPropertyOp4
 70
     1
102
RTVSPropertyOp5
 70
     1
102
RTVSPropertyOp6
 70
     1
102
RTVSPropertyOp7
 70
     1
102
RTVSPropertyOp8
 70
     1
102
RTVSPropertyOp9
 70
     1
102
RTVSPropertyOp10
 70
     1
102
RTVSPropertyOp11
 70
     1
102
RTVSPropertyOp12
 70
     1
102
RTVSPropertyOp13
 70
     1
102
RTVSPropertyOp14
 70
     1
102
RTVSPropertyOp15
 70
     1
102
RTVSPropertyOp16
 70
     1
102
RTVSPropertyOp17
 70
     1
102
RTVSPropertyOp18
 70
     1
102
RTVSPropertyOp19
 70
     1
102
RTVSPropertyOp20
 70
     1
102
RTVSPropertyOp21
 70
     1
102
RTVSPropertyOp22
 70
     1
102
RTVSPropertyOp23
 70
     1
102
RTVSPropertyOp24
 70
     1
102
RTVSPropertyOp25
 70
     1
102
RTVSPropertyOp26
 70
     1
102
RTVSPropertyOp27
 70
     1
102
RTVSPropertyOp28
 70
     1
102
RTVSPropertyOp29
 70
     1
102
RTVSPropertyOp30
 70
     1
102
RTVSPropertyOp31
 70
     1
102
RTVSPropertyOp32
 70
     1
102
RTVSPropertyOp33
 70
     1
102
RTVSPropertyOp34
 70
     1
102
RTVSPropertyOp35
 70
     1
102
RTVSPropertyOp36
 70
     1
102
RTVSPropertyOp37
 70
     1
102
RTVSPropertyOp38
 70
     1
102
RTVSPropertyOp39
 70
     1
102
RTVSPropertyOp40
 70
     1
102
RTVSPropertyOp41
 70
     1
102
RTVSPropertyOp42
 70
     1
102
RTVSPropertyOp43
 70
     1
102
RTVSPropertyOp44
 70
     1
102
RTVSPropertyOp45
 70
     1
102
RTVSPropertyOp46
 70
     1
102
RTVSPropertyOp47
 70
     1
102
RTVSPropertyOp48
 70
     1
102
RTVSPropertyOp49
 70
     1
102
RTVSPropertyOp50
 70
     1
102
RTVSPropertyOp51
 70
     0
102
RTVSPropertyOp52
 70
     0
102
RTVSPropertyOp53
 70
     1
102
RTVSPropertyOp54
 70
     1
102
RTVSPropertyOp55
 70
     1
102
RTVSPropertyOp56
 70
     1
102
RTVSPropertyOp57
 70
     1
102
RTVSPost2010Prop28
280
     0
102
RTVSPost2010PropOp28
 70
     1
102
RTVSPost2010Prop29
280
     1
102
RTVSPost2010PropOp29
 70
     1
102
RTVSPost2010Prop30
280
     1
102
RTVSPost2010PropOp30
 70
     1
102
RTVSPost2010Prop31
280
     0
102
RTVSPost2010PropOp31
 70
     1
102
RTVSPost2010Prop32
280
     0
102
RTVSPost2010PropOp32
 70
     1
102
RTVSPost2010Prop33
280
     0
102
RTVSPost2010PropOp33
 70
     1
102
RTVSPost2010Prop34
280
     0
102
RTVSPost2010PropOp34
 70
     1
102
RTVSPost2010Prop35
280
     0
102
RTVSPost2010PropOp35
 70
     1
102
RTVSPost2010Prop36
280
     0
102
RTVSPost2010PropOp36
 70
     1
102
RTVSPost2010Prop37
 90
       50
102
RTVSPost2010PropOp37
 70
     1
102
RTVSPost2010Prop38
140
0.0
102
RTVSPost2010PropOp38
 70
     1
102
RTVSPost2010Prop39
140
1.0
102
RTVSPost2010PropOp39
 70
     1
102
RTVSPost2010Prop40
 90
        0
102
RTVSPost2010PropOp40
 70
     1
102
RTVSPost2010Prop41ColorIndex
 90
       18
102
RTVSPost2010Prop41ColorRGB
 90
        0
102
RTVSPost2010PropOp41
 70
     1
102
RTVSPost2010Prop42
 90
       50
102
RTVSPost2010PropOp42
 70
     1
102
RTVSPost2010Prop43
 90
        3
102
RTVSPost2010PropOp43
 70
     1
102
RTVSPost2010Prop44ColorIndex
 90
        5
102
RTVSPost2010Prop44ColorRGB
 90
      255
102
RTVSPost2010PropOp44
 70
     1
102
RTVSPost2010Prop45
280
     0
102
RTVSPost2010PropOp45
 70
     1
102
RTVSPost2010Prop46
 90
       50
102
RTVSPost2010PropOp46
 70
     1
102
RTVSPost2010Prop47
 90
       50
102
RTVSPost2010PropOp47
 70
     1
102
RTVSPost2010Prop48
 90
       50
102
RTVSPost2010PropOp48
 70
     1
102
RTVSPost2010Prop49
280
     0
102
RTVSPost2010PropOp49
 70
     1
102
RTVSPost2010Prop50
 90
       50
102
RTVSPost2010PropOp50
 70
     1
102
RTVSPost2010Prop51ColorIndex
 90
      256
102
RTVSPost2010Prop51ColorRGB
 90
-16777216
102
RTVSPost2010PropOp51
 70
     0
102
RTVSPost2010Prop52
140
1.0
102
RTVSPost2010PropOp52
 70
     0
102
RTVSPost2010Prop53
 90
        2
102
RTVSPost2010PropOp53
 70
     1
102
RTVSPost2010Prop54
  1
strokes_ogs.tif
102
RTVSPost2010PropOp54
 70
     1
102
RTVSPost2010Prop55
280
     0
102
RTVSPost2010PropOp55
 70
     1
102
RTVSPost2010Prop56
140
1.0
102
RTVSPost2010PropOp56
 70
     1
102
RTVSPost2010Prop57
140
1.0
102
RTVSPost2010PropOp57
 70
     1
  0
XRECORD
  5
6C2
102
{ACAD_REACTORS
330
6C1
102
}
330
6C1
100
AcDbXrecord
280
     1
102
RTVSPropertyOp0
 70
     1
102
RTVSPropertyOp1
 70
     1
102
RTVSPropertyOp2
 70
     1
102
RTVSPropertyOp3
 70
     1
102
RTVSPropertyOp4
 70
     1
102
RTVSPropertyOp5
 70
     1
102
RTVSPropertyOp6
 70
     1
102
RTVSPropertyOp7
 70
     1
102
RTVSPropertyOp8
 70
     1
102
RTVSPropertyOp9
 70
     1
102
RTVSPropertyOp10
 70
     1
102
RTVSPropertyOp11
 70
     1
102
RTVSPropertyOp12
 70
     1
102
RTVSPropertyOp13
 70
     1
102
RTVSPropertyOp14
 70
     1
102
RTVSPropertyOp15
 70
     1
102
RTVSPropertyOp16
 70
     1
102
RTVSPropertyOp17
 70
     1
102
RTVSPropertyOp18
 70
     1
102
RTVSPropertyOp19
 70
     1
102
RTVSPropertyOp20
 70
     1
102
RTVSPropertyOp21
 70
     1
102
RTVSPropertyOp22
 70
     1
102
RTVSPropertyOp23
 70
     1
102
RTVSPropertyOp24
 70
     1
102
RTVSPropertyOp25
 70
     1
102
RTVSPropertyOp26
 70
     1
102
RTVSPropertyOp27
 70
     1
102
RTVSPropertyOp28
 70
     1
102
RTVSPropertyOp29
 70
     1
102
RTVSPropertyOp30
 70
     1
102
RTVSPropertyOp31
 70
     1
102
RTVSPropertyOp32
 70
     1
102
RTVSPropertyOp33
 70
     1
102
RTVSPropertyOp34
 70
     1
102
RTVSPropertyOp35
 70
     1
102
RTVSPropertyOp36
 70
     1
102
RTVSPropertyOp37
 70
     1
102
RTVSPropertyOp38
 70
     1
102
RTVSPropertyOp39
 70
     1
102
RTVSPropertyOp40
 70
     1
102
RTVSPropertyOp41
 70
     1
102
RTVSPropertyOp42
 70
     1
102
RTVSPropertyOp43
 70
     1
102
RTVSPropertyOp44
 70
     1
102
RTVSPropertyOp45
 70
     1
102
RTVSPropertyOp46
 70
     1
102
RTVSPropertyOp47
 70
     1
102
RTVSPropertyOp48
 70
     1
102
RTVSPropertyOp49
 70
     1
102
RTVSPropertyOp50
 70
     1
102
RTVSPropertyOp51
 70
     0
102
RTVSPropertyOp52
 70
     0
102
RTVSPropertyOp53
 70
     1
102
RTVSPropertyOp54
 70
     1
102
RTVSPropertyOp55
 70
     1
102
RTVSPropertyOp56
 70
     1
102
RTVSPropertyOp57
 70
     1
102
RTVSPost2010Prop28
280
     0
102
RTVSPost2010PropOp28
 70
     1
102
RTVSPost2010Prop29
280
     1
102
RTVSPost2010PropOp29
 70
     1
102
RTVSPost2010Prop30
280
     1
102
RTVSPost2010PropOp30
 70
     1
102
RTVSPost2010Prop31
280
     0
102
RTVSPost2010PropOp31
 70
     1
102
RTVSPost2010Prop32
280
     0
102
RTVSPost2010PropOp32
 70
     1
102
RTVSPost2010Prop33
280
     0
102
RTVSPost2010PropOp33
 70
     1
102
RTVSPost2010Prop34
280
     0
102
RTVSPost2010PropOp34
 70
     1
102
RTVSPost2010Prop35
280
     0
102
RTVSPost2010PropOp35
 70
     1
102
RTVSPost2010Prop36
280
     0
102
RTVSPost2010PropOp36
 70
     1
102
RTVSPost2010Prop37
 90
       50
102
RTVSPost2010PropOp37
 70
     1
102
RTVSPost2010Prop38
140
0.0
102
RTVSPost2010PropOp38
 70
     1
102
RTVSPost2010Prop39
140
1.0
102
RTVSPost2010PropOp39
 70
     1
102
RTVSPost2010Prop40
 90
        0
102
RTVSPost2010PropOp40
 70
     1
102
RTVSPost2010Prop41ColorIndex
 90
       18
102
RTVSPost2010Prop41ColorRGB
 90
        0
102
RTVSPost2010PropOp41
 70
     1
102
RTVSPost2010Prop42
 90
       50
102
RTVSPost2010PropOp42
 70
     1
102
RTVSPost2010Prop43
 90
        3
102
RTVSPost2010PropOp43
 70
     1
102
RTVSPost2010Prop44ColorIndex
 90
        5
102
RTVSPost2010Prop44ColorRGB
 90
      255
102
RTVSPost2010PropOp44
 70
     1
102
RTVSPost2010Prop45
280
     0
102
RTVSPost2010PropOp45
 70
     1
102
RTVSPost2010Prop46
 90
       50
102
RTVSPost2010PropOp46
 70
     1
102
RTVSPost2010Prop47
 90
       50
102
RTVSPost2010PropOp47
 70
     1
102
RTVSPost2010Prop48
 90
       50
102
RTVSPost2010PropOp48
 70
     1
102
RTVSPost2010Prop49
280
     0
102
RTVSPost2010PropOp49
 70
     1
102
RTVSPost2010Prop50
 90
       50
102
RTVSPost2010PropOp50
 70
     1
102
RTVSPost2010Prop51ColorIndex
 90
      256
102
RTVSPost2010Prop51ColorRGB
 90
-16777216
102
RTVSPost2010PropOp51
 70
     0
102
RTVSPost2010Prop52
140
1.0
102
RTVSPost2010PropOp52
 70
     0
102
RTVSPost2010Prop53
 90
        2
102
RTVSPost2010PropOp53
 70
     1
102
RTVSPost2010Prop54
  1
strokes_ogs.tif
102
RTVSPost2010PropOp54
 70
     1
102
RTVSPost2010Prop55
280
     0
102
RTVSPost2010PropOp55
 70
     1
102
RTVSPost2010Prop56
140
1.0
102
RTVSPost2010PropOp56
 70
     1
102
RTVSPost2010Prop57
140
1.0
102
RTVSPost2010PropOp57
 70
     1
  0
XRECORD
  5
6D2
102
{ACAD_REACTORS
330
6D1
102
}
330
6D1
100
AcDbXrecord
280
     1
102
RTVSPropertyOp0
 70
     0
102
RTVSPropertyOp1
 70
     0
102
RTVSPropertyOp2
 70
     0
102
RTVSPropertyOp3
 70
     0
102
RTVSPropertyOp4
 70
     0
102
RTVSPropertyOp5
 70
     0
102
RTVSPropertyOp6
 70
     0
102
RTVSPropertyOp7
 70
     0
102
RTVSPropertyOp8
 70
     0
102
RTVSPropertyOp9
 70
     0
102
RTVSPropertyOp10
 70
     0
102
RTVSPropertyOp11
 70
     0
102
RTVSPropertyOp12
 70
     0
102
RTVSPropertyOp13
 70
     0
102
RTVSPropertyOp14
 70
     2
102
RTVSPropertyOp15
 70
     0
102
RTVSPropertyOp16
 70
     0
102
RTVSPropertyOp17
 70
     0
102
RTVSPropertyOp18
 70
     0
102
RTVSPropertyOp19
 70
     0
102
RTVSPropertyOp20
 70
     0
102
RTVSPropertyOp21
 70
     0
102
RTVSPropertyOp22
 70
     0
102
RTVSPropertyOp23
 70
     0
102
RTVSPropertyOp24
 70
     0
102
RTVSPropertyOp25
 70
     0
102
RTVSPropertyOp26
 70
     0
102
RTVSPropertyOp27
 70
     0
102
RTVSPropertyOp28
 70
     0
102
RTVSPropertyOp29
 70
     0
102
RTVSPropertyOp30
 70
     0
102
RTVSPropertyOp31
 70
     0
102
RTVSPropertyOp32
 70
     0
102
RTVSPropertyOp33
 70
     0
102
RTVSPropertyOp34
 70
     0
102
RTVSPropertyOp35
 70
     0
102
RTVSPropertyOp36
 70
     0
102
RTVSPropertyOp37
 70
     0
102
RTVSPropertyOp38
 70
     0
102
RTVSPropertyOp39
 70
     0
102
RTVSPropertyOp40
 70
     0
102
RTVSPropertyOp41
 70
     0
102
RTVSPropertyOp42
 70
     0
102
RTVSPropertyOp43
 70
     0
102
RTVSPropertyOp44
 70
     0
102
RTVSPropertyOp45
 70
     0
102
RTVSPropertyOp46
 70
     0
102
RTVSPropertyOp47
 70
     0
102
RTVSPropertyOp48
 70
     0
102
RTVSPropertyOp49
 70
     0
102
RTVSPropertyOp50
 70
     0
102
RTVSPropertyOp51
 70
     0
102
RTVSPropertyOp52
 70
     0
102
RTVSPropertyOp53
 70
     0
102
RTVSPropertyOp54
 70
     0
102
RTVSPropertyOp55
 70
     0
102
RTVSPropertyOp56
 70
     0
102
RTVSPropertyOp57
 70
     0
102
RTVSPost2010Prop28
280
     0
102
RTVSPost2010PropOp28
 70
     0
102
RTVSPost2010Prop29
280
     1
102
RTVSPost2010PropOp29
 70
     0
102
RTVSPost2010Prop30
280
     1
102
RTVSPost2010PropOp30
 70
     0
102
RTVSPost2010Prop31
280
     0
102
RTVSPost2010PropOp31
 70
     0
102
RTVSPost2010Prop32
280
     0
102
RTVSPost2010PropOp32
 70
     0
102
RTVSPost2010Prop33
280
     0
102
RTVSPost2010PropOp33
 70
     0
102
RTVSPost2010Prop34
280
     0
102
RTVSPost2010PropOp34
 70
     0
102
RTVSPost2010Prop35
280
     0
102
RTVSPost2010PropOp35
 70
     0
102
RTVSPost2010Prop36
280
     0
102
RTVSPost2010PropOp36
 70
     0
102
RTVSPost2010Prop37
 90
       50
102
RTVSPost2010PropOp37
 70
     0
102
RTVSPost2010Prop38
140
0.0
102
RTVSPost2010PropOp38
 70
     0
102
RTVSPost2010Prop39
140
1.0
102
RTVSPost2010PropOp39
 70
     0
102
RTVSPost2010Prop40
 90
        0
102
RTVSPost2010PropOp40
 70
     0
102
RTVSPost2010Prop41ColorIndex
 90
       18
102
RTVSPost2010Prop41ColorRGB
 90
        0
102
RTVSPost2010PropOp41
 70
     0
102
RTVSPost2010Prop42
 90
       50
102
RTVSPost2010PropOp42
 70
     0
102
RTVSPost2010Prop43
 90
        3
102
RTVSPost2010PropOp43
 70
     0
102
RTVSPost2010Prop44ColorIndex
 90
        5
102
RTVSPost2010Prop44ColorRGB
 90
      255
102
RTVSPost2010PropOp44
 70
     0
102
RTVSPost2010Prop45
280
     0
102
RTVSPost2010PropOp45
 70
     0
102
RTVSPost2010Prop46
 90
       50
102
RTVSPost2010PropOp46
 70
     0
102
RTVSPost2010Prop47
 90
       50
102
RTVSPost2010PropOp47
 70
     0
102
RTVSPost2010Prop48
 90
       50
102
RTVSPost2010PropOp48
 70
     0
102
RTVSPost2010Prop49
280
     0
102
RTVSPost2010PropOp49
 70
     0
102
RTVSPost2010Prop50
 90
       50
102
RTVSPost2010PropOp50
 70
     0
102
RTVSPost2010Prop51ColorIndex
 90
      256
102
RTVSPost2010Prop51ColorRGB
 90
-16777216
102
RTVSPost2010PropOp51
 70
     0
102
RTVSPost2010Prop52
140
1.0
102
RTVSPost2010PropOp52
 70
     0
102
RTVSPost2010Prop53
 90
        2
102
RTVSPost2010PropOp53
 70
     0
102
RTVSPost2010Prop54
  1
strokes_ogs.tif
102
RTVSPost2010PropOp54
 70
     0
102
RTVSPost2010Prop55
280
     0
102
RTVSPost2010PropOp55
 70
     0
102
RTVSPost2010Prop56
140
1.0
102
RTVSPost2010PropOp56
 70
     0
102
RTVSPost2010Prop57
140
1.0
102
RTVSPost2010PropOp57
 70
     0
  0
XRECORD
  5
6CA
102
{ACAD_REACTORS
330
6C9
102
}
330
6C9
100
AcDbXrecord
280
     1
102
RTVSPropertyOp0
 70
     1
102
RTVSPropertyOp1
 70
     1
102
RTVSPropertyOp2
 70
     1
102
RTVSPropertyOp3
 70
     1
102
RTVSPropertyOp4
 70
     1
102
RTVSPropertyOp5
 70
     1
102
RTVSPropertyOp6
 70
     1
102
RTVSPropertyOp7
 70
     1
102
RTVSPropertyOp8
 70
     1
102
RTVSPropertyOp9
 70
     1
102
RTVSPropertyOp10
 70
     1
102
RTVSPropertyOp11
 70
     1
102
RTVSPropertyOp12
 70
     1
102
RTVSPropertyOp13
 70
     1
102
RTVSPropertyOp14
 70
     1
102
RTVSPropertyOp15
 70
     1
102
RTVSPropertyOp16
 70
     1
102
RTVSPropertyOp17
 70
     1
102
RTVSPropertyOp18
 70
     1
102
RTVSPropertyOp19
 70
     1
102
RTVSPropertyOp20
 70
     1
102
RTVSPropertyOp21
 70
     1
102
RTVSPropertyOp22
 70
     1
102
RTVSPropertyOp23
 70
     1
102
RTVSPropertyOp24
 70
     1
102
RTVSPropertyOp25
 70
     1
102
RTVSPropertyOp26
 70
     1
102
RTVSPropertyOp27
 70
     1
102
RTVSPropertyOp28
 70
     1
102
RTVSPropertyOp29
 70
     1
102
RTVSPropertyOp30
 70
     1
102
RTVSPropertyOp31
 70
     1
102
RTVSPropertyOp32
 70
     1
102
RTVSPropertyOp33
 70
     1
102
RTVSPropertyOp34
 70
     1
102
RTVSPropertyOp35
 70
     1
102
RTVSPropertyOp36
 70
     1
102
RTVSPropertyOp37
 70
     1
102
RTVSPropertyOp38
 70
     1
102
RTVSPropertyOp39
 70
     1
102
RTVSPropertyOp40
 70
     1
102
RTVSPropertyOp41
 70
     1
102
RTVSPropertyOp42
 70
     1
102
RTVSPropertyOp43
 70
     1
102
RTVSPropertyOp44
 70
     1
102
RTVSPropertyOp45
 70
     1
102
RTVSPropertyOp46
 70
     1
102
RTVSPropertyOp47
 70
     1
102
RTVSPropertyOp48
 70
     1
102
RTVSPropertyOp49
 70
     1
102
RTVSPropertyOp50
 70
     1
102
RTVSPropertyOp51
 70
     0
102
RTVSPropertyOp52
 70
     0
102
RTVSPropertyOp53
 70
     1
102
RTVSPropertyOp54
 70
     1
102
RTVSPropertyOp55
 70
     1
102
RTVSPropertyOp56
 70
     1
102
RTVSPropertyOp57
 70
     1
102
RTVSPost2010Prop28
280
     0
102
RTVSPost2010PropOp28
 70
     1
102
RTVSPost2010Prop29
280
     1
102
RTVSPost2010PropOp29
 70
     1
102
RTVSPost2010Prop30
280
     1
102
RTVSPost2010PropOp30
 70
     1
102
RTVSPost2010Prop31
280
     0
102
RTVSPost2010PropOp31
 70
     1
102
RTVSPost2010Prop32
280
     0
102
RTVSPost2010PropOp32
 70
     1
102
RTVSPost2010Prop33
280
     0
102
RTVSPost2010PropOp33
 70
     1
102
RTVSPost2010Prop34
280
     0
102
RTVSPost2010PropOp34
 70
     1
102
RTVSPost2010Prop35
280
     0
102
RTVSPost2010PropOp35
 70
     1
102
RTVSPost2010Prop36
280
     0
102
RTVSPost2010PropOp36
 70
     1
102
RTVSPost2010Prop37
 90
       50
102
RTVSPost2010PropOp37
 70
     1
102
RTVSPost2010Prop38
140
0.0
102
RTVSPost2010PropOp38
 70
     1
102
RTVSPost2010Prop39
140
1.0
102
RTVSPost2010PropOp39
 70
     1
102
RTVSPost2010Prop40
 90
        0
102
RTVSPost2010PropOp40
 70
     1
102
RTVSPost2010Prop41ColorIndex
 90
       18
102
RTVSPost2010Prop41ColorRGB
 90
        0
102
RTVSPost2010PropOp41
 70
     1
102
RTVSPost2010Prop42
 90
       50
102
RTVSPost2010PropOp42
 70
     1
102
RTVSPost2010Prop43
 90
        3
102
RTVSPost2010PropOp43
 70
     1
102
RTVSPost2010Prop44ColorIndex
 90
        5
102
RTVSPost2010Prop44ColorRGB
 90
      255
102
RTVSPost2010PropOp44
 70
     1
102
RTVSPost2010Prop45
280
     0
102
RTVSPost2010PropOp45
 70
     1
102
RTVSPost2010Prop46
 90
       50
102
RTVSPost2010PropOp46
 70
     1
102
RTVSPost2010Prop47
 90
       50
102
RTVSPost2010PropOp47
 70
     1
102
RTVSPost2010Prop48
 90
       50
102
RTVSPost2010PropOp48
 70
     1
102
RTVSPost2010Prop49
280
     0
102
RTVSPost2010PropOp49
 70
     1
102
RTVSPost2010Prop50
 90
       50
102
RTVSPost2010PropOp50
 70
     1
102
RTVSPost2010Prop51ColorIndex
 90
      256
102
RTVSPost2010Prop51ColorRGB
 90
-16777216
102
RTVSPost2010PropOp51
 70
     0
102
RTVSPost2010Prop52
140
1.0
102
RTVSPost2010PropOp52
 70
     0
102
RTVSPost2010Prop53
 90
        2
102
RTVSPost2010PropOp53
 70
     1
102
RTVSPost2010Prop54
  1
strokes_ogs.tif
102
RTVSPost2010PropOp54
 70
     1
102
RTVSPost2010Prop55
280
     0
102
RTVSPost2010PropOp55
 70
     1
102
RTVSPost2010Prop56
140
1.0
102
RTVSPost2010PropOp56
 70
     1
102
RTVSPost2010Prop57
140
1.0
102
RTVSPost2010PropOp57
 70
     1
  0
XRECORD
  5
6AE
102
{ACAD_REACTORS
330
6AD
102
}
330
6AD
100
AcDbXrecord
280
     1
102
RTVSPropertyOp0
 70
     1
102
RTVSPropertyOp1
 70
     1
102
RTVSPropertyOp2
 70
     1
102
RTVSPropertyOp3
 70
     1
102
RTVSPropertyOp4
 70
     1
102
RTVSPropertyOp5
 70
     1
102
RTVSPropertyOp6
 70
     1
102
RTVSPropertyOp7
 70
     1
102
RTVSPropertyOp8
 70
     1
102
RTVSPropertyOp9
 70
     1
102
RTVSPropertyOp10
 70
     1
102
RTVSPropertyOp11
 70
     1
102
RTVSPropertyOp12
 70
     1
102
RTVSPropertyOp13
 70
     1
102
RTVSPropertyOp14
 70
     1
102
RTVSPropertyOp15
 70
     1
102
RTVSPropertyOp16
 70
     1
102
RTVSPropertyOp17
 70
     1
102
RTVSPropertyOp18
 70
     1
102
RTVSPropertyOp19
 70
     1
102
RTVSPropertyOp20
 70
     1
102
RTVSPropertyOp21
 70
     1
102
RTVSPropertyOp22
 70
     1
102
RTVSPropertyOp23
 70
     1
102
RTVSPropertyOp24
 70
     1
102
RTVSPropertyOp25
 70
     1
102
RTVSPropertyOp26
 70
     1
102
RTVSPropertyOp27
 70
     1
102
RTVSPropertyOp28
 70
     1
102
RTVSPropertyOp29
 70
     1
102
RTVSPropertyOp30
 70
     1
102
RTVSPropertyOp31
 70
     1
102
RTVSPropertyOp32
 70
     1
102
RTVSPropertyOp33
 70
     1
102
RTVSPropertyOp34
 70
     1
102
RTVSPropertyOp35
 70
     1
102
RTVSPropertyOp36
 70
     1
102
RTVSPropertyOp37
 70
     1
102
RTVSPropertyOp38
 70
     1
102
RTVSPropertyOp39
 70
     1
102
RTVSPropertyOp40
 70
     1
102
RTVSPropertyOp41
 70
     1
102
RTVSPropertyOp42
 70
     1
102
RTVSPropertyOp43
 70
     1
102
RTVSPropertyOp44
 70
     1
102
RTVSPropertyOp45
 70
     1
102
RTVSPropertyOp46
 70
     1
102
RTVSPropertyOp47
 70
     1
102
RTVSPropertyOp48
 70
     1
102
RTVSPropertyOp49
 70
     1
102
RTVSPropertyOp50
 70
     1
102
RTVSPropertyOp51
 70
     0
102
RTVSPropertyOp52
 70
     0
102
RTVSPropertyOp53
 70
     1
102
RTVSPropertyOp54
 70
     1
102
RTVSPropertyOp55
 70
     1
102
RTVSPropertyOp56
 70
     1
102
RTVSPropertyOp57
 70
     1
102
RTVSPost2010Prop28
280
     0
102
RTVSPost2010PropOp28
 70
     1
102
RTVSPost2010Prop29
280
     1
102
RTVSPost2010PropOp29
 70
     1
102
RTVSPost2010Prop30
280
     1
102
RTVSPost2010PropOp30
 70
     1
102
RTVSPost2010Prop31
280
     0
102
RTVSPost2010PropOp31
 70
     1
102
RTVSPost2010Prop32
280
     0
102
RTVSPost2010PropOp32
 70
     1
102
RTVSPost2010Prop33
280
     0
102
RTVSPost2010PropOp33
 70
     1
102
RTVSPost2010Prop34
280
     0
102
RTVSPost2010PropOp34
 70
     1
102
RTVSPost2010Prop35
280
     0
102
RTVSPost2010PropOp35
 70
     1
102
RTVSPost2010Prop36
280
     0
102
RTVSPost2010PropOp36
 70
     1
102
RTVSPost2010Prop37
 90
       50
102
RTVSPost2010PropOp37
 70
     1
102
RTVSPost2010Prop38
140
0.0
102
RTVSPost2010PropOp38
 70
     1
102
RTVSPost2010Prop39
140
1.0
102
RTVSPost2010PropOp39
 70
     1
102
RTVSPost2010Prop40
 90
        0
102
RTVSPost2010PropOp40
 70
     1
102
RTVSPost2010Prop41ColorIndex
 90
       18
102
RTVSPost2010Prop41ColorRGB
 90
        0
102
RTVSPost2010PropOp41
 70
     1
102
RTVSPost2010Prop42
 90
       50
102
RTVSPost2010PropOp42
 70
     1
102
RTVSPost2010Prop43
 90
        3
102
RTVSPost2010PropOp43
 70
     1
102
RTVSPost2010Prop44ColorIndex
 90
        5
102
RTVSPost2010Prop44ColorRGB
 90
      255
102
RTVSPost2010PropOp44
 70
     1
102
RTVSPost2010Prop45
280
     0
102
RTVSPost2010PropOp45
 70
     1
102
RTVSPost2010Prop46
 90
       50
102
RTVSPost2010PropOp46
 70
     1
102
RTVSPost2010Prop47
 90
       50
102
RTVSPost2010PropOp47
 70
     1
102
RTVSPost2010Prop48
 90
       50
102
RTVSPost2010PropOp48
 70
     1
102
RTVSPost2010Prop49
280
     0
102
RTVSPost2010PropOp49
 70
     1
102
RTVSPost2010Prop50
 90
       50
102
RTVSPost2010PropOp50
 70
     1
102
RTVSPost2010Prop51ColorIndex
 90
      256
102
RTVSPost2010Prop51ColorRGB
 90
-16777216
102
RTVSPost2010PropOp51
 70
     0
102
RTVSPost2010Prop52
140
1.0
102
RTVSPost2010PropOp52
 70
     0
102
RTVSPost2010Prop53
 90
        2
102
RTVSPost2010PropOp53
 70
     1
102
RTVSPost2010Prop54
  1
strokes_ogs.tif
102
RTVSPost2010PropOp54
 70
     1
102
RTVSPost2010Prop55
280
     0
102
RTVSPost2010PropOp55
 70
     1
102
RTVSPost2010Prop56
140
1.0
102
RTVSPost2010PropOp56
 70
     1
102
RTVSPost2010Prop57
140
1.0
102
RTVSPost2010PropOp57
 70
     1
  0
XRECORD
  5
6B0
102
{ACAD_REACTORS
330
6AF
102
}
330
6AF
100
AcDbXrecord
280
     1
102
RTVSPropertyOp0
 70
     1
102
RTVSPropertyOp1
 70
     1
102
RTVSPropertyOp2
 70
     1
102
RTVSPropertyOp3
 70
     1
102
RTVSPropertyOp4
 70
     1
102
RTVSPropertyOp5
 70
     1
102
RTVSPropertyOp6
 70
     1
102
RTVSPropertyOp7
 70
     1
102
RTVSPropertyOp8
 70
     1
102
RTVSPropertyOp9
 70
     1
102
RTVSPropertyOp10
 70
     1
102
RTVSPropertyOp11
 70
     1
102
RTVSPropertyOp12
 70
     1
102
RTVSPropertyOp13
 70
     1
102
RTVSPropertyOp14
 70
     1
102
RTVSPropertyOp15
 70
     1
102
RTVSPropertyOp16
 70
     1
102
RTVSPropertyOp17
 70
     1
102
RTVSPropertyOp18
 70
     1
102
RTVSPropertyOp19
 70
     1
102
RTVSPropertyOp20
 70
     1
102
RTVSPropertyOp21
 70
     1
102
RTVSPropertyOp22
 70
     1
102
RTVSPropertyOp23
 70
     1
102
RTVSPropertyOp24
 70
     1
102
RTVSPropertyOp25
 70
     1
102
RTVSPropertyOp26
 70
     1
102
RTVSPropertyOp27
 70
     1
102
RTVSPropertyOp28
 70
     1
102
RTVSPropertyOp29
 70
     1
102
RTVSPropertyOp30
 70
     1
102
RTVSPropertyOp31
 70
     1
102
RTVSPropertyOp32
 70
     1
102
RTVSPropertyOp33
 70
     1
102
RTVSPropertyOp34
 70
     1
102
RTVSPropertyOp35
 70
     1
102
RTVSPropertyOp36
 70
     1
102
RTVSPropertyOp37
 70
     1
102
RTVSPropertyOp38
 70
     1
102
RTVSPropertyOp39
 70
     1
102
RTVSPropertyOp40
 70
     1
102
RTVSPropertyOp41
 70
     1
102
RTVSPropertyOp42
 70
     1
102
RTVSPropertyOp43
 70
     1
102
RTVSPropertyOp44
 70
     1
102
RTVSPropertyOp45
 70
     1
102
RTVSPropertyOp46
 70
     1
102
RTVSPropertyOp47
 70
     1
102
RTVSPropertyOp48
 70
     1
102
RTVSPropertyOp49
 70
     1
102
RTVSPropertyOp50
 70
     1
102
RTVSPropertyOp51
 70
     0
102
RTVSPropertyOp52
 70
     0
102
RTVSPropertyOp53
 70
     1
102
RTVSPropertyOp54
 70
     1
102
RTVSPropertyOp55
 70
     1
102
RTVSPropertyOp56
 70
     1
102
RTVSPropertyOp57
 70
     1
102
RTVSPost2010Prop28
280
     0
102
RTVSPost2010PropOp28
 70
     1
102
RTVSPost2010Prop29
280
     1
102
RTVSPost2010PropOp29
 70
     1
102
RTVSPost2010Prop30
280
     1
102
RTVSPost2010PropOp30
 70
     1
102
RTVSPost2010Prop31
280
     0
102
RTVSPost2010PropOp31
 70
     1
102
RTVSPost2010Prop32
280
     0
102
RTVSPost2010PropOp32
 70
     1
102
RTVSPost2010Prop33
280
     0
102
RTVSPost2010PropOp33
 70
     1
102
RTVSPost2010Prop34
280
     0
102
RTVSPost2010PropOp34
 70
     1
102
RTVSPost2010Prop35
280
     0
102
RTVSPost2010PropOp35
 70
     1
102
RTVSPost2010Prop36
280
     0
102
RTVSPost2010PropOp36
 70
     1
102
RTVSPost2010Prop37
 90
       50
102
RTVSPost2010PropOp37
 70
     1
102
RTVSPost2010Prop38
140
0.0
102
RTVSPost2010PropOp38
 70
     1
102
RTVSPost2010Prop39
140
1.0
102
RTVSPost2010PropOp39
 70
     1
102
RTVSPost2010Prop40
 90
        0
102
RTVSPost2010PropOp40
 70
     1
102
RTVSPost2010Prop41ColorIndex
 90
       18
102
RTVSPost2010Prop41ColorRGB
 90
        0
102
RTVSPost2010PropOp41
 70
     1
102
RTVSPost2010Prop42
 90
       50
102
RTVSPost2010PropOp42
 70
     1
102
RTVSPost2010Prop43
 90
        3
102
RTVSPost2010PropOp43
 70
     1
102
RTVSPost2010Prop44ColorIndex
 90
        5
102
RTVSPost2010Prop44ColorRGB
 90
      255
102
RTVSPost2010PropOp44
 70
     1
102
RTVSPost2010Prop45
280
     0
102
RTVSPost2010PropOp45
 70
     1
102
RTVSPost2010Prop46
 90
       50
102
RTVSPost2010PropOp46
 70
     1
102
RTVSPost2010Prop47
 90
       50
102
RTVSPost2010PropOp47
 70
     1
102
RTVSPost2010Prop48
 90
       50
102
RTVSPost2010PropOp48
 70
     1
102
RTVSPost2010Prop49
280
     0
102
RTVSPost2010PropOp49
 70
     1
102
RTVSPost2010Prop50
 90
       50
102
RTVSPost2010PropOp50
 70
     1
102
RTVSPost2010Prop51ColorIndex
 90
      256
102
RTVSPost2010Prop51ColorRGB
 90
-16777216
102
RTVSPost2010PropOp51
 70
     0
102
RTVSPost2010Prop52
140
1.0
102
RTVSPost2010PropOp52
 70
     0
102
RTVSPost2010Prop53
 90
        2
102
RTVSPost2010PropOp53
 70
     1
102
RTVSPost2010Prop54
  1
strokes_ogs.tif
102
RTVSPost2010PropOp54
 70
     1
102
RTVSPost2010Prop55
280
     0
102
RTVSPost2010PropOp55
 70
     1
102
RTVSPost2010Prop56
140
1.0
102
RTVSPost2010PropOp56
 70
     1
102
RTVSPost2010Prop57
140
1.0
102
RTVSPost2010PropOp57
 70
     1
  0
XRECORD
  5
6B2
102
{ACAD_REACTORS
330
6B1
102
}
330
6B1
100
AcDbXrecord
280
     1
102
RTVSPropertyOp0
 70
     1
102
RTVSPropertyOp1
 70
     1
102
RTVSPropertyOp2
 70
     1
102
RTVSPropertyOp3
 70
     1
102
RTVSPropertyOp4
 70
     1
102
RTVSPropertyOp5
 70
     1
102
RTVSPropertyOp6
 70
     1
102
RTVSPropertyOp7
 70
     1
102
RTVSPropertyOp8
 70
     1
102
RTVSPropertyOp9
 70
     1
102
RTVSPropertyOp10
 70
     1
102
RTVSPropertyOp11
 70
     1
102
RTVSPropertyOp12
 70
     1
102
RTVSPropertyOp13
 70
     1
102
RTVSPropertyOp14
 70
     1
102
RTVSPropertyOp15
 70
     1
102
RTVSPropertyOp16
 70
     1
102
RTVSPropertyOp17
 70
     1
102
RTVSPropertyOp18
 70
     1
102
RTVSPropertyOp19
 70
     1
102
RTVSPropertyOp20
 70
     1
102
RTVSPropertyOp21
 70
     1
102
RTVSPropertyOp22
 70
     1
102
RTVSPropertyOp23
 70
     1
102
RTVSPropertyOp24
 70
     1
102
RTVSPropertyOp25
 70
     1
102
RTVSPropertyOp26
 70
     1
102
RTVSPropertyOp27
 70
     1
102
RTVSPropertyOp28
 70
     1
102
RTVSPropertyOp29
 70
     1
102
RTVSPropertyOp30
 70
     1
102
RTVSPropertyOp31
 70
     1
102
RTVSPropertyOp32
 70
     1
102
RTVSPropertyOp33
 70
     1
102
RTVSPropertyOp34
 70
     1
102
RTVSPropertyOp35
 70
     1
102
RTVSPropertyOp36
 70
     1
102
RTVSPropertyOp37
 70
     1
102
RTVSPropertyOp38
 70
     1
102
RTVSPropertyOp39
 70
     1
102
RTVSPropertyOp40
 70
     1
102
RTVSPropertyOp41
 70
     1
102
RTVSPropertyOp42
 70
     1
102
RTVSPropertyOp43
 70
     1
102
RTVSPropertyOp44
 70
     1
102
RTVSPropertyOp45
 70
     1
102
RTVSPropertyOp46
 70
     1
102
RTVSPropertyOp47
 70
     1
102
RTVSPropertyOp48
 70
     1
102
RTVSPropertyOp49
 70
     1
102
RTVSPropertyOp50
 70
     1
102
RTVSPropertyOp51
 70
     0
102
RTVSPropertyOp52
 70
     0
102
RTVSPropertyOp53
 70
     1
102
RTVSPropertyOp54
 70
     1
102
RTVSPropertyOp55
 70
     1
102
RTVSPropertyOp56
 70
     1
102
RTVSPropertyOp57
 70
     1
102
RTVSPost2010Prop28
280
     0
102
RTVSPost2010PropOp28
 70
     1
102
RTVSPost2010Prop29
280
     1
102
RTVSPost2010PropOp29
 70
     1
102
RTVSPost2010Prop30
280
     1
102
RTVSPost2010PropOp30
 70
     1
102
RTVSPost2010Prop31
280
     0
102
RTVSPost2010PropOp31
 70
     1
102
RTVSPost2010Prop32
280
     0
102
RTVSPost2010PropOp32
 70
     1
102
RTVSPost2010Prop33
280
     0
102
RTVSPost2010PropOp33
 70
     1
102
RTVSPost2010Prop34
280
     0
102
RTVSPost2010PropOp34
 70
     1
102
RTVSPost2010Prop35
280
     0
102
RTVSPost2010PropOp35
 70
     1
102
RTVSPost2010Prop36
280
     0
102
RTVSPost2010PropOp36
 70
     1
102
RTVSPost2010Prop37
 90
       50
102
RTVSPost2010PropOp37
 70
     1
102
RTVSPost2010Prop38
140
0.0
102
RTVSPost2010PropOp38
 70
     1
102
RTVSPost2010Prop39
140
1.0
102
RTVSPost2010PropOp39
 70
     1
102
RTVSPost2010Prop40
 90
        0
102
RTVSPost2010PropOp40
 70
     1
102
RTVSPost2010Prop41ColorIndex
 90
       18
102
RTVSPost2010Prop41ColorRGB
 90
        0
102
RTVSPost2010PropOp41
 70
     1
102
RTVSPost2010Prop42
 90
       50
102
RTVSPost2010PropOp42
 70
     1
102
RTVSPost2010Prop43
 90
        3
102
RTVSPost2010PropOp43
 70
     1
102
RTVSPost2010Prop44ColorIndex
 90
        5
102
RTVSPost2010Prop44ColorRGB
 90
      255
102
RTVSPost2010PropOp44
 70
     1
102
RTVSPost2010Prop45
280
     0
102
RTVSPost2010PropOp45
 70
     1
102
RTVSPost2010Prop46
 90
       50
102
RTVSPost2010PropOp46
 70
     1
102
RTVSPost2010Prop47
 90
       50
102
RTVSPost2010PropOp47
 70
     1
102
RTVSPost2010Prop48
 90
       50
102
RTVSPost2010PropOp48
 70
     1
102
RTVSPost2010Prop49
280
     0
102
RTVSPost2010PropOp49
 70
     1
102
RTVSPost2010Prop50
 90
       50
102
RTVSPost2010PropOp50
 70
     1
102
RTVSPost2010Prop51ColorIndex
 90
      256
102
RTVSPost2010Prop51ColorRGB
 90
-16777216
102
RTVSPost2010PropOp51
 70
     0
102
RTVSPost2010Prop52
140
1.0
102
RTVSPost2010PropOp52
 70
     0
102
RTVSPost2010Prop53
 90
        2
102
RTVSPost2010PropOp53
 70
     1
102
RTVSPost2010Prop54
  1
strokes_ogs.tif
102
RTVSPost2010PropOp54
 70
     1
102
RTVSPost2010Prop55
280
     0
102
RTVSPost2010PropOp55
 70
     1
102
RTVSPost2010Prop56
140
1.0
102
RTVSPost2010PropOp56
 70
     1
102
RTVSPost2010Prop57
140
1.0
102
RTVSPost2010PropOp57
 70
     1
  0
XRECORD
  5
6B4
102
{ACAD_REACTORS
330
6B3
102
}
330
6B3
100
AcDbXrecord
280
     1
102
RTVSPropertyOp0
 70
     1
102
RTVSPropertyOp1
 70
     1
102
RTVSPropertyOp2
 70
     1
102
RTVSPropertyOp3
 70
     1
102
RTVSPropertyOp4
 70
     1
102
RTVSPropertyOp5
 70
     1
102
RTVSPropertyOp6
 70
     1
102
RTVSPropertyOp7
 70
     1
102
RTVSPropertyOp8
 70
     1
102
RTVSPropertyOp9
 70
     1
102
RTVSPropertyOp10
 70
     1
102
RTVSPropertyOp11
 70
     1
102
RTVSPropertyOp12
 70
     1
102
RTVSPropertyOp13
 70
     1
102
RTVSPropertyOp14
 70
     1
102
RTVSPropertyOp15
 70
     1
102
RTVSPropertyOp16
 70
     1
102
RTVSPropertyOp17
 70
     1
102
RTVSPropertyOp18
 70
     1
102
RTVSPropertyOp19
 70
     1
102
RTVSPropertyOp20
 70
     1
102
RTVSPropertyOp21
 70
     1
102
RTVSPropertyOp22
 70
     1
102
RTVSPropertyOp23
 70
     1
102
RTVSPropertyOp24
 70
     1
102
RTVSPropertyOp25
 70
     1
102
RTVSPropertyOp26
 70
     1
102
RTVSPropertyOp27
 70
     1
102
RTVSPropertyOp28
 70
     1
102
RTVSPropertyOp29
 70
     1
102
RTVSPropertyOp30
 70
     1
102
RTVSPropertyOp31
 70
     1
102
RTVSPropertyOp32
 70
     1
102
RTVSPropertyOp33
 70
     1
102
RTVSPropertyOp34
 70
     1
102
RTVSPropertyOp35
 70
     1
102
RTVSPropertyOp36
 70
     1
102
RTVSPropertyOp37
 70
     1
102
RTVSPropertyOp38
 70
     1
102
RTVSPropertyOp39
 70
     1
102
RTVSPropertyOp40
 70
     1
102
RTVSPropertyOp41
 70
     1
102
RTVSPropertyOp42
 70
     1
102
RTVSPropertyOp43
 70
     1
102
RTVSPropertyOp44
 70
     1
102
RTVSPropertyOp45
 70
     1
102
RTVSPropertyOp46
 70
     1
102
RTVSPropertyOp47
 70
     1
102
RTVSPropertyOp48
 70
     1
102
RTVSPropertyOp49
 70
     1
102
RTVSPropertyOp50
 70
     1
102
RTVSPropertyOp51
 70
     0
102
RTVSPropertyOp52
 70
     0
102
RTVSPropertyOp53
 70
     1
102
RTVSPropertyOp54
 70
     1
102
RTVSPropertyOp55
 70
     1
102
RTVSPropertyOp56
 70
     1
102
RTVSPropertyOp57
 70
     1
102
RTVSPost2010Prop28
280
     0
102
RTVSPost2010PropOp28
 70
     1
102
RTVSPost2010Prop29
280
     1
102
RTVSPost2010PropOp29
 70
     1
102
RTVSPost2010Prop30
280
     1
102
RTVSPost2010PropOp30
 70
     1
102
RTVSPost2010Prop31
280
     0
102
RTVSPost2010PropOp31
 70
     1
102
RTVSPost2010Prop32
280
     0
102
RTVSPost2010PropOp32
 70
     1
102
RTVSPost2010Prop33
280
     0
102
RTVSPost2010PropOp33
 70
     1
102
RTVSPost2010Prop34
280
     0
102
RTVSPost2010PropOp34
 70
     1
102
RTVSPost2010Prop35
280
     0
102
RTVSPost2010PropOp35
 70
     1
102
RTVSPost2010Prop36
280
     0
102
RTVSPost2010PropOp36
 70
     1
102
RTVSPost2010Prop37
 90
       50
102
RTVSPost2010PropOp37
 70
     1
102
RTVSPost2010Prop38
140
0.0
102
RTVSPost2010PropOp38
 70
     1
102
RTVSPost2010Prop39
140
1.0
102
RTVSPost2010PropOp39
 70
     1
102
RTVSPost2010Prop40
 90
        0
102
RTVSPost2010PropOp40
 70
     1
102
RTVSPost2010Prop41ColorIndex
 90
       18
102
RTVSPost2010Prop41ColorRGB
 90
        0
102
RTVSPost2010PropOp41
 70
     1
102
RTVSPost2010Prop42
 90
       50
102
RTVSPost2010PropOp42
 70
     1
102
RTVSPost2010Prop43
 90
        3
102
RTVSPost2010PropOp43
 70
     1
102
RTVSPost2010Prop44ColorIndex
 90
        5
102
RTVSPost2010Prop44ColorRGB
 90
      255
102
RTVSPost2010PropOp44
 70
     1
102
RTVSPost2010Prop45
280
     0
102
RTVSPost2010PropOp45
 70
     1
102
RTVSPost2010Prop46
 90
       50
102
RTVSPost2010PropOp46
 70
     1
102
RTVSPost2010Prop47
 90
       50
102
RTVSPost2010PropOp47
 70
     1
102
RTVSPost2010Prop48
 90
       50
102
RTVSPost2010PropOp48
 70
     1
102
RTVSPost2010Prop49
280
     0
102
RTVSPost2010PropOp49
 70
     1
102
RTVSPost2010Prop50
 90
       50
102
RTVSPost2010PropOp50
 70
     1
102
RTVSPost2010Prop51ColorIndex
 90
      256
102
RTVSPost2010Prop51ColorRGB
 90
-16777216
102
RTVSPost2010PropOp51
 70
     0
102
RTVSPost2010Prop52
140
1.0
102
RTVSPost2010PropOp52
 70
     0
102
RTVSPost2010Prop53
 90
        2
102
RTVSPost2010PropOp53
 70
     1
102
RTVSPost2010Prop54
  1
strokes_ogs.tif
102
RTVSPost2010PropOp54
 70
     1
102
RTVSPost2010Prop55
280
     0
102
RTVSPost2010PropOp55
 70
     1
102
RTVSPost2010Prop56
140
1.0
102
RTVSPost2010PropOp56
 70
     1
102
RTVSPost2010Prop57
140
1.0
102
RTVSPost2010PropOp57
 70
     1
  0
XRECORD
  5
6BA
102
{ACAD_REACTORS
330
6B9
102
}
330
6B9
100
AcDbXrecord
280
     1
102
RTVSPropertyOp0
 70
     1
102
RTVSPropertyOp1
 70
     1
102
RTVSPropertyOp2
 70
     1
102
RTVSPropertyOp3
 70
     1
102
RTVSPropertyOp4
 70
     1
102
RTVSPropertyOp5
 70
     1
102
RTVSPropertyOp6
 70
     1
102
RTVSPropertyOp7
 70
     1
102
RTVSPropertyOp8
 70
     1
102
RTVSPropertyOp9
 70
     1
102
RTVSPropertyOp10
 70
     1
102
RTVSPropertyOp11
 70
     1
102
RTVSPropertyOp12
 70
     1
102
RTVSPropertyOp13
 70
     1
102
RTVSPropertyOp14
 70
     1
102
RTVSPropertyOp15
 70
     1
102
RTVSPropertyOp16
 70
     1
102
RTVSPropertyOp17
 70
     1
102
RTVSPropertyOp18
 70
     1
102
RTVSPropertyOp19
 70
     1
102
RTVSPropertyOp20
 70
     1
102
RTVSPropertyOp21
 70
     1
102
RTVSPropertyOp22
 70
     1
102
RTVSPropertyOp23
 70
     1
102
RTVSPropertyOp24
 70
     1
102
RTVSPropertyOp25
 70
     1
102
RTVSPropertyOp26
 70
     1
102
RTVSPropertyOp27
 70
     1
102
RTVSPropertyOp28
 70
     1
102
RTVSPropertyOp29
 70
     1
102
RTVSPropertyOp30
 70
     1
102
RTVSPropertyOp31
 70
     1
102
RTVSPropertyOp32
 70
     1
102
RTVSPropertyOp33
 70
     1
102
RTVSPropertyOp34
 70
     1
102
RTVSPropertyOp35
 70
     1
102
RTVSPropertyOp36
 70
     1
102
RTVSPropertyOp37
 70
     1
102
RTVSPropertyOp38
 70
     1
102
RTVSPropertyOp39
 70
     1
102
RTVSPropertyOp40
 70
     1
102
RTVSPropertyOp41
 70
     1
102
RTVSPropertyOp42
 70
     1
102
RTVSPropertyOp43
 70
     1
102
RTVSPropertyOp44
 70
     1
102
RTVSPropertyOp45
 70
     1
102
RTVSPropertyOp46
 70
     1
102
RTVSPropertyOp47
 70
     1
102
RTVSPropertyOp48
 70
     1
102
RTVSPropertyOp49
 70
     1
102
RTVSPropertyOp50
 70
     1
102
RTVSPropertyOp51
 70
     0
102
RTVSPropertyOp52
 70
     0
102
RTVSPropertyOp53
 70
     1
102
RTVSPropertyOp54
 70
     1
102
RTVSPropertyOp55
 70
     1
102
RTVSPropertyOp56
 70
     1
102
RTVSPropertyOp57
 70
     1
102
RTVSPost2010Prop28
280
     0
102
RTVSPost2010PropOp28
 70
     1
102
RTVSPost2010Prop29
280
     1
102
RTVSPost2010PropOp29
 70
     1
102
RTVSPost2010Prop30
280
     1
102
RTVSPost2010PropOp30
 70
     1
102
RTVSPost2010Prop31
280
     0
102
RTVSPost2010PropOp31
 70
     1
102
RTVSPost2010Prop32
280
     0
102
RTVSPost2010PropOp32
 70
     1
102
RTVSPost2010Prop33
280
     0
102
RTVSPost2010PropOp33
 70
     1
102
RTVSPost2010Prop34
280
     0
102
RTVSPost2010PropOp34
 70
     1
102
RTVSPost2010Prop35
280
     0
102
RTVSPost2010PropOp35
 70
     1
102
RTVSPost2010Prop36
280
     0
102
RTVSPost2010PropOp36
 70
     1
102
RTVSPost2010Prop37
 90
       50
102
RTVSPost2010PropOp37
 70
     1
102
RTVSPost2010Prop38
140
0.0
102
RTVSPost2010PropOp38
 70
     1
102
RTVSPost2010Prop39
140
1.0
102
RTVSPost2010PropOp39
 70
     1
102
RTVSPost2010Prop40
 90
        0
102
RTVSPost2010PropOp40
 70
     1
102
RTVSPost2010Prop41ColorIndex
 90
       18
102
RTVSPost2010Prop41ColorRGB
 90
        0
102
RTVSPost2010PropOp41
 70
     1
102
RTVSPost2010Prop42
 90
       50
102
RTVSPost2010PropOp42
 70
     1
102
RTVSPost2010Prop43
 90
        3
102
RTVSPost2010PropOp43
 70
     1
102
RTVSPost2010Prop44ColorIndex
 90
        5
102
RTVSPost2010Prop44ColorRGB
 90
      255
102
RTVSPost2010PropOp44
 70
     1
102
RTVSPost2010Prop45
280
     0
102
RTVSPost2010PropOp45
 70
     1
102
RTVSPost2010Prop46
 90
       50
102
RTVSPost2010PropOp46
 70
     1
102
RTVSPost2010Prop47
 90
       50
102
RTVSPost2010PropOp47
 70
     1
102
RTVSPost2010Prop48
 90
       50
102
RTVSPost2010PropOp48
 70
     1
102
RTVSPost2010Prop49
280
     0
102
RTVSPost2010PropOp49
 70
     1
102
RTVSPost2010Prop50
 90
       50
102
RTVSPost2010PropOp50
 70
     1
102
RTVSPost2010Prop51ColorIndex
 90
      256
102
RTVSPost2010Prop51ColorRGB
 90
-16777216
102
RTVSPost2010PropOp51
 70
     0
102
RTVSPost2010Prop52
140
1.0
102
RTVSPost2010PropOp52
 70
     0
102
RTVSPost2010Prop53
 90
        2
102
RTVSPost2010PropOp53
 70
     1
102
RTVSPost2010Prop54
  1
strokes_ogs.tif
102
RTVSPost2010PropOp54
 70
     1
102
RTVSPost2010Prop55
280
     0
102
RTVSPost2010PropOp55
 70
     1
102
RTVSPost2010Prop56
140
1.0
102
RTVSPost2010PropOp56
 70
     1
102
RTVSPost2010Prop57
140
1.0
102
RTVSPost2010PropOp57
 70
     1
  0
XRECORD
  5
6CE
102
{ACAD_REACTORS
330
6CD
102
}
330
6CD
100
AcDbXrecord
280
     1
102
RTVSPropertyOp0
 70
     0
102
RTVSPropertyOp1
 70
     0
102
RTVSPropertyOp2
 70
     0
102
RTVSPropertyOp3
 70
     0
102
RTVSPropertyOp4
 70
     0
102
RTVSPropertyOp5
 70
     0
102
RTVSPropertyOp6
 70
     0
102
RTVSPropertyOp7
 70
     0
102
RTVSPropertyOp8
 70
     0
102
RTVSPropertyOp9
 70
     0
102
RTVSPropertyOp10
 70
     0
102
RTVSPropertyOp11
 70
     0
102
RTVSPropertyOp12
 70
     0
102
RTVSPropertyOp13
 70
     0
102
RTVSPropertyOp14
 70
     2
102
RTVSPropertyOp15
 70
     0
102
RTVSPropertyOp16
 70
     0
102
RTVSPropertyOp17
 70
     0
102
RTVSPropertyOp18
 70
     0
102
RTVSPropertyOp19
 70
     0
102
RTVSPropertyOp20
 70
     0
102
RTVSPropertyOp21
 70
     0
102
RTVSPropertyOp22
 70
     0
102
RTVSPropertyOp23
 70
     0
102
RTVSPropertyOp24
 70
     0
102
RTVSPropertyOp25
 70
     0
102
RTVSPropertyOp26
 70
     0
102
RTVSPropertyOp27
 70
     0
102
RTVSPropertyOp28
 70
     0
102
RTVSPropertyOp29
 70
     0
102
RTVSPropertyOp30
 70
     0
102
RTVSPropertyOp31
 70
     0
102
RTVSPropertyOp32
 70
     0
102
RTVSPropertyOp33
 70
     0
102
RTVSPropertyOp34
 70
     0
102
RTVSPropertyOp35
 70
     0
102
RTVSPropertyOp36
 70
     0
102
RTVSPropertyOp37
 70
     0
102
RTVSPropertyOp38
 70
     0
102
RTVSPropertyOp39
 70
     0
102
RTVSPropertyOp40
 70
     0
102
RTVSPropertyOp41
 70
     0
102
RTVSPropertyOp42
 70
     0
102
RTVSPropertyOp43
 70
     0
102
RTVSPropertyOp44
 70
     0
102
RTVSPropertyOp45
 70
     0
102
RTVSPropertyOp46
 70
     0
102
RTVSPropertyOp47
 70
     0
102
RTVSPropertyOp48
 70
     0
102
RTVSPropertyOp49
 70
     0
102
RTVSPropertyOp50
 70
     0
102
RTVSPropertyOp51
 70
     0
102
RTVSPropertyOp52
 70
     0
102
RTVSPropertyOp53
 70
     0
102
RTVSPropertyOp54
 70
     0
102
RTVSPropertyOp55
 70
     0
102
RTVSPropertyOp56
 70
     0
102
RTVSPropertyOp57
 70
     0
102
RTVSPost2010Prop28
280
     0
102
RTVSPost2010PropOp28
 70
     0
102
RTVSPost2010Prop29
280
     1
102
RTVSPost2010PropOp29
 70
     0
102
RTVSPost2010Prop30
280
     1
102
RTVSPost2010PropOp30
 70
     0
102
RTVSPost2010Prop31
280
     0
102
RTVSPost2010PropOp31
 70
     0
102
RTVSPost2010Prop32
280
     0
102
RTVSPost2010PropOp32
 70
     0
102
RTVSPost2010Prop33
280
     0
102
RTVSPost2010PropOp33
 70
     0
102
RTVSPost2010Prop34
280
     0
102
RTVSPost2010PropOp34
 70
     0
102
RTVSPost2010Prop35
280
     0
102
RTVSPost2010PropOp35
 70
     0
102
RTVSPost2010Prop36
280
     0
102
RTVSPost2010PropOp36
 70
     0
102
RTVSPost2010Prop37
 90
       50
102
RTVSPost2010PropOp37
 70
     0
102
RTVSPost2010Prop38
140
0.0
102
RTVSPost2010PropOp38
 70
     0
102
RTVSPost2010Prop39
140
1.0
102
RTVSPost2010PropOp39
 70
     0
102
RTVSPost2010Prop40
 90
        0
102
RTVSPost2010PropOp40
 70
     0
102
RTVSPost2010Prop41ColorIndex
 90
       18
102
RTVSPost2010Prop41ColorRGB
 90
        0
102
RTVSPost2010PropOp41
 70
     0
102
RTVSPost2010Prop42
 90
       50
102
RTVSPost2010PropOp42
 70
     0
102
RTVSPost2010Prop43
 90
        3
102
RTVSPost2010PropOp43
 70
     0
102
RTVSPost2010Prop44ColorIndex
 90
        5
102
RTVSPost2010Prop44ColorRGB
 90
      255
102
RTVSPost2010PropOp44
 70
     0
102
RTVSPost2010Prop45
280
     0
102
RTVSPost2010PropOp45
 70
     0
102
RTVSPost2010Prop46
 90
       50
102
RTVSPost2010PropOp46
 70
     0
102
RTVSPost2010Prop47
 90
       50
102
RTVSPost2010PropOp47
 70
     0
102
RTVSPost2010Prop48
 90
       50
102
RTVSPost2010PropOp48
 70
     0
102
RTVSPost2010Prop49
280
     0
102
RTVSPost2010PropOp49
 70
     0
102
RTVSPost2010Prop50
 90
       50
102
RTVSPost2010PropOp50
 70
     0
102
RTVSPost2010Prop51ColorIndex
 90
      256
102
RTVSPost2010Prop51ColorRGB
 90
-16777216
102
RTVSPost2010PropOp51
 70
     0
102
RTVSPost2010Prop52
140
1.0
102
RTVSPost2010PropOp52
 70
     0
102
RTVSPost2010Prop53
 90
        2
102
RTVSPost2010PropOp53
 70
     0
102
RTVSPost2010Prop54
  1
strokes_ogs.tif
102
RTVSPost2010PropOp54
 70
     0
102
RTVSPost2010Prop55
280
     0
102
RTVSPost2010PropOp55
 70
     0
102
RTVSPost2010Prop56
140
1.0
102
RTVSPost2010PropOp56
 70
     0
102
RTVSPost2010Prop57
140
1.0
102
RTVSPost2010PropOp57
 70
     0
  0
XRECORD
  5
6C8
102
{ACAD_REACTORS
330
6C7
102
}
330
6C7
100
AcDbXrecord
280
     1
102
RTVSPropertyOp0
 70
     1
102
RTVSPropertyOp1
 70
     1
102
RTVSPropertyOp2
 70
     1
102
RTVSPropertyOp3
 70
     1
102
RTVSPropertyOp4
 70
     1
102
RTVSPropertyOp5
 70
     1
102
RTVSPropertyOp6
 70
     1
102
RTVSPropertyOp7
 70
     1
102
RTVSPropertyOp8
 70
     1
102
RTVSPropertyOp9
 70
     1
102
RTVSPropertyOp10
 70
     1
102
RTVSPropertyOp11
 70
     1
102
RTVSPropertyOp12
 70
     1
102
RTVSPropertyOp13
 70
     1
102
RTVSPropertyOp14
 70
     1
102
RTVSPropertyOp15
 70
     1
102
RTVSPropertyOp16
 70
     1
102
RTVSPropertyOp17
 70
     1
102
RTVSPropertyOp18
 70
     1
102
RTVSPropertyOp19
 70
     1
102
RTVSPropertyOp20
 70
     1
102
RTVSPropertyOp21
 70
     1
102
RTVSPropertyOp22
 70
     1
102
RTVSPropertyOp23
 70
     1
102
RTVSPropertyOp24
 70
     1
102
RTVSPropertyOp25
 70
     1
102
RTVSPropertyOp26
 70
     1
102
RTVSPropertyOp27
 70
     1
102
RTVSPropertyOp28
 70
     1
102
RTVSPropertyOp29
 70
     1
102
RTVSPropertyOp30
 70
     1
102
RTVSPropertyOp31
 70
     1
102
RTVSPropertyOp32
 70
     1
102
RTVSPropertyOp33
 70
     1
102
RTVSPropertyOp34
 70
     1
102
RTVSPropertyOp35
 70
     1
102
RTVSPropertyOp36
 70
     1
102
RTVSPropertyOp37
 70
     1
102
RTVSPropertyOp38
 70
     1
102
RTVSPropertyOp39
 70
     1
102
RTVSPropertyOp40
 70
     1
102
RTVSPropertyOp41
 70
     1
102
RTVSPropertyOp42
 70
     1
102
RTVSPropertyOp43
 70
     1
102
RTVSPropertyOp44
 70
     1
102
RTVSPropertyOp45
 70
     1
102
RTVSPropertyOp46
 70
     1
102
RTVSPropertyOp47
 70
     1
102
RTVSPropertyOp48
 70
     1
102
RTVSPropertyOp49
 70
     1
102
RTVSPropertyOp50
 70
     1
102
RTVSPropertyOp51
 70
     0
102
RTVSPropertyOp52
 70
     0
102
RTVSPropertyOp53
 70
     1
102
RTVSPropertyOp54
 70
     1
102
RTVSPropertyOp55
 70
     1
102
RTVSPropertyOp56
 70
     1
102
RTVSPropertyOp57
 70
     1
102
RTVSPost2010Prop28
280
     0
102
RTVSPost2010PropOp28
 70
     1
102
RTVSPost2010Prop29
280
     1
102
RTVSPost2010PropOp29
 70
     1
102
RTVSPost2010Prop30
280
     1
102
RTVSPost2010PropOp30
 70
     1
102
RTVSPost2010Prop31
280
     0
102
RTVSPost2010PropOp31
 70
     1
102
RTVSPost2010Prop32
280
     0
102
RTVSPost2010PropOp32
 70
     1
102
RTVSPost2010Prop33
280
     0
102
RTVSPost2010PropOp33
 70
     1
102
RTVSPost2010Prop34
280
     0
102
RTVSPost2010PropOp34
 70
     1
102
RTVSPost2010Prop35
280
     0
102
RTVSPost2010PropOp35
 70
     1
102
RTVSPost2010Prop36
280
     0
102
RTVSPost2010PropOp36
 70
     1
102
RTVSPost2010Prop37
 90
       50
102
RTVSPost2010PropOp37
 70
     1
102
RTVSPost2010Prop38
140
0.0
102
RTVSPost2010PropOp38
 70
     1
102
RTVSPost2010Prop39
140
1.0
102
RTVSPost2010PropOp39
 70
     1
102
RTVSPost2010Prop40
 90
        0
102
RTVSPost2010PropOp40
 70
     1
102
RTVSPost2010Prop41ColorIndex
 90
       18
102
RTVSPost2010Prop41ColorRGB
 90
        0
102
RTVSPost2010PropOp41
 70
     1
102
RTVSPost2010Prop42
 90
       50
102
RTVSPost2010PropOp42
 70
     1
102
RTVSPost2010Prop43
 90
        3
102
RTVSPost2010PropOp43
 70
     1
102
RTVSPost2010Prop44ColorIndex
 90
        5
102
RTVSPost2010Prop44ColorRGB
 90
      255
102
RTVSPost2010PropOp44
 70
     1
102
RTVSPost2010Prop45
280
     0
102
RTVSPost2010PropOp45
 70
     1
102
RTVSPost2010Prop46
 90
       50
102
RTVSPost2010PropOp46
 70
     1
102
RTVSPost2010Prop47
 90
       50
102
RTVSPost2010PropOp47
 70
     1
102
RTVSPost2010Prop48
 90
       50
102
RTVSPost2010PropOp48
 70
     1
102
RTVSPost2010Prop49
280
     0
102
RTVSPost2010PropOp49
 70
     1
102
RTVSPost2010Prop50
 90
       50
102
RTVSPost2010PropOp50
 70
     1
102
RTVSPost2010Prop51ColorIndex
 90
      256
102
RTVSPost2010Prop51ColorRGB
 90
-16777216
102
RTVSPost2010PropOp51
 70
     0
102
RTVSPost2010Prop52
140
1.0
102
RTVSPost2010PropOp52
 70
     0
102
RTVSPost2010Prop53
 90
        2
102
RTVSPost2010PropOp53
 70
     1
102
RTVSPost2010Prop54
  1
strokes_ogs.tif
102
RTVSPost2010PropOp54
 70
     1
102
RTVSPost2010Prop55
280
     0
102
RTVSPost2010PropOp55
 70
     1
102
RTVSPost2010Prop56
140
1.0
102
RTVSPost2010PropOp56
 70
     1
102
RTVSPost2010Prop57
140
1.0
102
RTVSPost2010PropOp57
 70
     1
  0
XRECORD
  5
6D0
102
{ACAD_REACTORS
330
6CF
102
}
330
6CF
100
AcDbXrecord
280
     1
102
RTVSPropertyOp0
 70
     0
102
RTVSPropertyOp1
 70
     0
102
RTVSPropertyOp2
 70
     0
102
RTVSPropertyOp3
 70
     0
102
RTVSPropertyOp4
 70
     0
102
RTVSPropertyOp5
 70
     0
102
RTVSPropertyOp6
 70
     0
102
RTVSPropertyOp7
 70
     0
102
RTVSPropertyOp8
 70
     0
102
RTVSPropertyOp9
 70
     0
102
RTVSPropertyOp10
 70
     0
102
RTVSPropertyOp11
 70
     0
102
RTVSPropertyOp12
 70
     0
102
RTVSPropertyOp13
 70
     0
102
RTVSPropertyOp14
 70
     2
102
RTVSPropertyOp15
 70
     0
102
RTVSPropertyOp16
 70
     0
102
RTVSPropertyOp17
 70
     0
102
RTVSPropertyOp18
 70
     0
102
RTVSPropertyOp19
 70
     0
102
RTVSPropertyOp20
 70
     0
102
RTVSPropertyOp21
 70
     0
102
RTVSPropertyOp22
 70
     0
102
RTVSPropertyOp23
 70
     0
102
RTVSPropertyOp24
 70
     0
102
RTVSPropertyOp25
 70
     0
102
RTVSPropertyOp26
 70
     0
102
RTVSPropertyOp27
 70
     0
102
RTVSPropertyOp28
 70
     0
102
RTVSPropertyOp29
 70
     0
102
RTVSPropertyOp30
 70
     0
102
RTVSPropertyOp31
 70
     0
102
RTVSPropertyOp32
 70
     0
102
RTVSPropertyOp33
 70
     0
102
RTVSPropertyOp34
 70
     0
102
RTVSPropertyOp35
 70
     0
102
RTVSPropertyOp36
 70
     0
102
RTVSPropertyOp37
 70
     0
102
RTVSPropertyOp38
 70
     0
102
RTVSPropertyOp39
 70
     0
102
RTVSPropertyOp40
 70
     0
102
RTVSPropertyOp41
 70
     0
102
RTVSPropertyOp42
 70
     0
102
RTVSPropertyOp43
 70
     0
102
RTVSPropertyOp44
 70
     0
102
RTVSPropertyOp45
 70
     0
102
RTVSPropertyOp46
 70
     0
102
RTVSPropertyOp47
 70
     0
102
RTVSPropertyOp48
 70
     0
102
RTVSPropertyOp49
 70
     0
102
RTVSPropertyOp50
 70
     0
102
RTVSPropertyOp51
 70
     0
102
RTVSPropertyOp52
 70
     0
102
RTVSPropertyOp53
 70
     0
102
RTVSPropertyOp54
 70
     0
102
RTVSPropertyOp55
 70
     0
102
RTVSPropertyOp56
 70
     0
102
RTVSPropertyOp57
 70
     0
102
RTVSPost2010Prop28
280
     0
102
RTVSPost2010PropOp28
 70
     0
102
RTVSPost2010Prop29
280
     1
102
RTVSPost2010PropOp29
 70
     0
102
RTVSPost2010Prop30
280
     1
102
RTVSPost2010PropOp30
 70
     0
102
RTVSPost2010Prop31
280
     0
102
RTVSPost2010PropOp31
 70
     0
102
RTVSPost2010Prop32
280
     0
102
RTVSPost2010PropOp32
 70
     0
102
RTVSPost2010Prop33
280
     0
102
RTVSPost2010PropOp33
 70
     0
102
RTVSPost2010Prop34
280
     0
102
RTVSPost2010PropOp34
 70
     0
102
RTVSPost2010Prop35
280
     0
102
RTVSPost2010PropOp35
 70
     0
102
RTVSPost2010Prop36
280
     0
102
RTVSPost2010PropOp36
 70
     0
102
RTVSPost2010Prop37
 90
       50
102
RTVSPost2010PropOp37
 70
     0
102
RTVSPost2010Prop38
140
0.0
102
RTVSPost2010PropOp38
 70
     0
102
RTVSPost2010Prop39
140
1.0
102
RTVSPost2010PropOp39
 70
     0
102
RTVSPost2010Prop40
 90
        0
102
RTVSPost2010PropOp40
 70
     0
102
RTVSPost2010Prop41ColorIndex
 90
       18
102
RTVSPost2010Prop41ColorRGB
 90
        0
102
RTVSPost2010PropOp41
 70
     0
102
RTVSPost2010Prop42
 90
       50
102
RTVSPost2010PropOp42
 70
     0
102
RTVSPost2010Prop43
 90
        3
102
RTVSPost2010PropOp43
 70
     0
102
RTVSPost2010Prop44ColorIndex
 90
        5
102
RTVSPost2010Prop44ColorRGB
 90
      255
102
RTVSPost2010PropOp44
 70
     0
102
RTVSPost2010Prop45
280
     0
102
RTVSPost2010PropOp45
 70
     0
102
RTVSPost2010Prop46
 90
       50
102
RTVSPost2010PropOp46
 70
     0
102
RTVSPost2010Prop47
 90
       50
102
RTVSPost2010PropOp47
 70
     0
102
RTVSPost2010Prop48
 90
       50
102
RTVSPost2010PropOp48
 70
     0
102
RTVSPost2010Prop49
280
     0
102
RTVSPost2010PropOp49
 70
     0
102
RTVSPost2010Prop50
 90
       50
102
RTVSPost2010PropOp50
 70
     0
102
RTVSPost2010Prop51ColorIndex
 90
      256
102
RTVSPost2010Prop51ColorRGB
 90
-16777216
102
RTVSPost2010PropOp51
 70
     0
102
RTVSPost2010Prop52
140
1.0
102
RTVSPost2010PropOp52
 70
     0
102
RTVSPost2010Prop53
 90
        2
102
RTVSPost2010PropOp53
 70
     0
102
RTVSPost2010Prop54
  1
strokes_ogs.tif
102
RTVSPost2010PropOp54
 70
     0
102
RTVSPost2010Prop55
280
     0
102
RTVSPost2010PropOp55
 70
     0
102
RTVSPost2010Prop56
140
1.0
102
RTVSPost2010PropOp56
 70
     0
102
RTVSPost2010Prop57
140
1.0
102
RTVSPost2010PropOp57
 70
     0
  0
XRECORD
  5
6BE
102
{ACAD_REACTORS
330
6BD
102
}
330
6BD
100
AcDbXrecord
280
     1
102
RTVSPropertyOp0
 70
     1
102
RTVSPropertyOp1
 70
     1
102
RTVSPropertyOp2
 70
     1
102
RTVSPropertyOp3
 70
     1
102
RTVSPropertyOp4
 70
     1
102
RTVSPropertyOp5
 70
     1
102
RTVSPropertyOp6
 70
     1
102
RTVSPropertyOp7
 70
     1
102
RTVSPropertyOp8
 70
     1
102
RTVSPropertyOp9
 70
     1
102
RTVSPropertyOp10
 70
     1
102
RTVSPropertyOp11
 70
     1
102
RTVSPropertyOp12
 70
     1
102
RTVSPropertyOp13
 70
     1
102
RTVSPropertyOp14
 70
     1
102
RTVSPropertyOp15
 70
     1
102
RTVSPropertyOp16
 70
     1
102
RTVSPropertyOp17
 70
     1
102
RTVSPropertyOp18
 70
     1
102
RTVSPropertyOp19
 70
     1
102
RTVSPropertyOp20
 70
     1
102
RTVSPropertyOp21
 70
     1
102
RTVSPropertyOp22
 70
     1
102
RTVSPropertyOp23
 70
     1
102
RTVSPropertyOp24
 70
     1
102
RTVSPropertyOp25
 70
     1
102
RTVSPropertyOp26
 70
     1
102
RTVSPropertyOp27
 70
     1
102
RTVSPropertyOp28
 70
     1
102
RTVSPropertyOp29
 70
     1
102
RTVSPropertyOp30
 70
     1
102
RTVSPropertyOp31
 70
     1
102
RTVSPropertyOp32
 70
     1
102
RTVSPropertyOp33
 70
     1
102
RTVSPropertyOp34
 70
     1
102
RTVSPropertyOp35
 70
     1
102
RTVSPropertyOp36
 70
     1
102
RTVSPropertyOp37
 70
     1
102
RTVSPropertyOp38
 70
     1
102
RTVSPropertyOp39
 70
     1
102
RTVSPropertyOp40
 70
     1
102
RTVSPropertyOp41
 70
     1
102
RTVSPropertyOp42
 70
     1
102
RTVSPropertyOp43
 70
     1
102
RTVSPropertyOp44
 70
     1
102
RTVSPropertyOp45
 70
     1
102
RTVSPropertyOp46
 70
     1
102
RTVSPropertyOp47
 70
     1
102
RTVSPropertyOp48
 70
     1
102
RTVSPropertyOp49
 70
     1
102
RTVSPropertyOp50
 70
     1
102
RTVSPropertyOp51
 70
     0
102
RTVSPropertyOp52
 70
     0
102
RTVSPropertyOp53
 70
     1
102
RTVSPropertyOp54
 70
     1
102
RTVSPropertyOp55
 70
     1
102
RTVSPropertyOp56
 70
     1
102
RTVSPropertyOp57
 70
     1
102
RTVSPost2010Prop28
280
     0
102
RTVSPost2010PropOp28
 70
     1
102
RTVSPost2010Prop29
280
     1
102
RTVSPost2010PropOp29
 70
     1
102
RTVSPost2010Prop30
280
     1
102
RTVSPost2010PropOp30
 70
     1
102
RTVSPost2010Prop31
280
     0
102
RTVSPost2010PropOp31
 70
     1
102
RTVSPost2010Prop32
280
     0
102
RTVSPost2010PropOp32
 70
     1
102
RTVSPost2010Prop33
280
     0
102
RTVSPost2010PropOp33
 70
     1
102
RTVSPost2010Prop34
280
     0
102
RTVSPost2010PropOp34
 70
     1
102
RTVSPost2010Prop35
280
     0
102
RTVSPost2010PropOp35
 70
     1
102
RTVSPost2010Prop36
280
     0
102
RTVSPost2010PropOp36
 70
     1
102
RTVSPost2010Prop37
 90
       50
102
RTVSPost2010PropOp37
 70
     1
102
RTVSPost2010Prop38
140
0.0
102
RTVSPost2010PropOp38
 70
     1
102
RTVSPost2010Prop39
140
1.0
102
RTVSPost2010PropOp39
 70
     1
102
RTVSPost2010Prop40
 90
        0
102
RTVSPost2010PropOp40
 70
     1
102
RTVSPost2010Prop41ColorIndex
 90
       18
102
RTVSPost2010Prop41ColorRGB
 90
        0
102
RTVSPost2010PropOp41
 70
     1
102
RTVSPost2010Prop42
 90
       50
102
RTVSPost2010PropOp42
 70
     1
102
RTVSPost2010Prop43
 90
        3
102
RTVSPost2010PropOp43
 70
     1
102
RTVSPost2010Prop44ColorIndex
 90
        5
102
RTVSPost2010Prop44ColorRGB
 90
      255
102
RTVSPost2010PropOp44
 70
     1
102
RTVSPost2010Prop45
280
     0
102
RTVSPost2010PropOp45
 70
     1
102
RTVSPost2010Prop46
 90
       50
102
RTVSPost2010PropOp46
 70
     1
102
RTVSPost2010Prop47
 90
       50
102
RTVSPost2010PropOp47
 70
     1
102
RTVSPost2010Prop48
 90
       50
102
RTVSPost2010PropOp48
 70
     1
102
RTVSPost2010Prop49
280
     0
102
RTVSPost2010PropOp49
 70
     1
102
RTVSPost2010Prop50
 90
       50
102
RTVSPost2010PropOp50
 70
     1
102
RTVSPost2010Prop51ColorIndex
 90
      256
102
RTVSPost2010Prop51ColorRGB
 90
-16777216
102
RTVSPost2010PropOp51
 70
     0
102
RTVSPost2010Prop52
140
1.0
102
RTVSPost2010PropOp52
 70
     0
102
RTVSPost2010Prop53
 90
        2
102
RTVSPost2010PropOp53
 70
     1
102
RTVSPost2010Prop54
  1
strokes_ogs.tif
102
RTVSPost2010PropOp54
 70
     1
102
RTVSPost2010Prop55
280
     0
102
RTVSPost2010PropOp55
 70
     1
102
RTVSPost2010Prop56
140
1.0
102
RTVSPost2010PropOp56
 70
     1
102
RTVSPost2010Prop57
140
1.0
102
RTVSPost2010PropOp57
 70
     1
  0
XRECORD
  5
6DC
102
{ACAD_REACTORS
330
6DB
102
}
330
6DB
100
AcDbXrecord
280
     1
102
RTVSPropertyOp0
 70
     1
102
RTVSPropertyOp1
 70
     1
102
RTVSPropertyOp2
 70
     1
102
RTVSPropertyOp3
 70
     1
102
RTVSPropertyOp4
 70
     1
102
RTVSPropertyOp5
 70
     1
102
RTVSPropertyOp6
 70
     1
102
RTVSPropertyOp7
 70
     1
102
RTVSPropertyOp8
 70
     1
102
RTVSPropertyOp9
 70
     1
102
RTVSPropertyOp10
 70
     1
102
RTVSPropertyOp11
 70
     1
102
RTVSPropertyOp12
 70
     1
102
RTVSPropertyOp13
 70
     1
102
RTVSPropertyOp14
 70
     1
102
RTVSPropertyOp15
 70
     1
102
RTVSPropertyOp16
 70
     1
102
RTVSPropertyOp17
 70
     1
102
RTVSPropertyOp18
 70
     1
102
RTVSPropertyOp19
 70
     1
102
RTVSPropertyOp20
 70
     1
102
RTVSPropertyOp21
 70
     1
102
RTVSPropertyOp22
 70
     1
102
RTVSPropertyOp23
 70
     1
102
RTVSPropertyOp24
 70
     1
102
RTVSPropertyOp25
 70
     1
102
RTVSPropertyOp26
 70
     1
102
RTVSPropertyOp27
 70
     1
102
RTVSPropertyOp28
 70
     1
102
RTVSPropertyOp29
 70
     1
102
RTVSPropertyOp30
 70
     1
102
RTVSPropertyOp31
 70
     1
102
RTVSPropertyOp32
 70
     1
102
RTVSPropertyOp33
 70
     1
102
RTVSPropertyOp34
 70
     1
102
RTVSPropertyOp35
 70
     1
102
RTVSPropertyOp36
 70
     1
102
RTVSPropertyOp37
 70
     1
102
RTVSPropertyOp38
 70
     1
102
RTVSPropertyOp39
 70
     1
102
RTVSPropertyOp40
 70
     1
102
RTVSPropertyOp41
 70
     1
102
RTVSPropertyOp42
 70
     1
102
RTVSPropertyOp43
 70
     1
102
RTVSPropertyOp44
 70
     1
102
RTVSPropertyOp45
 70
     1
102
RTVSPropertyOp46
 70
     1
102
RTVSPropertyOp47
 70
     1
102
RTVSPropertyOp48
 70
     1
102
RTVSPropertyOp49
 70
     1
102
RTVSPropertyOp50
 70
     1
102
RTVSPropertyOp51
 70
     0
102
RTVSPropertyOp52
 70
     0
102
RTVSPropertyOp53
 70
     1
102
RTVSPropertyOp54
 70
     1
102
RTVSPropertyOp55
 70
     1
102
RTVSPropertyOp56
 70
     1
102
RTVSPropertyOp57
 70
     1
102
RTVSPost2010Prop28
280
     0
102
RTVSPost2010PropOp28
 70
     1
102
RTVSPost2010Prop29
280
     1
102
RTVSPost2010PropOp29
 70
     1
102
RTVSPost2010Prop30
280
     1
102
RTVSPost2010PropOp30
 70
     1
102
RTVSPost2010Prop31
280
     0
102
RTVSPost2010PropOp31
 70
     1
102
RTVSPost2010Prop32
280
     0
102
RTVSPost2010PropOp32
 70
     1
102
RTVSPost2010Prop33
280
     0
102
RTVSPost2010PropOp33
 70
     1
102
RTVSPost2010Prop34
280
     0
102
RTVSPost2010PropOp34
 70
     1
102
RTVSPost2010Prop35
280
     0
102
RTVSPost2010PropOp35
 70
     1
102
RTVSPost2010Prop36
280
     0
102
RTVSPost2010PropOp36
 70
     1
102
RTVSPost2010Prop37
 90
       50
102
RTVSPost2010PropOp37
 70
     1
102
RTVSPost2010Prop38
140
0.0
102
RTVSPost2010PropOp38
 70
     1
102
RTVSPost2010Prop39
140
1.0
102
RTVSPost2010PropOp39
 70
     1
102
RTVSPost2010Prop40
 90
        0
102
RTVSPost2010PropOp40
 70
     1
102
RTVSPost2010Prop41ColorIndex
 90
       18
102
RTVSPost2010Prop41ColorRGB
 90
        0
102
RTVSPost2010PropOp41
 70
     1
102
RTVSPost2010Prop42
 90
       50
102
RTVSPost2010PropOp42
 70
     1
102
RTVSPost2010Prop43
 90
        3
102
RTVSPost2010PropOp43
 70
     1
102
RTVSPost2010Prop44ColorIndex
 90
        5
102
RTVSPost2010Prop44ColorRGB
 90
      255
102
RTVSPost2010PropOp44
 70
     1
102
RTVSPost2010Prop45
280
     0
102
RTVSPost2010PropOp45
 70
     1
102
RTVSPost2010Prop46
 90
       50
102
RTVSPost2010PropOp46
 70
     1
102
RTVSPost2010Prop47
 90
       50
102
RTVSPost2010PropOp47
 70
     1
102
RTVSPost2010Prop48
 90
       50
102
RTVSPost2010PropOp48
 70
     1
102
RTVSPost2010Prop49
280
     0
102
RTVSPost2010PropOp49
 70
     1
102
RTVSPost2010Prop50
 90
       50
102
RTVSPost2010PropOp50
 70
     1
102
RTVSPost2010Prop51ColorIndex
 90
      256
102
RTVSPost2010Prop51ColorRGB
 90
-16777216
102
RTVSPost2010PropOp51
 70
     0
102
RTVSPost2010Prop52
140
1.0
102
RTVSPost2010PropOp52
 70
     0
102
RTVSPost2010Prop53
 90
        2
102
RTVSPost2010PropOp53
 70
     1
102
RTVSPost2010Prop54
  1
strokes_ogs.tif
102
RTVSPost2010PropOp54
 70
     1
102
RTVSPost2010Prop55
280
     0
102
RTVSPost2010PropOp55
 70
     1
102
RTVSPost2010Prop56
140
1.0
102
RTVSPost2010PropOp56
 70
     1
102
RTVSPost2010Prop57
140
1.0
102
RTVSPost2010PropOp57
 70
     1
  0
XRECORD
  5
6DA
102
{ACAD_REACTORS
330
6D9
102
}
330
6D9
100
AcDbXrecord
280
     1
102
RTVSPropertyOp0
 70
     1
102
RTVSPropertyOp1
 70
     1
102
RTVSPropertyOp2
 70
     1
102
RTVSPropertyOp3
 70
     1
102
RTVSPropertyOp4
 70
     1
102
RTVSPropertyOp5
 70
     1
102
RTVSPropertyOp6
 70
     1
102
RTVSPropertyOp7
 70
     1
102
RTVSPropertyOp8
 70
     1
102
RTVSPropertyOp9
 70
     1
102
RTVSPropertyOp10
 70
     1
102
RTVSPropertyOp11
 70
     1
102
RTVSPropertyOp12
 70
     1
102
RTVSPropertyOp13
 70
     1
102
RTVSPropertyOp14
 70
     1
102
RTVSPropertyOp15
 70
     1
102
RTVSPropertyOp16
 70
     1
102
RTVSPropertyOp17
 70
     1
102
RTVSPropertyOp18
 70
     1
102
RTVSPropertyOp19
 70
     1
102
RTVSPropertyOp20
 70
     1
102
RTVSPropertyOp21
 70
     1
102
RTVSPropertyOp22
 70
     1
102
RTVSPropertyOp23
 70
     1
102
RTVSPropertyOp24
 70
     1
102
RTVSPropertyOp25
 70
     1
102
RTVSPropertyOp26
 70
     1
102
RTVSPropertyOp27
 70
     1
102
RTVSPropertyOp28
 70
     1
102
RTVSPropertyOp29
 70
     1
102
RTVSPropertyOp30
 70
     1
102
RTVSPropertyOp31
 70
     1
102
RTVSPropertyOp32
 70
     1
102
RTVSPropertyOp33
 70
     1
102
RTVSPropertyOp34
 70
     1
102
RTVSPropertyOp35
 70
     1
102
RTVSPropertyOp36
 70
     1
102
RTVSPropertyOp37
 70
     1
102
RTVSPropertyOp38
 70
     1
102
RTVSPropertyOp39
 70
     1
102
RTVSPropertyOp40
 70
     1
102
RTVSPropertyOp41
 70
     1
102
RTVSPropertyOp42
 70
     1
102
RTVSPropertyOp43
 70
     1
102
RTVSPropertyOp44
 70
     1
102
RTVSPropertyOp45
 70
     1
102
RTVSPropertyOp46
 70
     1
102
RTVSPropertyOp47
 70
     1
102
RTVSPropertyOp48
 70
     1
102
RTVSPropertyOp49
 70
     1
102
RTVSPropertyOp50
 70
     1
102
RTVSPropertyOp51
 70
     0
102
RTVSPropertyOp52
 70
     0
102
RTVSPropertyOp53
 70
     1
102
RTVSPropertyOp54
 70
     1
102
RTVSPropertyOp55
 70
     1
102
RTVSPropertyOp56
 70
     1
102
RTVSPropertyOp57
 70
     1
102
RTVSPost2010Prop28
280
     0
102
RTVSPost2010PropOp28
 70
     1
102
RTVSPost2010Prop29
280
     1
102
RTVSPost2010PropOp29
 70
     1
102
RTVSPost2010Prop30
280
     1
102
RTVSPost2010PropOp30
 70
     1
102
RTVSPost2010Prop31
280
     0
102
RTVSPost2010PropOp31
 70
     1
102
RTVSPost2010Prop32
280
     0
102
RTVSPost2010PropOp32
 70
     1
102
RTVSPost2010Prop33
280
     0
102
RTVSPost2010PropOp33
 70
     1
102
RTVSPost2010Prop34
280
     0
102
RTVSPost2010PropOp34
 70
     1
102
RTVSPost2010Prop35
280
     0
102
RTVSPost2010PropOp35
 70
     1
102
RTVSPost2010Prop36
280
     0
102
RTVSPost2010PropOp36
 70
     1
102
RTVSPost2010Prop37
 90
       50
102
RTVSPost2010PropOp37
 70
     1
102
RTVSPost2010Prop38
140
0.0
102
RTVSPost2010PropOp38
 70
     1
102
RTVSPost2010Prop39
140
1.0
102
RTVSPost2010PropOp39
 70
     1
102
RTVSPost2010Prop40
 90
        0
102
RTVSPost2010PropOp40
 70
     1
102
RTVSPost2010Prop41ColorIndex
 90
       18
102
RTVSPost2010Prop41ColorRGB
 90
        0
102
RTVSPost2010PropOp41
 70
     1
102
RTVSPost2010Prop42
 90
       50
102
RTVSPost2010PropOp42
 70
     1
102
RTVSPost2010Prop43
 90
        3
102
RTVSPost2010PropOp43
 70
     1
102
RTVSPost2010Prop44ColorIndex
 90
        5
102
RTVSPost2010Prop44ColorRGB
 90
      255
102
RTVSPost2010PropOp44
 70
     1
102
RTVSPost2010Prop45
280
     0
102
RTVSPost2010PropOp45
 70
     1
102
RTVSPost2010Prop46
 90
       50
102
RTVSPost2010PropOp46
 70
     1
102
RTVSPost2010Prop47
 90
       50
102
RTVSPost2010PropOp47
 70
     1
102
RTVSPost2010Prop48
 90
       50
102
RTVSPost2010PropOp48
 70
     1
102
RTVSPost2010Prop49
280
     0
102
RTVSPost2010PropOp49
 70
     1
102
RTVSPost2010Prop50
 90
       50
102
RTVSPost2010PropOp50
 70
     1
102
RTVSPost2010Prop51ColorIndex
 90
      256
102
RTVSPost2010Prop51ColorRGB
 90
-16777216
102
RTVSPost2010PropOp51
 70
     0
102
RTVSPost2010Prop52
140
1.0
102
RTVSPost2010PropOp52
 70
     0
102
RTVSPost2010Prop53
 90
        2
102
RTVSPost2010PropOp53
 70
     1
102
RTVSPost2010Prop54
  1
strokes_ogs.tif
102
RTVSPost2010PropOp54
 70
     1
102
RTVSPost2010Prop55
280
     0
102
RTVSPost2010PropOp55
 70
     1
102
RTVSPost2010Prop56
140
1.0
102
RTVSPost2010PropOp56
 70
     1
102
RTVSPost2010Prop57
140
1.0
102
RTVSPost2010PropOp57
 70
     1
  0
XRECORD
  5
6D4
102
{ACAD_REACTORS
330
6D3
102
}
330
6D3
100
AcDbXrecord
280
     1
102
RTVSPropertyOp0
 70
     1
102
RTVSPropertyOp1
 70
     1
102
RTVSPropertyOp2
 70
     1
102
RTVSPropertyOp3
 70
     1
102
RTVSPropertyOp4
 70
     1
102
RTVSPropertyOp5
 70
     1
102
RTVSPropertyOp6
 70
     1
102
RTVSPropertyOp7
 70
     1
102
RTVSPropertyOp8
 70
     1
102
RTVSPropertyOp9
 70
     1
102
RTVSPropertyOp10
 70
     1
102
RTVSPropertyOp11
 70
     1
102
RTVSPropertyOp12
 70
     1
102
RTVSPropertyOp13
 70
     1
102
RTVSPropertyOp14
 70
     1
102
RTVSPropertyOp15
 70
     1
102
RTVSPropertyOp16
 70
     1
102
RTVSPropertyOp17
 70
     1
102
RTVSPropertyOp18
 70
     1
102
RTVSPropertyOp19
 70
     1
102
RTVSPropertyOp20
 70
     1
102
RTVSPropertyOp21
 70
     1
102
RTVSPropertyOp22
 70
     1
102
RTVSPropertyOp23
 70
     1
102
RTVSPropertyOp24
 70
     1
102
RTVSPropertyOp25
 70
     1
102
RTVSPropertyOp26
 70
     1
102
RTVSPropertyOp27
 70
     1
102
RTVSPropertyOp28
 70
     1
102
RTVSPropertyOp29
 70
     1
102
RTVSPropertyOp30
 70
     1
102
RTVSPropertyOp31
 70
     1
102
RTVSPropertyOp32
 70
     1
102
RTVSPropertyOp33
 70
     1
102
RTVSPropertyOp34
 70
     1
102
RTVSPropertyOp35
 70
     1
102
RTVSPropertyOp36
 70
     1
102
RTVSPropertyOp37
 70
     1
102
RTVSPropertyOp38
 70
     1
102
RTVSPropertyOp39
 70
     1
102
RTVSPropertyOp40
 70
     1
102
RTVSPropertyOp41
 70
     1
102
RTVSPropertyOp42
 70
     1
102
RTVSPropertyOp43
 70
     1
102
RTVSPropertyOp44
 70
     1
102
RTVSPropertyOp45
 70
     1
102
RTVSPropertyOp46
 70
     1
102
RTVSPropertyOp47
 70
     1
102
RTVSPropertyOp48
 70
     1
102
RTVSPropertyOp49
 70
     1
102
RTVSPropertyOp50
 70
     1
102
RTVSPropertyOp51
 70
     0
102
RTVSPropertyOp52
 70
     0
102
RTVSPropertyOp53
 70
     1
102
RTVSPropertyOp54
 70
     1
102
RTVSPropertyOp55
 70
     1
102
RTVSPropertyOp56
 70
     1
102
RTVSPropertyOp57
 70
     1
102
RTVSPost2010Prop28
280
     0
102
RTVSPost2010PropOp28
 70
     1
102
RTVSPost2010Prop29
280
     1
102
RTVSPost2010PropOp29
 70
     1
102
RTVSPost2010Prop30
280
     1
102
RTVSPost2010PropOp30
 70
     1
102
RTVSPost2010Prop31
280
     0
102
RTVSPost2010PropOp31
 70
     1
102
RTVSPost2010Prop32
280
     0
102
RTVSPost2010PropOp32
 70
     1
102
RTVSPost2010Prop33
280
     0
102
RTVSPost2010PropOp33
 70
     1
102
RTVSPost2010Prop34
280
     0
102
RTVSPost2010PropOp34
 70
     1
102
RTVSPost2010Prop35
280
     0
102
RTVSPost2010PropOp35
 70
     1
102
RTVSPost2010Prop36
280
     0
102
RTVSPost2010PropOp36
 70
     1
102
RTVSPost2010Prop37
 90
       50
102
RTVSPost2010PropOp37
 70
     1
102
RTVSPost2010Prop38
140
0.0
102
RTVSPost2010PropOp38
 70
     1
102
RTVSPost2010Prop39
140
1.0
102
RTVSPost2010PropOp39
 70
     1
102
RTVSPost2010Prop40
 90
        0
102
RTVSPost2010PropOp40
 70
     1
102
RTVSPost2010Prop41ColorIndex
 90
       18
102
RTVSPost2010Prop41ColorRGB
 90
        0
102
RTVSPost2010PropOp41
 70
     1
102
RTVSPost2010Prop42
 90
       50
102
RTVSPost2010PropOp42
 70
     1
102
RTVSPost2010Prop43
 90
        3
102
RTVSPost2010PropOp43
 70
     1
102
RTVSPost2010Prop44ColorIndex
 90
        5
102
RTVSPost2010Prop44ColorRGB
 90
      255
102
RTVSPost2010PropOp44
 70
     1
102
RTVSPost2010Prop45
280
     0
102
RTVSPost2010PropOp45
 70
     1
102
RTVSPost2010Prop46
 90
       50
102
RTVSPost2010PropOp46
 70
     1
102
RTVSPost2010Prop47
 90
       50
102
RTVSPost2010PropOp47
 70
     1
102
RTVSPost2010Prop48
 90
       50
102
RTVSPost2010PropOp48
 70
     1
102
RTVSPost2010Prop49
280
     0
102
RTVSPost2010PropOp49
 70
     1
102
RTVSPost2010Prop50
 90
       50
102
RTVSPost2010PropOp50
 70
     1
102
RTVSPost2010Prop51ColorIndex
 90
      256
102
RTVSPost2010Prop51ColorRGB
 90
-16777216
102
RTVSPost2010PropOp51
 70
     0
102
RTVSPost2010Prop52
140
1.0
102
RTVSPost2010PropOp52
 70
     0
102
RTVSPost2010Prop53
 90
        2
102
RTVSPost2010PropOp53
 70
     1
102
RTVSPost2010Prop54
  1
strokes_ogs.tif
102
RTVSPost2010PropOp54
 70
     1
102
RTVSPost2010Prop55
280
     0
102
RTVSPost2010PropOp55
 70
     1
102
RTVSPost2010Prop56
140
1.0
102
RTVSPost2010PropOp56
 70
     1
102
RTVSPost2010Prop57
140
1.0
102
RTVSPost2010PropOp57
 70
     1
  0
XRECORD
  5
6D6
102
{ACAD_REACTORS
330
6D5
102
}
330
6D5
100
AcDbXrecord
280
     1
102
RTVSPropertyOp0
 70
     1
102
RTVSPropertyOp1
 70
     1
102
RTVSPropertyOp2
 70
     1
102
RTVSPropertyOp3
 70
     1
102
RTVSPropertyOp4
 70
     1
102
RTVSPropertyOp5
 70
     1
102
RTVSPropertyOp6
 70
     1
102
RTVSPropertyOp7
 70
     1
102
RTVSPropertyOp8
 70
     1
102
RTVSPropertyOp9
 70
     1
102
RTVSPropertyOp10
 70
     1
102
RTVSPropertyOp11
 70
     1
102
RTVSPropertyOp12
 70
     1
102
RTVSPropertyOp13
 70
     1
102
RTVSPropertyOp14
 70
     1
102
RTVSPropertyOp15
 70
     1
102
RTVSPropertyOp16
 70
     1
102
RTVSPropertyOp17
 70
     1
102
RTVSPropertyOp18
 70
     1
102
RTVSPropertyOp19
 70
     1
102
RTVSPropertyOp20
 70
     1
102
RTVSPropertyOp21
 70
     1
102
RTVSPropertyOp22
 70
     1
102
RTVSPropertyOp23
 70
     1
102
RTVSPropertyOp24
 70
     1
102
RTVSPropertyOp25
 70
     1
102
RTVSPropertyOp26
 70
     1
102
RTVSPropertyOp27
 70
     1
102
RTVSPropertyOp28
 70
     1
102
RTVSPropertyOp29
 70
     1
102
RTVSPropertyOp30
 70
     1
102
RTVSPropertyOp31
 70
     1
102
RTVSPropertyOp32
 70
     1
102
RTVSPropertyOp33
 70
     1
102
RTVSPropertyOp34
 70
     1
102
RTVSPropertyOp35
 70
     1
102
RTVSPropertyOp36
 70
     1
102
RTVSPropertyOp37
 70
     1
102
RTVSPropertyOp38
 70
     1
102
RTVSPropertyOp39
 70
     1
102
RTVSPropertyOp40
 70
     1
102
RTVSPropertyOp41
 70
     1
102
RTVSPropertyOp42
 70
     1
102
RTVSPropertyOp43
 70
     1
102
RTVSPropertyOp44
 70
     1
102
RTVSPropertyOp45
 70
     1
102
RTVSPropertyOp46
 70
     1
102
RTVSPropertyOp47
 70
     1
102
RTVSPropertyOp48
 70
     1
102
RTVSPropertyOp49
 70
     1
102
RTVSPropertyOp50
 70
     1
102
RTVSPropertyOp51
 70
     0
102
RTVSPropertyOp52
 70
     0
102
RTVSPropertyOp53
 70
     1
102
RTVSPropertyOp54
 70
     1
102
RTVSPropertyOp55
 70
     1
102
RTVSPropertyOp56
 70
     1
102
RTVSPropertyOp57
 70
     1
102
RTVSPost2010Prop28
280
     0
102
RTVSPost2010PropOp28
 70
     1
102
RTVSPost2010Prop29
280
     1
102
RTVSPost2010PropOp29
 70
     1
102
RTVSPost2010Prop30
280
     1
102
RTVSPost2010PropOp30
 70
     1
102
RTVSPost2010Prop31
280
     0
102
RTVSPost2010PropOp31
 70
     1
102
RTVSPost2010Prop32
280
     0
102
RTVSPost2010PropOp32
 70
     1
102
RTVSPost2010Prop33
280
     0
102
RTVSPost2010PropOp33
 70
     1
102
RTVSPost2010Prop34
280
     0
102
RTVSPost2010PropOp34
 70
     1
102
RTVSPost2010Prop35
280
     0
102
RTVSPost2010PropOp35
 70
     1
102
RTVSPost2010Prop36
280
     0
102
RTVSPost2010PropOp36
 70
     1
102
RTVSPost2010Prop37
 90
       50
102
RTVSPost2010PropOp37
 70
     1
102
RTVSPost2010Prop38
140
0.0
102
RTVSPost2010PropOp38
 70
     1
102
RTVSPost2010Prop39
140
1.0
102
RTVSPost2010PropOp39
 70
     1
102
RTVSPost2010Prop40
 90
        0
102
RTVSPost2010PropOp40
 70
     1
102
RTVSPost2010Prop41ColorIndex
 90
       18
102
RTVSPost2010Prop41ColorRGB
 90
        0
102
RTVSPost2010PropOp41
 70
     1
102
RTVSPost2010Prop42
 90
       50
102
RTVSPost2010PropOp42
 70
     1
102
RTVSPost2010Prop43
 90
        3
102
RTVSPost2010PropOp43
 70
     1
102
RTVSPost2010Prop44ColorIndex
 90
        5
102
RTVSPost2010Prop44ColorRGB
 90
      255
102
RTVSPost2010PropOp44
 70
     1
102
RTVSPost2010Prop45
280
     0
102
RTVSPost2010PropOp45
 70
     1
102
RTVSPost2010Prop46
 90
       50
102
RTVSPost2010PropOp46
 70
     1
102
RTVSPost2010Prop47
 90
       50
102
RTVSPost2010PropOp47
 70
     1
102
RTVSPost2010Prop48
 90
       50
102
RTVSPost2010PropOp48
 70
     1
102
RTVSPost2010Prop49
280
     0
102
RTVSPost2010PropOp49
 70
     1
102
RTVSPost2010Prop50
 90
       50
102
RTVSPost2010PropOp50
 70
     1
102
RTVSPost2010Prop51ColorIndex
 90
      256
102
RTVSPost2010Prop51ColorRGB
 90
-16777216
102
RTVSPost2010PropOp51
 70
     0
102
RTVSPost2010Prop52
140
1.0
102
RTVSPost2010PropOp52
 70
     0
102
RTVSPost2010Prop53
 90
        2
102
RTVSPost2010PropOp53
 70
     1
102
RTVSPost2010Prop54
  1
strokes_ogs.tif
102
RTVSPost2010PropOp54
 70
     1
102
RTVSPost2010Prop55
280
     0
102
RTVSPost2010PropOp55
 70
     1
102
RTVSPost2010Prop56
140
1.0
102
RTVSPost2010PropOp56
 70
     1
102
RTVSPost2010Prop57
140
1.0
102
RTVSPost2010PropOp57
 70
     1
  0
XRECORD
  5
6C6
102
{ACAD_REACTORS
330
6C5
102
}
330
6C5
100
AcDbXrecord
280
     1
102
RTVSPropertyOp0
 70
     1
102
RTVSPropertyOp1
 70
     1
102
RTVSPropertyOp2
 70
     1
102
RTVSPropertyOp3
 70
     1
102
RTVSPropertyOp4
 70
     1
102
RTVSPropertyOp5
 70
     1
102
RTVSPropertyOp6
 70
     1
102
RTVSPropertyOp7
 70
     1
102
RTVSPropertyOp8
 70
     1
102
RTVSPropertyOp9
 70
     1
102
RTVSPropertyOp10
 70
     1
102
RTVSPropertyOp11
 70
     1
102
RTVSPropertyOp12
 70
     1
102
RTVSPropertyOp13
 70
     1
102
RTVSPropertyOp14
 70
     1
102
RTVSPropertyOp15
 70
     1
102
RTVSPropertyOp16
 70
     1
102
RTVSPropertyOp17
 70
     1
102
RTVSPropertyOp18
 70
     1
102
RTVSPropertyOp19
 70
     1
102
RTVSPropertyOp20
 70
     1
102
RTVSPropertyOp21
 70
     1
102
RTVSPropertyOp22
 70
     1
102
RTVSPropertyOp23
 70
     1
102
RTVSPropertyOp24
 70
     1
102
RTVSPropertyOp25
 70
     1
102
RTVSPropertyOp26
 70
     1
102
RTVSPropertyOp27
 70
     1
102
RTVSPropertyOp28
 70
     1
102
RTVSPropertyOp29
 70
     1
102
RTVSPropertyOp30
 70
     1
102
RTVSPropertyOp31
 70
     1
102
RTVSPropertyOp32
 70
     1
102
RTVSPropertyOp33
 70
     1
102
RTVSPropertyOp34
 70
     1
102
RTVSPropertyOp35
 70
     1
102
RTVSPropertyOp36
 70
     1
102
RTVSPropertyOp37
 70
     1
102
RTVSPropertyOp38
 70
     1
102
RTVSPropertyOp39
 70
     1
102
RTVSPropertyOp40
 70
     1
102
RTVSPropertyOp41
 70
     1
102
RTVSPropertyOp42
 70
     1
102
RTVSPropertyOp43
 70
     1
102
RTVSPropertyOp44
 70
     1
102
RTVSPropertyOp45
 70
     1
102
RTVSPropertyOp46
 70
     1
102
RTVSPropertyOp47
 70
     1
102
RTVSPropertyOp48
 70
     1
102
RTVSPropertyOp49
 70
     1
102
RTVSPropertyOp50
 70
     1
102
RTVSPropertyOp51
 70
     0
102
RTVSPropertyOp52
 70
     0
102
RTVSPropertyOp53
 70
     1
102
RTVSPropertyOp54
 70
     1
102
RTVSPropertyOp55
 70
     1
102
RTVSPropertyOp56
 70
     1
102
RTVSPropertyOp57
 70
     1
102
RTVSPost2010Prop28
280
     0
102
RTVSPost2010PropOp28
 70
     1
102
RTVSPost2010Prop29
280
     1
102
RTVSPost2010PropOp29
 70
     1
102
RTVSPost2010Prop30
280
     1
102
RTVSPost2010PropOp30
 70
     1
102
RTVSPost2010Prop31
280
     0
102
RTVSPost2010PropOp31
 70
     1
102
RTVSPost2010Prop32
280
     0
102
RTVSPost2010PropOp32
 70
     1
102
RTVSPost2010Prop33
280
     0
102
RTVSPost2010PropOp33
 70
     1
102
RTVSPost2010Prop34
280
     0
102
RTVSPost2010PropOp34
 70
     1
102
RTVSPost2010Prop35
280
     0
102
RTVSPost2010PropOp35
 70
     1
102
RTVSPost2010Prop36
280
     0
102
RTVSPost2010PropOp36
 70
     1
102
RTVSPost2010Prop37
 90
       50
102
RTVSPost2010PropOp37
 70
     1
102
RTVSPost2010Prop38
140
0.0
102
RTVSPost2010PropOp38
 70
     1
102
RTVSPost2010Prop39
140
1.0
102
RTVSPost2010PropOp39
 70
     1
102
RTVSPost2010Prop40
 90
        0
102
RTVSPost2010PropOp40
 70
     1
102
RTVSPost2010Prop41ColorIndex
 90
       18
102
RTVSPost2010Prop41ColorRGB
 90
        0
102
RTVSPost2010PropOp41
 70
     1
102
RTVSPost2010Prop42
 90
       50
102
RTVSPost2010PropOp42
 70
     1
102
RTVSPost2010Prop43
 90
        3
102
RTVSPost2010PropOp43
 70
     1
102
RTVSPost2010Prop44ColorIndex
 90
        5
102
RTVSPost2010Prop44ColorRGB
 90
      255
102
RTVSPost2010PropOp44
 70
     1
102
RTVSPost2010Prop45
280
     0
102
RTVSPost2010PropOp45
 70
     1
102
RTVSPost2010Prop46
 90
       50
102
RTVSPost2010PropOp46
 70
     1
102
RTVSPost2010Prop47
 90
       50
102
RTVSPost2010PropOp47
 70
     1
102
RTVSPost2010Prop48
 90
       50
102
RTVSPost2010PropOp48
 70
     1
102
RTVSPost2010Prop49
280
     0
102
RTVSPost2010PropOp49
 70
     1
102
RTVSPost2010Prop50
 90
       50
102
RTVSPost2010PropOp50
 70
     1
102
RTVSPost2010Prop51ColorIndex
 90
      256
102
RTVSPost2010Prop51ColorRGB
 90
-16777216
102
RTVSPost2010PropOp51
 70
     0
102
RTVSPost2010Prop52
140
1.0
102
RTVSPost2010PropOp52
 70
     0
102
RTVSPost2010Prop53
 90
        2
102
RTVSPost2010PropOp53
 70
     1
102
RTVSPost2010Prop54
  1
strokes_ogs.tif
102
RTVSPost2010PropOp54
 70
     1
102
RTVSPost2010Prop55
280
     0
102
RTVSPost2010PropOp55
 70
     1
102
RTVSPost2010Prop56
140
1.0
102
RTVSPost2010PropOp56
 70
     1
102
RTVSPost2010Prop57
140
1.0
102
RTVSPost2010PropOp57
 70
     1
  0
XRECORD
  5
6B8
102
{ACAD_REACTORS
330
6B7
102
}
330
6B7
100
AcDbXrecord
280
     1
102
RTVSPropertyOp0
 70
     1
102
RTVSPropertyOp1
 70
     1
102
RTVSPropertyOp2
 70
     1
102
RTVSPropertyOp3
 70
     1
102
RTVSPropertyOp4
 70
     1
102
RTVSPropertyOp5
 70
     1
102
RTVSPropertyOp6
 70
     1
102
RTVSPropertyOp7
 70
     1
102
RTVSPropertyOp8
 70
     1
102
RTVSPropertyOp9
 70
     1
102
RTVSPropertyOp10
 70
     1
102
RTVSPropertyOp11
 70
     1
102
RTVSPropertyOp12
 70
     1
102
RTVSPropertyOp13
 70
     1
102
RTVSPropertyOp14
 70
     1
102
RTVSPropertyOp15
 70
     1
102
RTVSPropertyOp16
 70
     1
102
RTVSPropertyOp17
 70
     1
102
RTVSPropertyOp18
 70
     1
102
RTVSPropertyOp19
 70
     1
102
RTVSPropertyOp20
 70
     1
102
RTVSPropertyOp21
 70
     1
102
RTVSPropertyOp22
 70
     1
102
RTVSPropertyOp23
 70
     1
102
RTVSPropertyOp24
 70
     1
102
RTVSPropertyOp25
 70
     1
102
RTVSPropertyOp26
 70
     1
102
RTVSPropertyOp27
 70
     1
102
RTVSPropertyOp28
 70
     1
102
RTVSPropertyOp29
 70
     1
102
RTVSPropertyOp30
 70
     1
102
RTVSPropertyOp31
 70
     1
102
RTVSPropertyOp32
 70
     1
102
RTVSPropertyOp33
 70
     1
102
RTVSPropertyOp34
 70
     1
102
RTVSPropertyOp35
 70
     1
102
RTVSPropertyOp36
 70
     1
102
RTVSPropertyOp37
 70
     1
102
RTVSPropertyOp38
 70
     1
102
RTVSPropertyOp39
 70
     1
102
RTVSPropertyOp40
 70
     1
102
RTVSPropertyOp41
 70
     1
102
RTVSPropertyOp42
 70
     1
102
RTVSPropertyOp43
 70
     1
102
RTVSPropertyOp44
 70
     1
102
RTVSPropertyOp45
 70
     1
102
RTVSPropertyOp46
 70
     1
102
RTVSPropertyOp47
 70
     1
102
RTVSPropertyOp48
 70
     1
102
RTVSPropertyOp49
 70
     1
102
RTVSPropertyOp50
 70
     1
102
RTVSPropertyOp51
 70
     0
102
RTVSPropertyOp52
 70
     0
102
RTVSPropertyOp53
 70
     1
102
RTVSPropertyOp54
 70
     1
102
RTVSPropertyOp55
 70
     1
102
RTVSPropertyOp56
 70
     1
102
RTVSPropertyOp57
 70
     1
102
RTVSPost2010Prop28
280
     0
102
RTVSPost2010PropOp28
 70
     1
102
RTVSPost2010Prop29
280
     1
102
RTVSPost2010PropOp29
 70
     1
102
RTVSPost2010Prop30
280
     1
102
RTVSPost2010PropOp30
 70
     1
102
RTVSPost2010Prop31
280
     0
102
RTVSPost2010PropOp31
 70
     1
102
RTVSPost2010Prop32
280
     0
102
RTVSPost2010PropOp32
 70
     1
102
RTVSPost2010Prop33
280
     0
102
RTVSPost2010PropOp33
 70
     1
102
RTVSPost2010Prop34
280
     0
102
RTVSPost2010PropOp34
 70
     1
102
RTVSPost2010Prop35
280
     0
102
RTVSPost2010PropOp35
 70
     1
102
RTVSPost2010Prop36
280
     0
102
RTVSPost2010PropOp36
 70
     1
102
RTVSPost2010Prop37
 90
       50
102
RTVSPost2010PropOp37
 70
     1
102
RTVSPost2010Prop38
140
0.0
102
RTVSPost2010PropOp38
 70
     1
102
RTVSPost2010Prop39
140
1.0
102
RTVSPost2010PropOp39
 70
     1
102
RTVSPost2010Prop40
 90
        0
102
RTVSPost2010PropOp40
 70
     1
102
RTVSPost2010Prop41ColorIndex
 90
       18
102
RTVSPost2010Prop41ColorRGB
 90
        0
102
RTVSPost2010PropOp41
 70
     1
102
RTVSPost2010Prop42
 90
       50
102
RTVSPost2010PropOp42
 70
     1
102
RTVSPost2010Prop43
 90
        3
102
RTVSPost2010PropOp43
 70
     1
102
RTVSPost2010Prop44ColorIndex
 90
        5
102
RTVSPost2010Prop44ColorRGB
 90
      255
102
RTVSPost2010PropOp44
 70
     1
102
RTVSPost2010Prop45
280
     0
102
RTVSPost2010PropOp45
 70
     1
102
RTVSPost2010Prop46
 90
       50
102
RTVSPost2010PropOp46
 70
     1
102
RTVSPost2010Prop47
 90
       50
102
RTVSPost2010PropOp47
 70
     1
102
RTVSPost2010Prop48
 90
       50
102
RTVSPost2010PropOp48
 70
     1
102
RTVSPost2010Prop49
280
     0
102
RTVSPost2010PropOp49
 70
     1
102
RTVSPost2010Prop50
 90
       50
102
RTVSPost2010PropOp50
 70
     1
102
RTVSPost2010Prop51ColorIndex
 90
      256
102
RTVSPost2010Prop51ColorRGB
 90
-16777216
102
RTVSPost2010PropOp51
 70
     0
102
RTVSPost2010Prop52
140
1.0
102
RTVSPost2010PropOp52
 70
     0
102
RTVSPost2010Prop53
 90
        2
102
RTVSPost2010PropOp53
 70
     1
102
RTVSPost2010Prop54
  1
strokes_ogs.tif
102
RTVSPost2010PropOp54
 70
     1
102
RTVSPost2010Prop55
280
     0
102
RTVSPost2010PropOp55
 70
     1
102
RTVSPost2010Prop56
140
1.0
102
RTVSPost2010PropOp56
 70
     1
102
RTVSPost2010Prop57
140
1.0
102
RTVSPost2010PropOp57
 70
     1
  0
XRECORD
  5
6D8
102
{ACAD_REACTORS
330
6D7
102
}
330
6D7
100
AcDbXrecord
280
     1
102
RTVSPropertyOp0
 70
     1
102
RTVSPropertyOp1
 70
     1
102
RTVSPropertyOp2
 70
     1
102
RTVSPropertyOp3
 70
     1
102
RTVSPropertyOp4
 70
     1
102
RTVSPropertyOp5
 70
     1
102
RTVSPropertyOp6
 70
     1
102
RTVSPropertyOp7
 70
     1
102
RTVSPropertyOp8
 70
     1
102
RTVSPropertyOp9
 70
     1
102
RTVSPropertyOp10
 70
     1
102
RTVSPropertyOp11
 70
     1
102
RTVSPropertyOp12
 70
     1
102
RTVSPropertyOp13
 70
     1
102
RTVSPropertyOp14
 70
     1
102
RTVSPropertyOp15
 70
     1
102
RTVSPropertyOp16
 70
     1
102
RTVSPropertyOp17
 70
     1
102
RTVSPropertyOp18
 70
     1
102
RTVSPropertyOp19
 70
     1
102
RTVSPropertyOp20
 70
     1
102
RTVSPropertyOp21
 70
     1
102
RTVSPropertyOp22
 70
     1
102
RTVSPropertyOp23
 70
     1
102
RTVSPropertyOp24
 70
     1
102
RTVSPropertyOp25
 70
     1
102
RTVSPropertyOp26
 70
     1
102
RTVSPropertyOp27
 70
     1
102
RTVSPropertyOp28
 70
     1
102
RTVSPropertyOp29
 70
     1
102
RTVSPropertyOp30
 70
     1
102
RTVSPropertyOp31
 70
     1
102
RTVSPropertyOp32
 70
     1
102
RTVSPropertyOp33
 70
     1
102
RTVSPropertyOp34
 70
     1
102
RTVSPropertyOp35
 70
     1
102
RTVSPropertyOp36
 70
     1
102
RTVSPropertyOp37
 70
     1
102
RTVSPropertyOp38
 70
     1
102
RTVSPropertyOp39
 70
     1
102
RTVSPropertyOp40
 70
     1
102
RTVSPropertyOp41
 70
     1
102
RTVSPropertyOp42
 70
     1
102
RTVSPropertyOp43
 70
     1
102
RTVSPropertyOp44
 70
     1
102
RTVSPropertyOp45
 70
     1
102
RTVSPropertyOp46
 70
     1
102
RTVSPropertyOp47
 70
     1
102
RTVSPropertyOp48
 70
     1
102
RTVSPropertyOp49
 70
     1
102
RTVSPropertyOp50
 70
     1
102
RTVSPropertyOp51
 70
     0
102
RTVSPropertyOp52
 70
     0
102
RTVSPropertyOp53
 70
     1
102
RTVSPropertyOp54
 70
     1
102
RTVSPropertyOp55
 70
     1
102
RTVSPropertyOp56
 70
     1
102
RTVSPropertyOp57
 70
     1
102
RTVSPost2010Prop28
280
     0
102
RTVSPost2010PropOp28
 70
     1
102
RTVSPost2010Prop29
280
     1
102
RTVSPost2010PropOp29
 70
     1
102
RTVSPost2010Prop30
280
     1
102
RTVSPost2010PropOp30
 70
     1
102
RTVSPost2010Prop31
280
     0
102
RTVSPost2010PropOp31
 70
     1
102
RTVSPost2010Prop32
280
     0
102
RTVSPost2010PropOp32
 70
     1
102
RTVSPost2010Prop33
280
     0
102
RTVSPost2010PropOp33
 70
     1
102
RTVSPost2010Prop34
280
     0
102
RTVSPost2010PropOp34
 70
     1
102
RTVSPost2010Prop35
280
     0
102
RTVSPost2010PropOp35
 70
     1
102
RTVSPost2010Prop36
280
     0
102
RTVSPost2010PropOp36
 70
     1
102
RTVSPost2010Prop37
 90
       50
102
RTVSPost2010PropOp37
 70
     1
102
RTVSPost2010Prop38
140
0.0
102
RTVSPost2010PropOp38
 70
     1
102
RTVSPost2010Prop39
140
1.0
102
RTVSPost2010PropOp39
 70
     1
102
RTVSPost2010Prop40
 90
        0
102
RTVSPost2010PropOp40
 70
     1
102
RTVSPost2010Prop41ColorIndex
 90
       18
102
RTVSPost2010Prop41ColorRGB
 90
        0
102
RTVSPost2010PropOp41
 70
     1
102
RTVSPost2010Prop42
 90
       50
102
RTVSPost2010PropOp42
 70
     1
102
RTVSPost2010Prop43
 90
        3
102
RTVSPost2010PropOp43
 70
     1
102
RTVSPost2010Prop44ColorIndex
 90
        5
102
RTVSPost2010Prop44ColorRGB
 90
      255
102
RTVSPost2010PropOp44
 70
     1
102
RTVSPost2010Prop45
280
     0
102
RTVSPost2010PropOp45
 70
     1
102
RTVSPost2010Prop46
 90
       50
102
RTVSPost2010PropOp46
 70
     1
102
RTVSPost2010Prop47
 90
       50
102
RTVSPost2010PropOp47
 70
     1
102
RTVSPost2010Prop48
 90
       50
102
RTVSPost2010PropOp48
 70
     1
102
RTVSPost2010Prop49
280
     0
102
RTVSPost2010PropOp49
 70
     1
102
RTVSPost2010Prop50
 90
       50
102
RTVSPost2010PropOp50
 70
     1
102
RTVSPost2010Prop51ColorIndex
 90
      256
102
RTVSPost2010Prop51ColorRGB
 90
-16777216
102
RTVSPost2010PropOp51
 70
     0
102
RTVSPost2010Prop52
140
1.0
102
RTVSPost2010PropOp52
 70
     0
102
RTVSPost2010Prop53
 90
        2
102
RTVSPost2010PropOp53
 70
     1
102
RTVSPost2010Prop54
  1
strokes_ogs.tif
102
RTVSPost2010PropOp54
 70
     1
102
RTVSPost2010Prop55
280
     0
102
RTVSPost2010PropOp55
 70
     1
102
RTVSPost2010Prop56
140
1.0
102
RTVSPost2010PropOp56
 70
     1
102
RTVSPost2010Prop57
140
1.0
102
RTVSPost2010PropOp57
 70
     1
  0
ENDSEC
  0
EOF
