0
SECTION
2
HEADER
9
$ACADVER
1
AC1009
0
ENDSEC
0
SECTION
2
TABLES
0
TABLE
2
VPORT
70
1
0
VPORT
2
ACTIVE
70
0
10
0.0
20
0.0
11
0.0
21
0.0
12
0.0
22
0.0
13
0.0
23
0.0
14
0.0
24
0.0
15
0.0
25
0.0
16
0.0
26
0.0
36
0.0
17
0.0
27
0.0
37
0.0
40
0.0
41
0.0
42
0.0
43
0.0
44
0.0
50
0.0
51
0.0
71
0
72
1000
73
1
74
3
75
0
76
0
77
0
78
0
0
ENDTAB
0
ENDSEC
0
SECTION
2
ENTITIES
0
LINE
8
hole
62
5
39
2
10
11.581747
20
17.008907
11
11.638897
21
17.008907
0
LINE
8
hole
62
5
39
2
10
11.638897
20
17.008907
11
11.638897
21
17.066057
0
LINE
8
hole
62
5
39
2
10
11.638897
20
17.066057
11
11.581747
21
17.066057
0
LINE
8
hole
62
5
39
2
10
11.581747
20
17.066057
11
11.581747
21
17.008907
0
LINE
8
hole
62
5
39
2
10
11.558532
20
2.432557
11
11.615682
21
2.432557
0
LINE
8
hole
62
5
39
2
10
11.615682
20
2.432557
11
11.615682
21
2.489707
0
LINE
8
hole
62
5
39
2
10
11.615682
20
2.489707
11
11.558532
21
2.489707
0
LINE
8
hole
62
5
39
2
10
11.558532
20
2.489707
11
11.558532
21
2.432557
0
LINE
8
hole
62
5
39
2
10
2.575194
20
3.536136
11
2.509195
21
3.596614
0
LINE
8
hole
62
5
39
2
10
2.509195
20
3.596614
11
2.452032
21
3.680420
0
LINE
8
hole
62
5
39
2
10
2.452032
20
3.680420
11
2.418509
21
3.776164
0
LINE
8
hole
62
5
39
2
10
2.418509
20
3.776164
11
2.410909
21
3.877322
0
LINE
8
hole
62
5
39
2
10
2.410909
20
3.877322
11
2.429749
21
3.976998
0
LINE
8
hole
62
5
39
2
10
2.429749
20
3.976998
11
2.473745
21
4.068400
0
LINE
8
hole
62
5
39
2
10
2.473745
20
4.068400
11
2.539897
21
4.145301
0
LINE
8
hole
62
5
39
2
10
2.539897
20
4.145301
11
2.623697
21
4.202459
0
LINE
8
hole
62
5
39
2
10
2.623697
20
4.202459
11
2.719435
21
4.235981
0
LINE
8
hole
62
5
39
2
10
2.719435
20
4.235981
11
2.820586
21
4.243585
0
LINE
8
hole
62
5
39
2
10
2.820586
20
4.243585
11
2.920259
21
4.224750
0
LINE
8
hole
62
5
39
2
10
2.920259
20
4.224750
11
3.011660
21
4.180761
0
LINE
8
hole
62
5
39
2
10
3.011660
20
4.180761
11
3.088564
21
4.114616
0
LINE
8
hole
62
5
39
2
10
3.088564
20
4.114616
11
3.145728
21
4.030820
0
LINE
8
hole
62
5
39
2
10
3.145728
20
4.030820
11
3.179258
21
3.935083
0
LINE
8
hole
62
5
39
2
10
3.179258
20
3.935083
11
3.186867
21
3.833929
0
LINE
8
hole
62
5
39
2
10
3.186867
20
3.833929
11
3.168037
21
3.734251
0
LINE
8
hole
62
5
39
2
10
3.168037
20
3.734251
11
3.124049
21
3.642842
0
LINE
8
hole
62
5
39
2
10
3.124049
20
3.642842
11
3.057900
21
3.565932
0
LINE
8
hole
62
5
39
2
10
3.057900
20
3.565932
11
2.974098
21
3.508763
0
LINE
8
hole
62
5
39
2
10
2.974098
20
3.508763
11
2.878354
21
3.475233
0
LINE
8
hole
62
5
39
2
10
2.878354
20
3.475233
11
2.777193
21
3.467627
0
LINE
8
hole
62
5
39
2
10
2.777193
20
3.467627
11
2.677511
21
3.486463
0
LINE
8
hole
62
5
39
2
10
2.677511
20
3.486463
11
2.586101
21
3.530458
0
LINE
8
hole
62
5
39
2
10
2.586101
20
3.530458
11
2.575194
21
3.536136
0
LINE
8
hole
62
5
39
2
10
3.581855
20
16.680191
11
3.554934
21
16.765571
0
LINE
8
hole
62
5
39
2
10
3.554934
20
16.765571
11
3.547334
21
16.866729
0
LINE
8
hole
62
5
39
2
10
3.547334
20
16.866729
11
3.566175
21
16.966406
0
LINE
8
hole
62
5
39
2
10
3.566175
20
16.966406
11
3.610172
21
17.057807
0
LINE
8
hole
62
5
39
2
10
3.610172
20
17.057807
11
3.676324
21
17.134707
0
LINE
8
hole
62
5
39
2
10
3.676324
20
17.134707
11
3.760123
21
17.191867
0
LINE
8
hole
62
5
39
2
10
3.760123
20
17.191867
11
3.855861
21
17.225389
0
LINE
8
hole
62
5
39
2
10
3.855861
20
17.225389
11
3.957012
21
17.232992
0
LINE
8
hole
62
5
39
2
10
3.957012
20
17.232992
11
4.056684
21
17.214157
0
LINE
8
hole
62
5
39
2
10
4.056684
20
17.214157
11
4.148086
21
17.170169
0
LINE
8
hole
62
5
39
2
10
4.148086
20
17.170169
11
4.224990
21
17.104023
0
LINE
8
hole
62
5
39
2
10
4.224990
20
17.104023
11
4.282154
21
17.020226
0
LINE
8
hole
62
5
39
2
10
4.282154
20
17.020226
11
4.315683
21
16.924489
0
LINE
8
hole
62
5
39
2
10
4.315683
20
16.924489
11
4.323293
21
16.823336
0
LINE
8
hole
62
5
39
2
10
4.323293
20
16.823336
11
4.304463
21
16.723658
0
LINE
8
hole
62
5
39
2
10
4.304463
20
16.723658
11
4.260474
21
16.632249
0
LINE
8
hole
62
5
39
2
10
4.260474
20
16.632249
11
4.194326
21
16.555339
0
LINE
8
hole
62
5
39
2
10
4.194326
20
16.555339
11
4.110524
21
16.498170
0
LINE
8
hole
62
5
39
2
10
4.110524
20
16.498170
11
4.014779
21
16.464640
0
LINE
8
hole
62
5
39
2
10
4.014779
20
16.464640
11
3.913619
21
16.457034
0
LINE
8
hole
62
5
39
2
10
3.913619
20
16.457034
11
3.813937
21
16.475870
0
LINE
8
hole
62
5
39
2
10
3.813937
20
16.475870
11
3.722527
21
16.519866
0
LINE
8
hole
62
5
39
2
10
3.722527
20
16.519866
11
3.645620
21
16.586021
0
LINE
8
hole
62
5
39
2
10
3.645620
20
16.586021
11
3.588458
21
16.669826
0
LINE
8
hole
62
5
39
2
10
3.588458
20
16.669826
11
3.581855
21
16.680191
0
LINE
8
hole
62
5
39
2
10
19.012415
20
2.098066
11
18.947035
21
2.157976
0
LINE
8
hole
62
5
39
2
10
18.947035
20
2.157976
11
18.889704
21
2.241641
0
LINE
8
hole
62
5
39
2
10
18.889704
20
2.241641
11
18.855982
21
2.337293
0
LINE
8
hole
62
5
39
2
10
18.855982
20
2.337293
11
18.848166
21
2.438412
0
LINE
8
hole
62
5
39
2
10
18.848166
20
2.438412
11
18.866787
21
2.538108
0
LINE
8
hole
62
5
39
2
10
18.866787
20
2.538108
11
18.910578
21
2.629585
0
LINE
8
hole
62
5
39
2
10
18.910578
20
2.629585
11
18.976550
21
2.706611
0
LINE
8
hole
62
5
39
2
10
18.976550
20
2.706611
11
19.060210
21
2.763938
0
LINE
8
hole
62
5
39
2
10
19.060210
20
2.763938
11
19.155854
21
2.797659
0
LINE
8
hole
62
5
39
2
10
19.155854
20
2.797659
11
19.256967
21
2.805477
0
LINE
8
hole
62
5
39
2
10
19.256967
20
2.805477
11
19.356658
21
2.786862
0
LINE
8
hole
62
5
39
2
10
19.356658
20
2.786862
11
19.448135
21
2.743079
0
LINE
8
hole
62
5
39
2
10
19.448135
20
2.743079
11
19.525165
21
2.677113
0
LINE
8
hole
62
5
39
2
10
19.525165
20
2.677113
11
19.582497
21
2.593458
0
LINE
8
hole
62
5
39
2
10
19.582497
20
2.593458
11
19.616226
21
2.497814
0
LINE
8
hole
62
5
39
2
10
19.616226
20
2.497814
11
19.624051
21
2.396698
0
LINE
8
hole
62
5
39
2
10
19.624051
20
2.396698
11
19.605440
21
2.297000
0
LINE
8
hole
62
5
39
2
10
19.605440
20
2.297000
11
19.561658
21
2.205516
0
LINE
8
hole
62
5
39
2
10
19.561658
20
2.205516
11
19.495688
21
2.128481
0
LINE
8
hole
62
5
39
2
10
19.495688
20
2.128481
11
19.412027
21
2.071144
0
LINE
8
hole
62
5
39
2
10
19.412027
20
2.071144
11
19.316376
21
2.037415
0
LINE
8
hole
62
5
39
2
10
19.316376
20
2.037415
11
19.215254
21
2.029593
0
LINE
8
hole
62
5
39
2
10
19.215254
20
2.029593
11
19.115552
21
2.048211
0
LINE
8
hole
62
5
39
2
10
19.115552
20
2.048211
11
19.024067
21
2.092000
0
LINE
8
hole
62
5
39
2
10
19.024067
20
2.092000
11
19.012415
21
2.098066
0
LINE
8
hole
62
5
39
2
10
20.148840
20
15.087472
11
20.083460
21
15.147383
0
LINE
8
hole
62
5
39
2
10
20.083460
20
15.147383
11
20.026129
21
15.231048
0
LINE
8
hole
62
5
39
2
10
20.026129
20
15.231048
11
19.992408
21
15.326700
0
LINE
8
hole
62
5
39
2
10
19.992408
20
15.326700
11
19.984592
21
15.427820
0
LINE
8
hole
62
5
39
2
10
19.984592
20
15.427820
11
20.003214
21
15.527515
0
LINE
8
hole
62
5
39
2
10
20.003214
20
15.527515
11
20.047004
21
15.618992
0
LINE
8
hole
62
5
39
2
10
20.047004
20
15.618992
11
20.112977
21
15.696018
0
LINE
8
hole
62
5
39
2
10
20.112977
20
15.696018
11
20.196635
21
15.753345
0
LINE
8
hole
62
5
39
2
10
20.196635
20
15.753345
11
20.292280
21
15.787066
0
LINE
8
hole
62
5
39
2
10
20.292280
20
15.787066
11
20.393393
21
15.794885
0
LINE
8
hole
62
5
39
2
10
20.393393
20
15.794885
11
20.493084
21
15.776268
0
LINE
8
hole
62
5
39
2
10
20.493084
20
15.776268
11
20.584561
21
15.732486
0
LINE
8
hole
62
5
39
2
10
20.584561
20
15.732486
11
20.661590
21
15.666520
0
LINE
8
hole
62
5
39
2
10
20.661590
20
15.666520
11
20.718924
21
15.582864
0
LINE
8
hole
62
5
39
2
10
20.718924
20
15.582864
11
20.752652
21
15.487220
0
LINE
8
hole
62
5
39
2
10
20.752652
20
15.487220
11
20.760477
21
15.386104
0
LINE
8
hole
62
5
39
2
10
20.760477
20
15.386104
11
20.741865
21
15.286408
0
LINE
8
hole
62
5
39
2
10
20.741865
20
15.286408
11
20.698083
21
15.194923
0
LINE
8
hole
62
5
39
2
10
20.698083
20
15.194923
11
20.632114
21
15.117887
0
LINE
8
hole
62
5
39
2
10
20.632114
20
15.117887
11
20.548452
21
15.060551
0
LINE
8
hole
62
5
39
2
10
20.548452
20
15.060551
11
20.452801
21
15.026822
0
LINE
8
hole
62
5
39
2
10
20.452801
20
15.026822
11
20.351679
21
15.018999
0
LINE
8
hole
62
5
39
2
10
20.351679
20
15.018999
11
20.251977
21
15.037617
0
LINE
8
hole
62
5
39
2
10
20.251977
20
15.037617
11
20.160493
21
15.081406
0
LINE
8
hole
62
5
39
2
10
20.160493
20
15.081406
11
20.148840
21
15.087472
0
LINE
8
hole
62
5
39
2
10
4.340558
20
6.006933
11
4.244123
21
6.114457
0
LINE
8
hole
62
5
39
2
10
4.244123
20
6.114457
11
3.672413
21
6.751898
0
LINE
8
hole
62
5
39
2
10
3.672413
20
6.751898
11
3.501965
21
7.572032
0
LINE
8
hole
62
5
39
2
10
3.501965
20
7.572032
11
3.370065
21
8.078849
0
LINE
8
hole
62
5
39
2
10
3.370065
20
8.078849
11
3.331690
21
8.226302
0
LINE
8
hole
62
5
39
2
10
3.331690
20
8.226302
11
3.112920
21
9.066918
0
LINE
8
hole
62
5
39
2
10
3.112920
20
9.066918
11
3.155895
21
9.570629
0
LINE
8
hole
62
5
39
2
10
3.155895
20
9.570629
11
3.168763
21
9.723212
0
LINE
8
hole
62
5
39
2
10
3.168763
20
9.723212
11
3.212881
21
10.246350
0
LINE
8
hole
62
5
39
2
10
3.212881
20
10.246350
11
3.269480
21
10.917500
0
LINE
8
hole
62
5
39
2
10
3.269480
20
10.917500
11
3.352737
21
11.174727
0
LINE
8
hole
62
5
39
2
10
3.352737
20
11.174727
11
3.395097
21
11.308536
0
LINE
8
hole
62
5
39
2
10
3.395097
20
11.308536
11
3.565388
21
11.846470
0
LINE
8
hole
62
5
39
2
10
3.565388
20
11.846470
11
3.720799
21
12.337402
0
LINE
8
hole
62
5
39
2
10
3.720799
20
12.337402
11
3.798872
21
12.470403
0
LINE
8
hole
62
5
39
2
10
3.798872
20
12.470403
11
3.872354
21
12.596662
0
LINE
8
hole
62
5
39
2
10
3.872354
20
12.596662
11
4.228451
21
13.208515
0
LINE
8
hole
62
5
39
2
10
4.228451
20
13.208515
11
4.368680
21
13.449459
0
LINE
8
hole
62
5
39
2
10
4.368680
20
13.449459
11
4.406492
21
13.492283
0
LINE
8
hole
62
5
39
2
10
4.406492
20
13.492283
11
4.515736
21
13.616745
0
LINE
8
hole
62
5
39
2
10
4.515736
20
13.616745
11
4.813948
21
13.956502
0
LINE
8
hole
62
5
39
2
10
4.813948
20
13.956502
11
5.128260
21
14.312321
0
LINE
8
hole
62
5
39
2
10
5.128260
20
14.312321
11
5.538501
21
14.655354
0
LINE
8
hole
62
5
39
2
10
5.538501
20
14.655354
11
5.789251
21
14.860432
0
LINE
8
hole
62
5
39
2
10
5.789251
20
14.860432
11
5.932408
21
14.977515
0
LINE
8
hole
62
5
39
2
10
5.932408
20
14.977515
11
6.016228
21
15.041768
0
LINE
8
hole
62
5
39
2
10
6.016228
20
15.041768
11
6.062727
21
15.077416
0
LINE
8
hole
62
5
39
2
10
6.062727
20
15.077416
11
6.786232
21
15.542614
0
LINE
8
hole
62
5
39
2
10
6.786232
20
15.542614
11
6.888472
21
15.604982
0
LINE
8
hole
62
5
39
2
10
6.888472
20
15.604982
11
7.023340
21
15.687253
0
LINE
8
hole
62
5
39
2
10
7.023340
20
15.687253
11
7.672168
21
16.015512
0
LINE
8
hole
62
5
39
2
10
7.672168
20
16.015512
11
7.790931
21
16.070129
0
LINE
8
hole
62
5
39
2
10
7.790931
20
16.070129
11
8.006273
21
16.169158
0
LINE
8
hole
62
5
39
2
10
8.006273
20
16.169158
11
8.569671
21
16.382379
0
LINE
8
hole
62
5
39
2
10
8.569671
20
16.382379
11
8.697635
21
16.424675
0
LINE
8
hole
62
5
39
2
10
8.697635
20
16.424675
11
8.959437
21
16.511212
0
LINE
8
hole
62
5
39
2
10
8.959437
20
16.511212
11
9.474802
21
16.637660
0
LINE
8
hole
62
5
39
2
10
9.474802
20
16.637660
11
9.661636
21
16.676033
0
LINE
8
hole
62
5
39
2
10
9.661636
20
16.676033
11
9.921896
21
16.729489
0
LINE
8
hole
62
5
39
2
10
9.921896
20
16.729489
11
10.408634
21
16.789111
0
LINE
8
hole
62
5
39
2
10
10.408634
20
16.789111
11
10.602066
21
16.806043
0
LINE
8
hole
62
5
39
2
10
10.602066
20
16.806043
11
10.878583
21
16.830249
0
LINE
8
hole
62
5
39
2
10
10.878583
20
16.830249
11
11.386374
21
16.847000
0
LINE
8
hole
62
5
39
2
10
11.386374
20
16.847000
11
11.577695
21
16.848644
0
LINE
8
hole
62
5
39
2
10
11.577695
20
16.848644
11
11.847335
21
16.850956
0
LINE
8
hole
62
5
39
2
10
11.847335
20
16.850956
11
12.448674
21
16.846508
0
LINE
8
hole
62
5
39
2
10
12.448674
20
16.846508
11
12.637473
21
16.840899
0
LINE
8
hole
62
5
39
2
10
12.637473
20
16.840899
11
12.875655
21
16.833819
0
LINE
8
hole
62
5
39
2
10
12.875655
20
16.833819
11
13.695456
21
16.795567
0
LINE
8
hole
62
5
39
2
10
13.695456
20
16.795567
11
13.836625
21
16.784438
0
LINE
8
hole
62
5
39
2
10
13.836625
20
16.784438
11
14.024717
21
16.769609
0
LINE
8
hole
62
5
39
2
10
14.024717
20
16.769609
11
14.871438
21
16.651969
0
LINE
8
hole
62
5
39
2
10
14.871438
20
16.651969
11
15.163131
21
16.611438
0
LINE
8
hole
62
5
39
2
10
15.163131
20
16.611438
11
15.261526
21
16.597766
0
LINE
8
hole
62
5
39
2
10
15.261526
20
16.597766
11
15.387577
21
16.574883
0
LINE
8
hole
62
5
39
2
10
15.387577
20
16.574883
11
15.993659
21
16.355318
0
LINE
8
hole
62
5
39
2
10
15.993659
20
16.355318
11
16.205637
21
16.277611
0
LINE
8
hole
62
5
39
2
10
16.205637
20
16.277611
11
16.891620
21
16.026140
0
LINE
8
hole
62
5
39
2
10
16.891620
20
16.026140
11
17.081707
21
15.915218
0
LINE
8
hole
62
5
39
2
10
17.081707
20
15.915218
11
17.167444
21
15.853914
0
LINE
8
hole
62
5
39
2
10
17.167444
20
15.853914
11
17.621311
21
15.529386
0
LINE
8
hole
62
5
39
2
10
17.621311
20
15.529386
11
18.293704
21
15.048605
0
LINE
8
hole
62
5
39
2
10
18.293704
20
15.048605
11
18.595715
21
14.745122
0
LINE
8
hole
62
5
39
2
10
18.595715
20
14.745122
11
18.671457
21
14.659863
0
LINE
8
hole
62
5
39
2
10
18.671457
20
14.659863
11
18.969882
21
14.323939
0
LINE
8
hole
62
5
39
2
10
18.969882
20
14.323939
11
19.500263
21
13.726908
0
LINE
8
hole
62
5
39
2
10
19.500263
20
13.726908
11
19.811101
21
13.185146
0
LINE
8
hole
62
5
39
2
10
19.811101
20
13.185146
11
19.865190
21
13.074140
0
LINE
8
hole
62
5
39
2
10
19.865190
20
13.074140
11
20.065680
21
12.662684
0
LINE
8
hole
62
5
39
2
10
20.065680
20
12.662684
11
20.501890
21
11.767476
0
LINE
8
hole
62
5
39
2
10
20.501890
20
11.767476
11
20.593983
21
10.536078
0
LINE
8
hole
62
5
39
2
10
20.593983
20
10.536078
11
20.591891
21
10.400691
0
LINE
8
hole
62
5
39
2
10
20.591891
20
10.400691
11
20.584786
21
9.940950
0
LINE
8
hole
62
5
39
2
10
20.584786
20
9.940950
11
20.568008
21
8.855351
0
LINE
8
hole
62
5
39
2
10
20.568008
20
8.855351
11
19.744310
21
7.056479
0
LINE
8
hole
62
5
39
2
10
19.744310
20
7.056479
11
19.550325
21
6.709058
0
LINE
8
hole
62
5
39
2
10
19.550325
20
6.709058
11
19.487016
21
6.595674
0
LINE
8
hole
62
5
39
2
10
19.487016
20
6.595674
11
19.048768
21
5.810786
0
LINE
8
hole
62
5
39
2
10
19.048768
20
5.810786
11
17.514201
21
4.500131
0
LINE
8
hole
62
5
39
2
10
17.514201
20
4.500131
11
17.282902
21
4.295683
0
LINE
8
hole
62
5
39
2
10
17.282902
20
4.295683
11
17.205105
21
4.226918
0
LINE
8
hole
62
5
39
2
10
17.205105
20
4.226918
11
16.828486
21
3.894019
0
LINE
8
hole
62
5
39
2
10
16.828486
20
3.894019
11
14.927537
21
3.074940
0
LINE
8
hole
62
5
39
2
10
14.927537
20
3.074940
11
14.715761
21
2.975625
0
LINE
8
hole
62
5
39
2
10
14.715761
20
2.975625
11
14.642723
21
2.941373
0
LINE
8
hole
62
5
39
2
10
14.642723
20
2.941373
11
14.534767
21
2.890743
0
LINE
8
hole
62
5
39
2
10
14.534767
20
2.890743
11
12.587707
21
2.739905
0
LINE
8
hole
62
5
39
2
10
12.587707
20
2.739905
11
12.388719
21
2.717990
0
LINE
8
hole
62
5
39
2
10
12.388719
20
2.717990
11
12.320083
21
2.710431
0
LINE
8
hole
62
5
39
2
10
12.320083
20
2.710431
11
12.200903
21
2.697306
0
LINE
8
hole
62
5
39
2
10
12.200903
20
2.697306
11
10.451576
21
2.857660
0
LINE
8
hole
62
5
39
2
10
10.451576
20
2.857660
11
10.238180
21
2.874677
0
LINE
8
hole
62
5
39
2
10
10.238180
20
2.874677
11
10.164928
21
2.880518
0
LINE
8
hole
62
5
39
2
10
10.164928
20
2.880518
11
9.942629
21
2.898247
0
LINE
8
hole
62
5
39
2
10
9.942629
20
2.898247
11
8.406615
21
3.285865
0
LINE
8
hole
62
5
39
2
10
8.406615
20
3.285865
11
8.155821
21
3.333084
0
LINE
8
hole
62
5
39
2
10
8.155821
20
3.333084
11
8.071771
21
3.348908
0
LINE
8
hole
62
5
39
2
10
8.071771
20
3.348908
11
7.644907
21
3.429284
0
LINE
8
hole
62
5
39
2
10
7.644907
20
3.429284
11
6.386171
21
4.186597
0
LINE
8
hole
62
5
39
2
10
6.386171
20
4.186597
11
6.067002
21
4.334021
0
LINE
8
hole
62
5
39
2
10
6.067002
20
4.334021
11
5.963450
21
4.381852
0
LINE
8
hole
62
5
39
2
10
5.963450
20
4.381852
11
5.357773
21
4.661620
0
LINE
8
hole
62
5
39
2
10
5.357773
20
4.661620
11
4.655380
21
5.655912
0
LINE
8
hole
62
5
39
2
10
4.655380
20
5.655912
11
4.340558
21
6.006933
0
LINE
8
boundary
62
5
39
2
10
0.941066
20
2.431619
11
21.090751
21
0.668750
0
LINE
8
boundary
62
5
39
2
10
21.090751
20
0.668750
11
21.111165
21
0.902082
0
LINE
8
boundary
62
5
39
2
10
21.111165
20
0.902082
11
22.502675
21
16.807105
0
LINE
8
boundary
62
5
39
2
10
22.502675
20
16.807105
11
22.207752
21
16.832907
0
LINE
8
boundary
62
5
39
2
10
22.207752
20
16.832907
11
2.080673
21
18.593798
0
LINE
8
boundary
62
5
39
2
10
2.080673
20
18.593798
11
2.061867
21
18.378852
0
LINE
8
boundary
62
5
39
2
10
2.061867
20
18.378852
11
0.668750
21
2.455444
0
LINE
8
boundary
62
5
39
2
10
0.668750
20
2.455444
11
0.941066
21
2.431619
0
LINE
8
annotation
62
1
39
211
10
11.610322
20
17.037482
11
11.610322
21
17.180357
0
LINE
8
annotation
62
1
39
211
10
11.610322
20
17.037482
11
11.610322
21
17.180357
0
LINE
8
annotation
62
1
39
211
10
11.610322
20
17.180357
11
11.610322
21
17.037482
0
LINE
8
annotation
62
1
39
211
10
11.610322
20
17.037482
11
11.610322
21
16.894607
0
LINE
8
annotation
62
1
39
211
10
11.587107
20
2.461132
11
11.729982
21
2.461132
0
LINE
8
annotation
62
1
39
211
10
11.587107
20
2.461132
11
11.729982
21
2.461132
0
LINE
8
annotation
62
1
39
211
10
11.729982
20
2.461132
11
11.587107
21
2.461132
0
LINE
8
annotation
62
1
39
211
10
11.587107
20
2.461132
11
11.587107
21
2.318257
0
LINE
8
annotation
62
1
39
211
10
2.586682
20
14.304201
11
2.586682
21
15.876401
0
LINE
8
annotation
62
1
39
211
10
2.586682
20
15.876401
11
2.237161
21
15.526782
0
LINE
8
annotation
62
1
39
211
10
3.176207
20
14.304251
11
3.525333
21
14.304251
0
LINE
8
annotation
62
1
39
211
10
3.525333
20
14.304251
11
3.525333
21
14.304251
0
LINE
8
annotation
62
1
39
211
10
3.525333
20
14.304251
11
3.588124
21
14.309883
0
LINE
8
annotation
62
1
39
211
10
3.588124
20
14.309883
11
3.647208
21
14.326117
0
LINE
8
annotation
62
1
39
211
10
3.647208
20
14.326117
11
3.701603
21
14.351956
0
LINE
8
annotation
62
1
39
211
10
3.701603
20
14.351956
11
3.750325
21
14.386403
0
LINE
8
annotation
62
1
39
211
10
3.750325
20
14.386403
11
3.792393
21
14.428462
0
LINE
8
annotation
62
1
39
211
10
3.792393
20
14.428462
11
3.826823
21
14.477135
0
LINE
8
annotation
62
1
39
211
10
3.826823
20
14.477135
11
3.852632
21
14.531428
0
LINE
8
annotation
62
1
39
211
10
3.852632
20
14.531428
11
3.868838
21
14.590343
0
LINE
8
annotation
62
1
39
211
10
3.868838
20
14.590343
11
3.874459
21
14.652883
0
LINE
8
annotation
62
1
39
211
10
3.874459
20
14.652883
11
3.874459
21
14.827693
0
LINE
8
annotation
62
1
39
211
10
3.874459
20
14.827693
11
3.874459
21
14.827693
0
LINE
8
annotation
62
1
39
211
10
3.874459
20
14.827693
11
3.868838
21
14.890207
0
LINE
8
annotation
62
1
39
211
10
3.868838
20
14.890207
11
3.852632
21
14.949108
0
LINE
8
annotation
62
1
39
211
10
3.852632
20
14.949108
11
3.826823
21
15.003397
0
LINE
8
annotation
62
1
39
211
10
3.826823
20
15.003397
11
3.792393
21
15.052074
0
LINE
8
annotation
62
1
39
211
10
3.792393
20
15.052074
11
3.750325
21
15.094141
0
LINE
8
annotation
62
1
39
211
10
3.750325
20
15.094141
11
3.701603
21
15.128598
0
LINE
8
annotation
62
1
39
211
10
3.701603
20
15.128598
11
3.647208
21
15.154447
0
LINE
8
annotation
62
1
39
211
10
3.647208
20
15.154447
11
3.588124
21
15.170689
0
LINE
8
annotation
62
1
39
211
10
3.588124
20
15.170689
11
3.525333
21
15.176325
0
LINE
8
annotation
62
1
39
211
10
3.525333
20
15.176325
11
3.350524
21
15.176325
0
LINE
8
annotation
62
1
39
211
10
3.350524
20
15.176325
11
3.525333
21
15.176325
0
LINE
8
annotation
62
1
39
211
10
3.525333
20
15.176325
11
3.525333
21
15.176325
0
LINE
8
annotation
62
1
39
211
10
3.525333
20
15.176325
11
3.588124
21
15.181963
0
LINE
8
annotation
62
1
39
211
10
3.588124
20
15.181963
11
3.647208
21
15.198214
0
LINE
8
annotation
62
1
39
211
10
3.647208
20
15.198214
11
3.701603
21
15.224089
0
LINE
8
annotation
62
1
39
211
10
3.701603
20
15.224089
11
3.750325
21
15.258597
0
LINE
8
annotation
62
1
39
211
10
3.750325
20
15.258597
11
3.792393
21
15.300746
0
LINE
8
annotation
62
1
39
211
10
3.792393
20
15.300746
11
3.826823
21
15.349546
0
LINE
8
annotation
62
1
39
211
10
3.826823
20
15.349546
11
3.852632
21
15.404007
0
LINE
8
annotation
62
1
39
211
10
3.852632
20
15.404007
11
3.868838
21
15.463136
0
LINE
8
annotation
62
1
39
211
10
3.868838
20
15.463136
11
3.874459
21
15.525944
0
LINE
8
annotation
62
1
39
211
10
3.874459
20
15.525944
11
3.874459
21
15.525944
0
LINE
8
annotation
62
1
39
211
10
3.874459
20
15.525944
11
3.868838
21
15.588459
0
LINE
8
annotation
62
1
39
211
10
3.868838
20
15.588459
11
3.852632
21
15.647360
0
LINE
8
annotation
62
1
39
211
10
3.852632
20
15.647360
11
3.826823
21
15.701648
0
LINE
8
annotation
62
1
39
211
10
3.826823
20
15.701648
11
3.792393
21
15.750325
0
LINE
8
annotation
62
1
39
211
10
3.792393
20
15.750325
11
3.750325
21
15.792392
0
LINE
8
annotation
62
1
39
211
10
3.750325
20
15.792392
11
3.701603
21
15.826850
0
LINE
8
annotation
62
1
39
211
10
3.701603
20
15.826850
11
3.647208
21
15.852699
0
LINE
8
annotation
62
1
39
211
10
3.647208
20
15.852699
11
3.588124
21
15.868941
0
LINE
8
annotation
62
1
39
211
10
3.588124
20
15.868941
11
3.525333
21
15.874577
0
LINE
8
annotation
62
1
39
211
10
3.525333
20
15.874577
11
3.176207
21
15.874577
0
LINE
8
hole
62
5
39
2
10
33.731777
20
17.009030
11
33.788927
21
17.009030
0
LINE
8
hole
62
5
39
2
10
33.788927
20
17.009030
11
33.788927
21
17.066180
0
LINE
8
hole
62
5
39
2
10
33.788927
20
17.066180
11
33.731777
21
17.066180
0
LINE
8
hole
62
5
39
2
10
33.731777
20
17.066180
11
33.731777
21
17.009030
0
LINE
8
hole
62
5
39
2
10
33.708563
20
2.432680
11
33.765713
21
2.432680
0
LINE
8
hole
62
5
39
2
10
33.765713
20
2.432680
11
33.765713
21
2.489830
0
LINE
8
hole
62
5
39
2
10
33.765713
20
2.489830
11
33.708563
21
2.489830
0
LINE
8
hole
62
5
39
2
10
33.708563
20
2.489830
11
33.708563
21
2.432680
0
LINE
8
hole
62
5
39
2
10
42.724346
20
9.624625
11
42.781496
21
9.624625
0
LINE
8
hole
62
5
39
2
10
42.781496
20
9.624625
11
42.781496
21
9.681775
0
LINE
8
hole
62
5
39
2
10
42.781496
20
9.681775
11
42.724346
21
9.681775
0
LINE
8
hole
62
5
39
2
10
42.724346
20
9.681775
11
42.724346
21
9.624625
0
LINE
8
hole
62
5
39
2
10
24.976387
20
9.602576
11
25.033537
21
9.602576
0
LINE
8
hole
62
5
39
2
10
25.033537
20
9.602576
11
25.033537
21
9.659726
0
LINE
8
hole
62
5
39
2
10
25.033537
20
9.659726
11
24.976387
21
9.659726
0
LINE
8
hole
62
5
39
2
10
24.976387
20
9.659726
11
24.976387
21
9.602576
0
LINE
8
hole
62
5
39
2
10
24.726619
20
3.536136
11
24.651557
21
3.604918
0
LINE
8
hole
62
5
39
2
10
24.651557
20
3.604918
11
24.596854
21
3.690784
0
LINE
8
hole
62
5
39
2
10
24.596854
20
3.690784
11
24.566239
21
3.787883
0
LINE
8
hole
62
5
39
2
10
24.566239
20
3.787883
11
24.561798
21
3.889596
0
LINE
8
hole
62
5
39
2
10
24.561798
20
3.889596
11
24.583834
21
3.988993
0
LINE
8
hole
62
5
39
2
10
24.583834
20
3.988993
11
24.630845
21
4.079300
0
LINE
8
hole
62
5
39
2
10
24.630845
20
4.079300
11
24.699627
21
4.154363
0
LINE
8
hole
62
5
39
2
10
24.699627
20
4.154363
11
24.785493
21
4.209065
0
LINE
8
hole
62
5
39
2
10
24.785493
20
4.209065
11
24.882591
21
4.239681
0
LINE
8
hole
62
5
39
2
10
24.882591
20
4.239681
11
24.984305
21
4.244121
0
LINE
8
hole
62
5
39
2
10
24.984305
20
4.244121
11
25.083702
21
4.222085
0
LINE
8
hole
62
5
39
2
10
25.083702
20
4.222085
11
25.174009
21
4.175075
0
LINE
8
hole
62
5
39
2
10
25.174009
20
4.175075
11
25.249071
21
4.106293
0
LINE
8
hole
62
5
39
2
10
25.249071
20
4.106293
11
25.303774
21
4.020427
0
LINE
8
hole
62
5
39
2
10
25.303774
20
4.020427
11
25.334390
21
3.923329
0
LINE
8
hole
62
5
39
2
10
25.334390
20
3.923329
11
25.338830
21
3.821615
0
LINE
8
hole
62
5
39
2
10
25.338830
20
3.821615
11
25.316794
21
3.722218
0
LINE
8
hole
62
5
39
2
10
25.316794
20
3.722218
11
25.269784
21
3.631911
0
LINE
8
hole
62
5
39
2
10
25.269784
20
3.631911
11
25.201001
21
3.556849
0
LINE
8
hole
62
5
39
2
10
25.201001
20
3.556849
11
25.115135
21
3.502146
0
LINE
8
hole
62
5
39
2
10
25.115135
20
3.502146
11
25.018037
21
3.471531
0
LINE
8
hole
62
5
39
2
10
25.018037
20
3.471531
11
24.916323
21
3.467090
0
LINE
8
hole
62
5
39
2
10
24.916323
20
3.467090
11
24.816926
21
3.489125
0
LINE
8
hole
62
5
39
2
10
24.816926
20
3.489125
11
24.726619
21
3.536136
0
LINE
8
hole
62
5
39
2
10
25.733280
20
16.680191
11
25.702665
21
16.777290
0
LINE
8
hole
62
5
39
2
10
25.702665
20
16.777290
11
25.698223
21
16.879003
0
LINE
8
hole
62
5
39
2
10
25.698223
20
16.879003
11
25.720259
21
16.978400
0
LINE
8
hole
62
5
39
2
10
25.720259
20
16.978400
11
25.767271
21
17.068707
0
LINE
8
hole
62
5
39
2
10
25.767271
20
17.068707
11
25.836052
21
17.143770
0
LINE
8
hole
62
5
39
2
10
25.836052
20
17.143770
11
25.921919
21
17.198473
0
LINE
8
hole
62
5
39
2
10
25.921919
20
17.198473
11
26.019017
21
17.229087
0
LINE
8
hole
62
5
39
2
10
26.019017
20
17.229087
11
26.120731
21
17.233528
0
LINE
8
hole
62
5
39
2
10
26.120731
20
17.233528
11
26.220128
21
17.211493
0
LINE
8
hole
62
5
39
2
10
26.220128
20
17.211493
11
26.310435
21
17.164482
0
LINE
8
hole
62
5
39
2
10
26.310435
20
17.164482
11
26.385497
21
17.095700
0
LINE
8
hole
62
5
39
2
10
26.385497
20
17.095700
11
26.440200
21
17.009834
0
LINE
8
hole
62
5
39
2
10
26.440200
20
17.009834
11
26.470815
21
16.912735
0
LINE
8
hole
62
5
39
2
10
26.470815
20
16.912735
11
26.475256
21
16.811022
0
LINE
8
hole
62
5
39
2
10
26.475256
20
16.811022
11
26.453220
21
16.711625
0
LINE
8
hole
62
5
39
2
10
26.453220
20
16.711625
11
26.406209
21
16.621318
0
LINE
8
hole
62
5
39
2
10
26.406209
20
16.621318
11
26.337427
21
16.546255
0
LINE
8
hole
62
5
39
2
10
26.337427
20
16.546255
11
26.251562
21
16.491553
0
LINE
8
hole
62
5
39
2
10
26.251562
20
16.491553
11
26.154463
21
16.460938
0
LINE
8
hole
62
5
39
2
10
26.154463
20
16.460938
11
26.052750
21
16.456497
0
LINE
8
hole
62
5
39
2
10
26.052750
20
16.456497
11
25.953352
21
16.478533
0
LINE
8
hole
62
5
39
2
10
25.953352
20
16.478533
11
25.863045
21
16.525544
0
LINE
8
hole
62
5
39
2
10
25.863045
20
16.525544
11
25.787982
21
16.594325
0
LINE
8
hole
62
5
39
2
10
25.787982
20
16.594325
11
25.733280
21
16.680191
0
LINE
8
hole
62
5
39
2
10
42.300266
20
15.087472
11
42.225203
21
15.156255
0
LINE
8
hole
62
5
39
2
10
42.225203
20
15.156255
11
42.170500
21
15.242121
0
LINE
8
hole
62
5
39
2
10
42.170500
20
15.242121
11
42.139885
21
15.339219
0
LINE
8
hole
62
5
39
2
10
42.139885
20
15.339219
11
42.135445
21
15.440933
0
LINE
8
hole
62
5
39
2
10
42.135445
20
15.440933
11
42.157480
21
15.540330
0
LINE
8
hole
62
5
39
2
10
42.157480
20
15.540330
11
42.204491
21
15.630637
0
LINE
8
hole
62
5
39
2
10
42.204491
20
15.630637
11
42.273273
21
15.705699
0
LINE
8
hole
62
5
39
2
10
42.273273
20
15.705699
11
42.359140
21
15.760402
0
LINE
8
hole
62
5
39
2
10
42.359140
20
15.760402
11
42.456237
21
15.791017
0
LINE
8
hole
62
5
39
2
10
42.456237
20
15.791017
11
42.557951
21
15.795458
0
LINE
8
hole
62
5
39
2
10
42.557951
20
15.795458
11
42.657349
21
15.773422
0
LINE
8
hole
62
5
39
2
10
42.657349
20
15.773422
11
42.747656
21
15.726411
0
LINE
8
hole
62
5
39
2
10
42.747656
20
15.726411
11
42.822718
21
15.657629
0
LINE
8
hole
62
5
39
2
10
42.822718
20
15.657629
11
42.877421
21
15.571763
0
LINE
8
hole
62
5
39
2
10
42.877421
20
15.571763
11
42.908036
21
15.474664
0
LINE
8
hole
62
5
39
2
10
42.908036
20
15.474664
11
42.912476
21
15.372951
0
LINE
8
hole
62
5
39
2
10
42.912476
20
15.372951
11
42.890440
21
15.273555
0
LINE
8
hole
62
5
39
2
10
42.890440
20
15.273555
11
42.843430
21
15.183247
0
LINE
8
hole
62
5
39
2
10
42.843430
20
15.183247
11
42.774647
21
15.108185
0
LINE
8
hole
62
5
39
2
10
42.774647
20
15.108185
11
42.688781
21
15.053482
0
LINE
8
hole
62
5
39
2
10
42.688781
20
15.053482
11
42.591684
21
15.022867
0
LINE
8
hole
62
5
39
2
10
42.591684
20
15.022867
11
42.489970
21
15.018426
0
LINE
8
hole
62
5
39
2
10
42.489970
20
15.018426
11
42.390573
21
15.040461
0
LINE
8
hole
62
5
39
2
10
42.390573
20
15.040461
11
42.300266
21
15.087472
0
LINE
8
hole
62
5
39
2
10
41.163840
20
2.098066
11
41.088778
21
2.166848
0
LINE
8
hole
62
5
39
2
10
41.088778
20
2.166848
11
41.034075
21
2.252714
0
LINE
8
hole
62
5
39
2
10
41.034075
20
2.252714
11
41.003459
21
2.349812
0
LINE
8
hole
62
5
39
2
10
41.003459
20
2.349812
11
40.999018
21
2.451526
0
LINE
8
hole
62
5
39
2
10
40.999018
20
2.451526
11
41.021054
21
2.550923
0
LINE
8
hole
62
5
39
2
10
41.021054
20
2.550923
11
41.068065
21
2.641230
0
LINE
8
hole
62
5
39
2
10
41.068065
20
2.641230
11
41.136847
21
2.716292
0
LINE
8
hole
62
5
39
2
10
41.136847
20
2.716292
11
41.222713
21
2.770995
0
LINE
8
hole
62
5
39
2
10
41.222713
20
2.770995
11
41.319812
21
2.801610
0
LINE
8
hole
62
5
39
2
10
41.319812
20
2.801610
11
41.421525
21
2.806051
0
LINE
8
hole
62
5
39
2
10
41.421525
20
2.806051
11
41.520923
21
2.784015
0
LINE
8
hole
62
5
39
2
10
41.520923
20
2.784015
11
41.611230
21
2.737005
0
LINE
8
hole
62
5
39
2
10
41.611230
20
2.737005
11
41.686292
21
2.668222
0
LINE
8
hole
62
5
39
2
10
41.686292
20
2.668222
11
41.740995
21
2.582356
0
LINE
8
hole
62
5
39
2
10
41.740995
20
2.582356
11
41.771610
21
2.485258
0
LINE
8
hole
62
5
39
2
10
41.771610
20
2.485258
11
41.776051
21
2.383545
0
LINE
8
hole
62
5
39
2
10
41.776051
20
2.383545
11
41.754015
21
2.284147
0
LINE
8
hole
62
5
39
2
10
41.754015
20
2.284147
11
41.707004
21
2.193840
0
LINE
8
hole
62
5
39
2
10
41.707004
20
2.193840
11
41.638222
21
2.118778
0
LINE
8
hole
62
5
39
2
10
41.638222
20
2.118778
11
41.552356
21
2.064075
0
LINE
8
hole
62
5
39
2
10
41.552356
20
2.064075
11
41.455258
21
2.033460
0
LINE
8
hole
62
5
39
2
10
41.455258
20
2.033460
11
41.353544
21
2.029019
0
LINE
8
hole
62
5
39
2
10
41.353544
20
2.029019
11
41.254147
21
2.051055
0
LINE
8
hole
62
5
39
2
10
41.254147
20
2.051055
11
41.163840
21
2.098066
0
LINE
8
hole
62
5
39
2
10
27.728171
20
4.557610
11
26.158904
21
6.350853
0
LINE
8
hole
62
5
39
2
10
26.158904
20
6.350853
11
25.886444
21
6.614753
0
LINE
8
hole
62
5
39
2
10
25.886444
20
6.614753
11
25.406134
21
8.481981
0
LINE
8
hole
62
5
39
2
10
25.406134
20
8.481981
11
25.240749
21
9.035149
0
LINE
8
hole
62
5
39
2
10
25.240749
20
9.035149
11
25.345561
21
10.325395
0
LINE
8
hole
62
5
39
2
10
25.345561
20
10.325395
11
25.414014
21
10.978050
0
LINE
8
hole
62
5
39
2
10
25.414014
20
10.978050
11
25.685972
21
11.840300
0
LINE
8
hole
62
5
39
2
10
25.685972
20
11.840300
11
25.900035
21
12.439355
0
LINE
8
hole
62
5
39
2
10
25.900035
20
12.439355
11
26.248784
21
13.037317
0
LINE
8
hole
62
5
39
2
10
26.248784
20
13.037317
11
26.587925
21
13.575193
0
LINE
8
hole
62
5
39
2
10
26.587925
20
13.575193
11
26.953742
21
13.989318
0
LINE
8
hole
62
5
39
2
10
26.953742
20
13.989318
11
27.412295
21
14.471955
0
LINE
8
hole
62
5
39
2
10
27.412295
20
14.471955
11
27.576079
21
14.605906
0
LINE
8
hole
62
5
39
2
10
27.576079
20
14.605906
11
27.684667
21
14.694716
0
LINE
8
hole
62
5
39
2
10
27.684667
20
14.694716
11
27.746662
21
14.745419
0
LINE
8
hole
62
5
39
2
10
27.746662
20
14.745419
11
28.311514
21
15.178413
0
LINE
8
hole
62
5
39
2
10
28.311514
20
15.178413
11
28.585574
21
15.356674
0
LINE
8
hole
62
5
39
2
10
28.585574
20
15.356674
11
29.272630
21
15.775794
0
LINE
8
hole
62
5
39
2
10
29.272630
20
15.775794
11
29.477264
21
15.882989
0
LINE
8
hole
62
5
39
2
10
29.477264
20
15.882989
11
30.273025
21
16.248947
0
LINE
8
hole
62
5
39
2
10
30.273025
20
16.248947
11
30.388122
21
16.295097
0
LINE
8
hole
62
5
39
2
10
30.388122
20
16.295097
11
31.242991
21
16.577652
0
LINE
8
hole
62
5
39
2
10
31.242991
20
16.577652
11
32.039863
21
16.744468
0
LINE
8
hole
62
5
39
2
10
32.039863
20
16.744468
11
32.217521
21
16.780322
0
LINE
8
hole
62
5
39
2
10
32.217521
20
16.780322
11
33.180747
21
16.865450
0
LINE
8
hole
62
5
39
2
10
33.180747
20
16.865450
11
33.294709
21
16.867122
0
LINE
8
hole
62
5
39
2
10
33.294709
20
16.867122
11
34.138948
21
16.874375
0
LINE
8
hole
62
5
39
2
10
34.138948
20
16.874375
11
34.201578
21
16.874221
0
LINE
8
hole
62
5
39
2
10
34.201578
20
16.874221
11
35.144884
21
16.846192
0
LINE
8
hole
62
5
39
2
10
35.144884
20
16.846192
11
35.356997
21
16.837104
0
LINE
8
hole
62
5
39
2
10
35.356997
20
16.837104
11
36.283823
21
16.764036
0
LINE
8
hole
62
5
39
2
10
36.283823
20
16.764036
11
36.348884
21
16.758906
0
LINE
8
hole
62
5
39
2
10
36.348884
20
16.758906
11
36.641765
21
16.718215
0
LINE
8
hole
62
5
39
2
10
36.641765
20
16.718215
11
36.742661
21
16.704195
0
LINE
8
hole
62
5
39
2
10
36.742661
20
16.704195
11
37.700554
21
16.531754
0
LINE
8
hole
62
5
39
2
10
37.700554
20
16.531754
11
38.494676
21
16.244069
0
LINE
8
hole
62
5
39
2
10
38.494676
20
16.244069
11
39.169618
21
15.961085
0
LINE
8
hole
62
5
39
2
10
39.169618
20
15.961085
11
40.144754
21
15.263191
0
LINE
8
hole
62
5
39
2
10
40.144754
20
15.263191
11
40.526137
21
14.972722
0
LINE
8
hole
62
5
39
2
10
40.526137
20
14.972722
11
41.450161
21
13.931132
0
LINE
8
hole
62
5
39
2
10
41.450161
20
13.931132
11
41.687522
21
13.644262
0
LINE
8
hole
62
5
39
2
10
41.687522
20
13.644262
11
42.556048
21
11.840715
0
LINE
8
hole
62
5
39
2
10
42.556048
20
11.840715
11
42.634417
21
11.643034
0
LINE
8
hole
62
5
39
2
10
42.634417
20
11.643034
11
42.600892
21
10.577913
0
LINE
8
hole
62
5
39
2
10
42.600892
20
10.577913
11
42.576415
21
8.994074
0
LINE
8
hole
62
5
39
2
10
42.576415
20
8.994074
11
42.572512
21
8.741554
0
LINE
8
hole
62
5
39
2
10
42.572512
20
8.741554
11
42.380912
21
8.323119
0
LINE
8
hole
62
5
39
2
10
42.380912
20
8.323119
11
41.135438
21
6.092515
0
LINE
8
hole
62
5
39
2
10
41.135438
20
6.092515
11
40.998402
21
5.847088
0
LINE
8
hole
62
5
39
2
10
40.998402
20
5.847088
11
40.579127
21
5.488990
0
LINE
8
hole
62
5
39
2
10
40.579127
20
5.488990
11
39.083895
21
4.167337
0
LINE
8
hole
62
5
39
2
10
39.083895
20
4.167337
11
38.914811
21
4.017882
0
LINE
8
hole
62
5
39
2
10
38.914811
20
4.017882
11
38.207489
21
3.713112
0
LINE
8
hole
62
5
39
2
10
38.207489
20
3.713112
11
36.827081
21
3.065756
0
LINE
8
hole
62
5
39
2
10
36.827081
20
3.065756
11
36.747791
21
3.028570
0
LINE
8
hole
62
5
39
2
10
36.747791
20
3.028570
11
35.894824
21
2.962491
0
LINE
8
hole
62
5
39
2
10
35.894824
20
2.962491
11
34.587670
21
2.818531
0
LINE
8
hole
62
5
39
2
10
34.587670
20
2.818531
11
34.513792
21
2.810395
0
LINE
8
hole
62
5
39
2
10
34.513792
20
2.810395
11
33.825687
21
2.873471
0
LINE
8
hole
62
5
39
2
10
33.825687
20
2.873471
11
32.413635
21
2.986074
0
LINE
8
hole
62
5
39
2
10
32.413635
20
2.986074
11
32.316856
21
2.993792
0
LINE
8
hole
62
5
39
2
10
32.316856
20
2.993792
11
31.813882
21
3.120719
0
LINE
8
hole
62
5
39
2
10
31.813882
20
3.120719
11
30.142501
21
3.435401
0
LINE
8
hole
62
5
39
2
10
30.142501
20
3.435401
11
30.056297
21
3.451633
0
LINE
8
hole
62
5
39
2
10
30.056297
20
3.451633
11
29.843917
21
3.579410
0
LINE
8
hole
62
5
39
2
10
29.843917
20
3.579410
11
28.109047
21
4.380748
0
LINE
8
hole
62
5
39
2
10
28.109047
20
4.380748
11
27.770791
21
4.541448
0
LINE
8
hole
62
5
39
2
10
27.770791
20
4.541448
11
27.728171
21
4.557610
0
LINE
8
boundary
62
5
39
2
10
24.682681
20
2.292496
11
43.242176
21
0.668750
0
LINE
8
boundary
62
5
39
2
10
43.242176
20
0.668750
11
43.372407
21
2.157288
0
LINE
8
boundary
62
5
39
2
10
43.372407
20
2.157288
11
44.654100
21
16.807105
0
LINE
8
boundary
62
5
39
2
10
44.654100
20
16.807105
11
42.772605
21
16.971714
0
LINE
8
boundary
62
5
39
2
10
42.772605
20
16.971714
11
24.232098
21
18.593798
0
LINE
8
boundary
62
5
39
2
10
24.232098
20
18.593798
11
24.103476
21
17.123645
0
LINE
8
boundary
62
5
39
2
10
24.103476
20
17.123645
11
22.820175
21
2.455444
0
LINE
8
boundary
62
5
39
2
10
22.820175
20
2.455444
11
24.682681
21
2.292496
0
LINE
8
annotation
62
1
39
211
10
42.752921
20
9.653200
11
42.752921
21
9.796075
0
LINE
8
annotation
62
1
39
211
10
42.752921
20
9.653200
11
42.752921
21
9.796075
0
LINE
8
annotation
62
1
39
211
10
42.752921
20
9.796075
11
42.752921
21
9.653200
0
LINE
8
annotation
62
1
39
211
10
42.752921
20
9.653200
11
42.895796
21
9.653200
0
LINE
8
annotation
62
1
39
211
10
25.004962
20
9.631151
11
25.004962
21
9.488276
0
LINE
8
annotation
62
1
39
211
10
33.760352
20
17.037605
11
33.760352
21
17.180480
0
LINE
8
annotation
62
1
39
211
10
33.760352
20
17.037605
11
33.760352
21
17.180480
0
LINE
8
annotation
62
1
39
211
10
33.760352
20
17.180480
11
33.760352
21
17.037605
0
LINE
8
annotation
62
1
39
211
10
33.760352
20
17.037605
11
33.760352
21
16.894730
0
LINE
8
annotation
62
1
39
211
10
33.737138
20
2.461255
11
33.880013
21
2.461255
0
LINE
8
annotation
62
1
39
211
10
33.737138
20
2.461255
11
33.880013
21
2.461255
0
LINE
8
annotation
62
1
39
211
10
33.880013
20
2.461255
11
33.737138
21
2.461255
0
LINE
8
annotation
62
1
39
211
10
33.737138
20
2.461255
11
33.737138
21
2.318380
0
LINE
8
annotation
62
1
39
211
10
24.737988
20
14.304201
11
24.737988
21
15.876401
0
LINE
8
annotation
62
1
39
211
10
24.737988
20
15.876401
11
24.388468
21
15.526782
0
LINE
8
annotation
62
1
39
211
10
26.025884
20
14.304188
11
25.327632
21
14.304188
0
LINE
8
annotation
62
1
39
211
10
25.327632
20
14.304188
11
25.972840
21
15.342889
0
LINE
8
annotation
62
1
39
211
10
25.972840
20
15.342889
11
25.972840
21
15.342889
0
LINE
8
annotation
62
1
39
211
10
25.972840
20
15.342889
11
25.973611
21
15.343844
0
LINE
8
annotation
62
1
39
211
10
25.973611
20
15.343844
11
25.974351
21
15.344806
0
LINE
8
annotation
62
1
39
211
10
25.974351
20
15.344806
11
25.975064
21
15.345785
0
LINE
8
annotation
62
1
39
211
10
25.975064
20
15.345785
11
25.975754
21
15.346788
0
LINE
8
annotation
62
1
39
211
10
25.975754
20
15.346788
11
25.976428
21
15.347824
0
LINE
8
annotation
62
1
39
211
10
25.976428
20
15.347824
11
25.977090
21
15.348900
0
LINE
8
annotation
62
1
39
211
10
25.977090
20
15.348900
11
25.977745
21
15.350025
0
LINE
8
annotation
62
1
39
211
10
25.977745
20
15.350025
11
25.978397
21
15.351207
0
LINE
8
annotation
62
1
39
211
10
25.978397
20
15.351207
11
25.979051
21
15.352453
0
LINE
8
annotation
62
1
39
211
10
25.979051
20
15.352453
11
25.979051
21
15.352453
0
LINE
8
annotation
62
1
39
211
10
25.979051
20
15.352453
11
26.005692
21
15.409652
0
LINE
8
annotation
62
1
39
211
10
26.005692
20
15.409652
11
26.021255
21
15.468945
0
LINE
8
annotation
62
1
39
211
10
26.021255
20
15.468945
11
26.026121
21
15.528990
0
LINE
8
annotation
62
1
39
211
10
26.026121
20
15.528990
11
26.020673
21
15.588448
0
LINE
8
annotation
62
1
39
211
10
26.020673
20
15.588448
11
26.005292
21
15.645980
0
LINE
8
annotation
62
1
39
211
10
26.005292
20
15.645980
11
25.980358
21
15.700246
0
LINE
8
annotation
62
1
39
211
10
25.980358
20
15.700246
11
25.946254
21
15.749906
0
LINE
8
annotation
62
1
39
211
10
25.946254
20
15.749906
11
25.903361
21
15.793620
0
LINE
8
annotation
62
1
39
211
10
25.903361
20
15.793620
11
25.852060
21
15.830048
0
LINE
8
annotation
62
1
39
211
10
25.852060
20
15.830048
11
25.852060
21
15.830048
0
LINE
8
annotation
62
1
39
211
10
25.852060
20
15.830048
11
25.794702
21
15.856310
0
LINE
8
annotation
62
1
39
211
10
25.794702
20
15.856310
11
25.735319
21
15.871633
0
LINE
8
annotation
62
1
39
211
10
25.735319
20
15.871633
11
25.675239
21
15.876363
0
LINE
8
annotation
62
1
39
211
10
25.675239
20
15.876363
11
25.615789
21
15.870843
0
LINE
8
annotation
62
1
39
211
10
25.615789
20
15.870843
11
25.558298
21
15.855419
0
LINE
8
annotation
62
1
39
211
10
25.558298
20
15.855419
11
25.504092
21
15.830436
0
LINE
8
annotation
62
1
39
211
10
25.504092
20
15.830436
11
25.454500
21
15.796238
0
LINE
8
annotation
62
1
39
211
10
25.454500
20
15.796238
11
25.410848
21
15.753171
0
LINE
8
annotation
62
1
39
211
10
25.410848
20
15.753171
11
25.374465
21
15.701579
0
LINE
8
annotation
62
1
39
211
10
25.374465
20
15.701579
11
25.328618
21
15.613632
0
LINE
8
hole
62
5
39
2
10
47.008750
20
9.626389
11
47.065900
21
9.626389
0
LINE
8
hole
62
5
39
2
10
47.065900
20
9.626389
11
47.065900
21
9.683539
0
LINE
8
hole
62
5
39
2
10
47.065900
20
9.683539
11
47.008750
21
9.683539
0
LINE
8
hole
62
5
39
2
10
47.008750
20
9.683539
11
47.008750
21
9.626389
0
LINE
8
hole
62
5
39
2
10
55.883801
20
16.844155
11
55.940951
21
16.844155
0
LINE
8
hole
62
5
39
2
10
55.940951
20
16.844155
11
55.940951
21
16.901305
0
LINE
8
hole
62
5
39
2
10
55.940951
20
16.901305
11
55.883801
21
16.901305
0
LINE
8
hole
62
5
39
2
10
55.883801
20
16.901305
11
55.883801
21
16.844155
0
LINE
8
hole
62
5
39
2
10
55.859988
20
2.432680
11
55.917138
21
2.432680
0
LINE
8
hole
62
5
39
2
10
55.917138
20
2.432680
11
55.917138
21
2.489830
0
LINE
8
hole
62
5
39
2
10
55.917138
20
2.489830
11
55.859988
21
2.489830
0
LINE
8
hole
62
5
39
2
10
55.859988
20
2.489830
11
55.859988
21
2.432680
0
LINE
8
hole
62
5
39
2
10
64.594953
20
9.602576
11
64.652103
21
9.602576
0
LINE
8
hole
62
5
39
2
10
64.652103
20
9.602576
11
64.652103
21
9.659726
0
LINE
8
hole
62
5
39
2
10
64.652103
20
9.659726
11
64.594953
21
9.659726
0
LINE
8
hole
62
5
39
2
10
64.594953
20
9.659726
11
64.594953
21
9.602576
0
LINE
8
hole
62
5
39
2
10
46.802982
20
3.604918
11
46.749412
21
3.689006
0
LINE
8
hole
62
5
39
2
10
46.749412
20
3.689006
11
46.718298
21
3.785874
0
LINE
8
hole
62
5
39
2
10
46.718298
20
3.785874
11
46.713316
21
3.887493
0
LINE
8
hole
62
5
39
2
10
46.713316
20
3.887493
11
46.734804
21
3.986937
0
LINE
8
hole
62
5
39
2
10
46.734804
20
3.986937
11
46.781297
21
4.077431
0
LINE
8
hole
62
5
39
2
10
46.781297
20
4.077431
11
46.849627
21
4.152806
0
LINE
8
hole
62
5
39
2
10
46.849627
20
4.152806
11
46.935134
21
4.207929
0
LINE
8
hole
62
5
39
2
10
46.935134
20
4.207929
11
47.031995
21
4.239043
0
LINE
8
hole
62
5
39
2
10
47.031995
20
4.239043
11
47.133607
21
4.244029
0
LINE
8
hole
62
5
39
2
10
47.133607
20
4.244029
11
47.233048
21
4.222547
0
LINE
8
hole
62
5
39
2
10
47.233048
20
4.222547
11
47.323541
21
4.176061
0
LINE
8
hole
62
5
39
2
10
47.323541
20
4.176061
11
47.398919
21
4.107738
0
LINE
8
hole
62
5
39
2
10
47.398919
20
4.107738
11
47.454049
21
4.022234
0
LINE
8
hole
62
5
39
2
10
47.454049
20
4.022234
11
47.485170
21
3.925373
0
LINE
8
hole
62
5
39
2
10
47.485170
20
3.925373
11
47.490162
21
3.823758
0
LINE
8
hole
62
5
39
2
10
47.490162
20
3.823758
11
47.468685
21
3.724311
0
LINE
8
hole
62
5
39
2
10
47.468685
20
3.724311
11
47.422199
21
3.633811
0
LINE
8
hole
62
5
39
2
10
47.422199
20
3.633811
11
47.353873
21
3.558426
0
LINE
8
hole
62
5
39
2
10
47.353873
20
3.558426
11
47.268361
21
3.503293
0
LINE
8
hole
62
5
39
2
10
47.268361
20
3.503293
11
47.171495
21
3.472171
0
LINE
8
hole
62
5
39
2
10
47.171495
20
3.472171
11
47.069873
21
3.467182
0
LINE
8
hole
62
5
39
2
10
47.069873
20
3.467182
11
46.970422
21
3.488666
0
LINE
8
hole
62
5
39
2
10
46.970422
20
3.488666
11
46.879921
21
3.535159
0
LINE
8
hole
62
5
39
2
10
46.879921
20
3.535159
11
46.804539
21
3.603492
0
LINE
8
hole
62
5
39
2
10
46.804539
20
3.603492
11
46.802982
21
3.604918
0
LINE
8
hole
62
5
39
2
10
63.240203
20
2.166847
11
63.187085
21
2.250228
0
LINE
8
hole
62
5
39
2
10
63.187085
20
2.250228
11
63.155771
21
2.347003
0
LINE
8
hole
62
5
39
2
10
63.155771
20
2.347003
11
63.150572
21
2.448583
0
LINE
8
hole
62
5
39
2
10
63.150572
20
2.448583
11
63.171842
21
2.548046
0
LINE
8
hole
62
5
39
2
10
63.171842
20
2.548046
11
63.218129
21
2.638615
0
LINE
8
hole
62
5
39
2
10
63.218129
20
2.638615
11
63.286279
21
2.714116
0
LINE
8
hole
62
5
39
2
10
63.286279
20
2.714116
11
63.371646
21
2.769407
0
LINE
8
hole
62
5
39
2
10
63.371646
20
2.769407
11
63.468414
21
2.800720
0
LINE
8
hole
62
5
39
2
10
63.468414
20
2.800720
11
63.569988
21
2.805922
0
LINE
8
hole
62
5
39
2
10
63.569988
20
2.805922
11
63.669448
21
2.784658
0
LINE
8
hole
62
5
39
2
10
63.669448
20
2.784658
11
63.760016
21
2.738378
0
LINE
8
hole
62
5
39
2
10
63.760016
20
2.738378
11
63.835521
21
2.670235
0
LINE
8
hole
62
5
39
2
10
63.835521
20
2.670235
11
63.890818
21
2.584872
0
LINE
8
hole
62
5
39
2
10
63.890818
20
2.584872
11
63.922137
21
2.488104
0
LINE
8
hole
62
5
39
2
10
63.922137
20
2.488104
11
63.927347
21
2.386527
0
LINE
8
hole
62
5
39
2
10
63.927347
20
2.386527
11
63.906086
21
2.287061
0
LINE
8
hole
62
5
39
2
10
63.906086
20
2.287061
11
63.859807
21
2.196486
0
LINE
8
hole
62
5
39
2
10
63.859807
20
2.196486
11
63.791661
21
2.120975
0
LINE
8
hole
62
5
39
2
10
63.791661
20
2.120975
11
63.706291
21
2.065674
0
LINE
8
hole
62
5
39
2
10
63.706291
20
2.065674
11
63.609516
21
2.034353
0
LINE
8
hole
62
5
39
2
10
63.609516
20
2.034353
11
63.507932
21
2.029149
0
LINE
8
hole
62
5
39
2
10
63.507932
20
2.029149
11
63.408463
21
2.050414
0
LINE
8
hole
62
5
39
2
10
63.408463
20
2.050414
11
63.317887
21
2.096700
0
LINE
8
hole
62
5
39
2
10
63.317887
20
2.096700
11
63.242379
21
2.164853
0
LINE
8
hole
62
5
39
2
10
63.242379
20
2.164853
11
63.240203
21
2.166847
0
LINE
8
hole
62
5
39
2
10
47.939408
20
16.594325
11
47.885837
21
16.678413
0
LINE
8
hole
62
5
39
2
10
47.885837
20
16.678413
11
47.854724
21
16.775281
0
LINE
8
hole
62
5
39
2
10
47.854724
20
16.775281
11
47.849741
21
16.876900
0
LINE
8
hole
62
5
39
2
10
47.849741
20
16.876900
11
47.871229
21
16.976344
0
LINE
8
hole
62
5
39
2
10
47.871229
20
16.976344
11
47.917723
21
17.066838
0
LINE
8
hole
62
5
39
2
10
47.917723
20
17.066838
11
47.986052
21
17.142214
0
LINE
8
hole
62
5
39
2
10
47.986052
20
17.142214
11
48.071561
21
17.197336
0
LINE
8
hole
62
5
39
2
10
48.071561
20
17.197336
11
48.168421
21
17.228450
0
LINE
8
hole
62
5
39
2
10
48.168421
20
17.228450
11
48.270033
21
17.233435
0
LINE
8
hole
62
5
39
2
10
48.270033
20
17.233435
11
48.369474
21
17.211953
0
LINE
8
hole
62
5
39
2
10
48.369474
20
17.211953
11
48.459966
21
17.165467
0
LINE
8
hole
62
5
39
2
10
48.459966
20
17.165467
11
48.535346
21
17.097144
0
LINE
8
hole
62
5
39
2
10
48.535346
20
17.097144
11
48.590475
21
17.011641
0
LINE
8
hole
62
5
39
2
10
48.590475
20
17.011641
11
48.621596
21
16.914780
0
LINE
8
hole
62
5
39
2
10
48.621596
20
16.914780
11
48.626589
21
16.813164
0
LINE
8
hole
62
5
39
2
10
48.626589
20
16.813164
11
48.605110
21
16.713718
0
LINE
8
hole
62
5
39
2
10
48.605110
20
16.713718
11
48.558624
21
16.623217
0
LINE
8
hole
62
5
39
2
10
48.558624
20
16.623217
11
48.490299
21
16.547832
0
LINE
8
hole
62
5
39
2
10
48.490299
20
16.547832
11
48.404788
21
16.492699
0
LINE
8
hole
62
5
39
2
10
48.404788
20
16.492699
11
48.307920
21
16.461578
0
LINE
8
hole
62
5
39
2
10
48.307920
20
16.461578
11
48.206298
21
16.456589
0
LINE
8
hole
62
5
39
2
10
48.206298
20
16.456589
11
48.106847
21
16.478073
0
LINE
8
hole
62
5
39
2
10
48.106847
20
16.478073
11
48.016347
21
16.524566
0
LINE
8
hole
62
5
39
2
10
48.016347
20
16.524566
11
47.940964
21
16.592899
0
LINE
8
hole
62
5
39
2
10
47.940964
20
16.592899
11
47.939408
21
16.594325
0
LINE
8
hole
62
5
39
2
10
64.376629
20
15.156254
11
64.323510
21
15.239634
0
LINE
8
hole
62
5
39
2
10
64.323510
20
15.239634
11
64.292196
21
15.336409
0
LINE
8
hole
62
5
39
2
10
64.292196
20
15.336409
11
64.286998
21
15.437990
0
LINE
8
hole
62
5
39
2
10
64.286998
20
15.437990
11
64.308268
21
15.537454
0
LINE
8
hole
62
5
39
2
10
64.308268
20
15.537454
11
64.354555
21
15.628022
0
LINE
8
hole
62
5
39
2
10
64.354555
20
15.628022
11
64.422705
21
15.703524
0
LINE
8
hole
62
5
39
2
10
64.422705
20
15.703524
11
64.508072
21
15.758814
0
LINE
8
hole
62
5
39
2
10
64.508072
20
15.758814
11
64.604840
21
15.790127
0
LINE
8
hole
62
5
39
2
10
64.604840
20
15.790127
11
64.706415
21
15.795328
0
LINE
8
hole
62
5
39
2
10
64.706415
20
15.795328
11
64.805875
21
15.774065
0
LINE
8
hole
62
5
39
2
10
64.805875
20
15.774065
11
64.896443
21
15.727785
0
LINE
8
hole
62
5
39
2
10
64.896443
20
15.727785
11
64.971947
21
15.659642
0
LINE
8
hole
62
5
39
2
10
64.971947
20
15.659642
11
65.027244
21
15.574278
0
LINE
8
hole
62
5
39
2
10
65.027244
20
15.574278
11
65.058564
21
15.477511
0
LINE
8
hole
62
5
39
2
10
65.058564
20
15.477511
11
65.063772
21
15.375934
0
LINE
8
hole
62
5
39
2
10
65.063772
20
15.375934
11
65.042512
21
15.276468
0
LINE
8
hole
62
5
39
2
10
65.042512
20
15.276468
11
64.996232
21
15.185892
0
LINE
8
hole
62
5
39
2
10
64.996232
20
15.185892
11
64.928086
21
15.110381
0
LINE
8
hole
62
5
39
2
10
64.928086
20
15.110381
11
64.842716
21
15.055080
0
LINE
8
hole
62
5
39
2
10
64.842716
20
15.055080
11
64.745941
21
15.023760
0
LINE
8
hole
62
5
39
2
10
64.745941
20
15.023760
11
64.644357
21
15.018555
0
LINE
8
hole
62
5
39
2
10
64.644357
20
15.018555
11
64.544888
21
15.039821
0
LINE
8
hole
62
5
39
2
10
64.544888
20
15.039821
11
64.454313
21
15.086108
0
LINE
8
hole
62
5
39
2
10
64.454313
20
15.086108
11
64.378805
21
15.154260
0
LINE
8
hole
62
5
39
2
10
64.378805
20
15.154260
11
64.376629
21
15.156254
0
LINE
8
hole
62
5
39
2
10
48.730992
20
6.113770
11
48.152604
21
6.603584
0
LINE
8
hole
62
5
39
2
10
48.152604
20
6.603584
11
47.506299
21
8.537308
0
LINE
8
hole
62
5
39
2
10
47.506299
20
8.537308
11
47.204372
21
9.440291
0
LINE
8
hole
62
5
39
2
10
47.204372
20
9.440291
11
47.418307
21
10.838110
0
LINE
8
hole
62
5
39
2
10
47.418307
20
10.838110
11
47.563296
21
11.845197
0
LINE
8
hole
62
5
39
2
10
47.563296
20
11.845197
11
48.025145
21
12.721543
0
LINE
8
hole
62
5
39
2
10
48.025145
20
12.721543
11
48.553067
21
13.553440
0
LINE
8
hole
62
5
39
2
10
48.553067
20
13.553440
11
49.065178
21
14.067583
0
LINE
8
hole
62
5
39
2
10
49.065178
20
14.067583
11
49.832865
21
14.630030
0
LINE
8
hole
62
5
39
2
10
49.832865
20
14.630030
11
50.211881
21
14.879228
0
LINE
8
hole
62
5
39
2
10
50.211881
20
14.879228
11
51.070426
21
15.250868
0
LINE
8
hole
62
5
39
2
10
51.070426
20
15.250868
11
51.263758
21
15.351628
0
LINE
8
hole
62
5
39
2
10
51.263758
20
15.351628
11
51.747588
21
15.542441
0
LINE
8
hole
62
5
39
2
10
51.747588
20
15.542441
11
52.019358
21
15.645197
0
LINE
8
hole
62
5
39
2
10
52.019358
20
15.645197
11
52.115895
21
15.677414
0
LINE
8
hole
62
5
39
2
10
52.115895
20
15.677414
11
52.693411
21
15.903080
0
LINE
8
hole
62
5
39
2
10
52.693411
20
15.903080
11
52.895063
21
15.982141
0
LINE
8
hole
62
5
39
2
10
52.895063
20
15.982141
11
53.167834
21
16.072647
0
LINE
8
hole
62
5
39
2
10
53.167834
20
16.072647
11
53.582701
21
16.196010
0
LINE
8
hole
62
5
39
2
10
53.582701
20
16.196010
11
53.957523
21
16.285081
0
LINE
8
hole
62
5
39
2
10
53.957523
20
16.285081
11
54.442449
21
16.399273
0
LINE
8
hole
62
5
39
2
10
54.442449
20
16.399273
11
54.919627
21
16.471501
0
LINE
8
hole
62
5
39
2
10
54.919627
20
16.471501
11
55.356343
21
16.538092
0
LINE
8
hole
62
5
39
2
10
55.356343
20
16.538092
11
55.911230
21
16.582030
0
LINE
8
hole
62
5
39
2
10
55.911230
20
16.582030
11
56.299462
21
16.609547
0
LINE
8
hole
62
5
39
2
10
56.299462
20
16.609547
11
56.914797
21
16.609436
0
LINE
8
hole
62
5
39
2
10
56.914797
20
16.609436
11
57.260546
21
16.607206
0
LINE
8
hole
62
5
39
2
10
57.260546
20
16.607206
11
57.882774
21
16.567278
0
LINE
8
hole
62
5
39
2
10
57.882774
20
16.567278
11
58.190904
21
16.550618
0
LINE
8
hole
62
5
39
2
10
58.190904
20
16.550618
11
58.827258
21
16.476577
0
LINE
8
hole
62
5
39
2
10
58.827258
20
16.476577
11
59.019152
21
16.457272
0
LINE
8
hole
62
5
39
2
10
59.019152
20
16.457272
11
59.641638
21
16.337797
0
LINE
8
hole
62
5
39
2
10
59.641638
20
16.337797
11
60.023330
21
16.258403
0
LINE
8
hole
62
5
39
2
10
60.023330
20
16.258403
11
60.260658
21
16.161757
0
LINE
8
hole
62
5
39
2
10
60.260658
20
16.161757
11
61.322372
21
15.737218
0
LINE
8
hole
62
5
39
2
10
61.322372
20
15.737218
11
62.189547
21
15.086027
0
LINE
8
hole
62
5
39
2
10
62.189547
20
15.086027
11
62.691564
21
14.699265
0
LINE
8
hole
62
5
39
2
10
62.691564
20
14.699265
11
63.640567
21
13.357294
0
LINE
8
hole
62
5
39
2
10
63.640567
20
13.357294
11
63.814886
21
13.067550
0
LINE
8
hole
62
5
39
2
10
63.814886
20
13.067550
11
64.184335
21
10.841724
0
LINE
8
hole
62
5
39
2
10
64.184335
20
10.841724
11
64.216129
21
10.658763
0
LINE
8
hole
62
5
39
2
10
64.216129
20
10.658763
11
63.338258
21
8.104096
0
LINE
8
hole
62
5
39
2
10
63.338258
20
8.104096
11
63.056545
21
7.738499
0
LINE
8
hole
62
5
39
2
10
63.056545
20
7.738499
11
61.756433
21
6.262963
0
LINE
8
hole
62
5
39
2
10
61.756433
20
6.262963
11
61.557805
21
6.103047
0
LINE
8
hole
62
5
39
2
10
61.557805
20
6.103047
11
60.181471
21
5.103219
0
LINE
8
hole
62
5
39
2
10
60.181471
20
5.103219
11
59.772415
21
4.902611
0
LINE
8
hole
62
5
39
2
10
59.772415
20
4.902611
11
58.589170
21
4.369368
0
LINE
8
hole
62
5
39
2
10
58.589170
20
4.369368
11
58.063109
21
4.263841
0
LINE
8
hole
62
5
39
2
10
58.063109
20
4.263841
11
56.866261
21
3.991583
0
LINE
8
hole
62
5
39
2
10
56.866261
20
3.991583
11
56.493148
21
3.984270
0
LINE
8
hole
62
5
39
2
10
56.493148
20
3.984270
11
55.010243
21
3.831143
0
LINE
8
hole
62
5
39
2
10
55.010243
20
3.831143
11
54.816131
21
3.847656
0
LINE
8
hole
62
5
39
2
10
54.816131
20
3.847656
11
53.607975
21
3.872765
0
LINE
8
hole
62
5
39
2
10
53.607975
20
3.872765
11
53.023920
21
3.889209
0
LINE
8
hole
62
5
39
2
10
53.023920
20
3.889209
11
52.930628
21
3.888727
0
LINE
8
hole
62
5
39
2
10
52.930628
20
3.888727
11
50.852361
21
4.499978
0
LINE
8
hole
62
5
39
2
10
50.852361
20
4.499978
11
50.490051
21
4.603988
0
LINE
8
hole
62
5
39
2
10
50.490051
20
4.603988
11
48.730992
21
6.113770
0
LINE
8
boundary
62
5
39
2
10
56.375248
20
1.457754
11
65.393602
21
0.668750
0
LINE
8
boundary
62
5
39
2
10
65.393602
20
0.668750
11
66.182730
21
9.688522
0
LINE
8
boundary
62
5
39
2
10
66.182730
20
9.688522
11
66.805526
21
16.807104
0
LINE
8
boundary
62
5
39
2
10
66.805526
20
16.807104
11
55.404599
21
17.804556
0
LINE
8
boundary
62
5
39
2
10
55.404599
20
17.804556
11
46.383524
21
18.593797
0
LINE
8
boundary
62
5
39
2
10
46.383524
20
18.593797
11
45.596003
21
9.592406
0
LINE
8
boundary
62
5
39
2
10
45.596003
20
9.592406
11
44.971600
21
2.455444
0
LINE
8
boundary
62
5
39
2
10
44.971600
20
2.455444
11
56.375248
21
1.457754
0
LINE
8
annotation
62
1
39
211
10
64.623528
20
9.631151
11
64.623528
21
9.774026
0
LINE
8
annotation
62
1
39
211
10
64.623528
20
9.631151
11
64.623528
21
9.774026
0
LINE
8
annotation
62
1
39
211
10
64.623528
20
9.774026
11
64.623528
21
9.631151
0
LINE
8
annotation
62
1
39
211
10
64.623528
20
9.631151
11
64.766403
21
9.631151
0
LINE
8
annotation
62
1
39
211
10
47.037325
20
9.654964
11
47.037325
21
9.512089
0
LINE
8
annotation
62
1
39
211
10
55.912376
20
16.872730
11
55.912376
21
17.015605
0
LINE
8
annotation
62
1
39
211
10
55.912376
20
16.872730
11
55.912376
21
17.015605
0
LINE
8
annotation
62
1
39
211
10
55.912376
20
17.015605
11
55.912376
21
16.872730
0
LINE
8
annotation
62
1
39
211
10
55.912376
20
16.872730
11
55.912376
21
16.729855
0
LINE
8
annotation
62
1
39
211
10
55.888563
20
2.461255
11
56.031438
21
2.461255
0
LINE
8
annotation
62
1
39
211
10
55.888563
20
2.461255
11
56.031438
21
2.461255
0
LINE
8
annotation
62
1
39
211
10
56.031438
20
2.461255
11
55.888563
21
2.461255
0
LINE
8
annotation
62
1
39
211
10
55.888563
20
2.461255
11
55.888563
21
2.318380
0
LINE
8
annotation
62
1
39
211
10
64.768504
20
7.109203
11
64.768504
21
7.109203
0
LINE
8
annotation
62
1
39
211
10
64.768504
20
7.109203
11
64.568472
21
7.034203
0
LINE
8
annotation
62
1
39
211
10
64.568472
20
7.034203
11
64.384917
21
6.933150
0
LINE
8
annotation
62
1
39
211
10
64.384917
20
6.933150
11
64.219722
21
6.808575
0
LINE
8
annotation
62
1
39
211
10
64.219722
20
6.808575
11
64.074773
21
6.663010
0
LINE
8
annotation
62
1
39
211
10
64.074773
20
6.663010
11
63.951952
21
6.498988
0
LINE
8
annotation
62
1
39
211
10
63.951952
20
6.498988
11
63.853145
21
6.319039
0
LINE
8
annotation
62
1
39
211
10
63.853145
20
6.319039
11
63.780236
21
6.125696
0
LINE
8
annotation
62
1
39
211
10
63.780236
20
6.125696
11
63.735109
21
5.921490
0
LINE
8
annotation
62
1
39
211
10
63.735109
20
5.921490
11
63.719647
21
5.708953
0
LINE
8
annotation
62
1
39
211
10
63.719647
20
5.708953
11
63.719647
21
4.663844
0
LINE
8
annotation
62
1
39
211
10
63.719647
20
4.663844
11
63.719647
21
4.663844
0
LINE
8
annotation
62
1
39
211
10
63.719647
20
4.663844
11
63.730921
21
4.538234
0
LINE
8
annotation
62
1
39
211
10
63.730921
20
4.538234
11
63.763414
21
4.419993
0
LINE
8
annotation
62
1
39
211
10
63.763414
20
4.419993
11
63.815139
21
4.311099
0
LINE
8
annotation
62
1
39
211
10
63.815139
20
4.311099
11
63.884104
21
4.213530
0
LINE
8
annotation
62
1
39
211
10
63.884104
20
4.213530
11
63.968320
21
4.129264
0
LINE
8
annotation
62
1
39
211
10
63.968320
20
4.129264
11
64.065797
21
4.060280
0
LINE
8
annotation
62
1
39
211
10
64.065797
20
4.060280
11
64.174546
21
4.008556
0
LINE
8
annotation
62
1
39
211
10
64.174546
20
4.008556
11
64.292576
21
3.976071
0
LINE
8
annotation
62
1
39
211
10
64.292576
20
3.976071
11
64.417899
21
3.964803
0
LINE
8
annotation
62
1
39
211
10
64.417899
20
3.964803
11
64.417899
21
3.964803
0
LINE
8
annotation
62
1
39
211
10
64.417899
20
3.964803
11
64.543481
21
3.976071
0
LINE
8
annotation
62
1
39
211
10
64.543481
20
3.976071
11
64.661650
21
4.008556
0
LINE
8
annotation
62
1
39
211
10
64.661650
20
4.008556
11
64.770439
21
4.060280
0
LINE
8
annotation
62
1
39
211
10
64.770439
20
4.060280
11
64.867884
21
4.129264
0
LINE
8
annotation
62
1
39
211
10
64.867884
20
4.129264
11
64.952019
21
4.213530
0
LINE
8
annotation
62
1
39
211
10
64.952019
20
4.213530
11
65.020878
21
4.311099
0
LINE
8
annotation
62
1
39
211
10
65.020878
20
4.311099
11
65.072497
21
4.419993
0
LINE
8
annotation
62
1
39
211
10
65.072497
20
4.419993
11
65.104910
21
4.538234
0
LINE
8
annotation
62
1
39
211
10
65.104910
20
4.538234
11
65.116150
21
4.663844
0
LINE
8
annotation
62
1
39
211
10
65.116150
20
4.663844
11
65.116150
21
5.011688
0
LINE
8
annotation
62
1
39
211
10
65.116150
20
5.011688
11
65.116150
21
5.011688
0
LINE
8
annotation
62
1
39
211
10
65.116150
20
5.011688
11
65.104910
21
5.137236
0
LINE
8
annotation
62
1
39
211
10
65.104910
20
5.137236
11
65.072497
21
5.255314
0
LINE
8
annotation
62
1
39
211
10
65.072497
20
5.255314
11
65.020878
21
5.363972
0
LINE
8
annotation
62
1
39
211
10
65.020878
20
5.363972
11
64.952019
21
5.461262
0
LINE
8
annotation
62
1
39
211
10
64.952019
20
5.461262
11
64.867884
21
5.545233
0
LINE
8
annotation
62
1
39
211
10
64.867884
20
5.545233
11
64.770439
21
5.613937
0
LINE
8
annotation
62
1
39
211
10
64.770439
20
5.613937
11
64.661650
21
5.665424
0
LINE
8
annotation
62
1
39
211
10
64.661650
20
5.665424
11
64.543481
21
5.697746
0
LINE
8
annotation
62
1
39
211
10
64.543481
20
5.697746
11
64.417899
21
5.708953
0
LINE
8
annotation
62
1
39
211
10
64.417899
20
5.708953
11
63.719647
21
5.708953
0
LINE
8
annotation
62
1
39
211
10
63.632193
20
3.571753
11
65.204393
21
3.571753
0
LINE
8
hole
62
5
39
2
10
78.036005
20
16.988457
11
78.093155
21
16.988457
0
LINE
8
hole
62
5
39
2
10
78.093155
20
16.988457
11
78.093155
21
17.045607
0
LINE
8
hole
62
5
39
2
10
78.093155
20
17.045607
11
78.036005
21
17.045607
0
LINE
8
hole
62
5
39
2
10
78.036005
20
17.045607
11
78.036005
21
16.988457
0
LINE
8
hole
62
5
39
2
10
78.012808
20
2.432557
11
78.069958
21
2.432557
0
LINE
8
hole
62
5
39
2
10
78.069958
20
2.432557
11
78.069958
21
2.489707
0
LINE
8
hole
62
5
39
2
10
78.069958
20
2.489707
11
78.012808
21
2.489707
0
LINE
8
hole
62
5
39
2
10
78.012808
20
2.489707
11
78.012808
21
2.432557
0
LINE
8
hole
62
5
39
2
10
87.025802
20
9.624748
11
87.082952
21
9.624748
0
LINE
8
hole
62
5
39
2
10
87.082952
20
9.624748
11
87.082952
21
9.681898
0
LINE
8
hole
62
5
39
2
10
87.082952
20
9.681898
11
87.025802
21
9.681898
0
LINE
8
hole
62
5
39
2
10
87.025802
20
9.681898
11
87.025802
21
9.624748
0
LINE
8
hole
62
5
39
2
10
69.277844
20
9.602699
11
69.334994
21
9.602699
0
LINE
8
hole
62
5
39
2
10
69.334994
20
9.602699
11
69.334994
21
9.659849
0
LINE
8
hole
62
5
39
2
10
69.334994
20
9.659849
11
69.277844
21
9.659849
0
LINE
8
hole
62
5
39
2
10
69.277844
20
9.659849
11
69.277844
21
9.602699
0
LINE
8
hole
62
5
39
2
10
68.954408
20
3.604918
11
68.899705
21
3.690785
0
LINE
8
hole
62
5
39
2
10
68.899705
20
3.690785
11
68.869090
21
3.787883
0
LINE
8
hole
62
5
39
2
10
68.869090
20
3.787883
11
68.864649
21
3.889596
0
LINE
8
hole
62
5
39
2
10
68.864649
20
3.889596
11
68.886685
21
3.988994
0
LINE
8
hole
62
5
39
2
10
68.886685
20
3.988994
11
68.933695
21
4.079300
0
LINE
8
hole
62
5
39
2
10
68.933695
20
4.079300
11
69.002478
21
4.154363
0
LINE
8
hole
62
5
39
2
10
69.002478
20
4.154363
11
69.088344
21
4.209065
0
LINE
8
hole
62
5
39
2
10
69.088344
20
4.209065
11
69.185442
21
4.239680
0
LINE
8
hole
62
5
39
2
10
69.185442
20
4.239680
11
69.287156
21
4.244121
0
LINE
8
hole
62
5
39
2
10
69.287156
20
4.244121
11
69.386553
21
4.222085
0
LINE
8
hole
62
5
39
2
10
69.386553
20
4.222085
11
69.476860
21
4.175075
0
LINE
8
hole
62
5
39
2
10
69.476860
20
4.175075
11
69.551922
21
4.106292
0
LINE
8
hole
62
5
39
2
10
69.551922
20
4.106292
11
69.606625
21
4.020427
0
LINE
8
hole
62
5
39
2
10
69.606625
20
4.020427
11
69.637241
21
3.923329
0
LINE
8
hole
62
5
39
2
10
69.637241
20
3.923329
11
69.641681
21
3.821615
0
LINE
8
hole
62
5
39
2
10
69.641681
20
3.821615
11
69.619646
21
3.722218
0
LINE
8
hole
62
5
39
2
10
69.619646
20
3.722218
11
69.572635
21
3.631911
0
LINE
8
hole
62
5
39
2
10
69.572635
20
3.631911
11
69.503853
21
3.556849
0
LINE
8
hole
62
5
39
2
10
69.503853
20
3.556849
11
69.417986
21
3.502146
0
LINE
8
hole
62
5
39
2
10
69.417986
20
3.502146
11
69.320888
21
3.471531
0
LINE
8
hole
62
5
39
2
10
69.320888
20
3.471531
11
69.219174
21
3.467090
0
LINE
8
hole
62
5
39
2
10
69.219174
20
3.467090
11
69.119777
21
3.489125
0
LINE
8
hole
62
5
39
2
10
69.119777
20
3.489125
11
69.029470
21
3.536137
0
LINE
8
hole
62
5
39
2
10
69.029470
20
3.536137
11
68.954408
21
3.604918
0
LINE
8
hole
62
5
39
2
10
70.090833
20
16.594325
11
70.036131
21
16.680192
0
LINE
8
hole
62
5
39
2
10
70.036131
20
16.680192
11
70.005516
21
16.777290
0
LINE
8
hole
62
5
39
2
10
70.005516
20
16.777290
11
70.001075
21
16.879003
0
LINE
8
hole
62
5
39
2
10
70.001075
20
16.879003
11
70.023111
21
16.978400
0
LINE
8
hole
62
5
39
2
10
70.023111
20
16.978400
11
70.070122
21
17.068707
0
LINE
8
hole
62
5
39
2
10
70.070122
20
17.068707
11
70.138904
21
17.143770
0
LINE
8
hole
62
5
39
2
10
70.138904
20
17.143770
11
70.224770
21
17.198472
0
LINE
8
hole
62
5
39
2
10
70.224770
20
17.198472
11
70.321869
21
17.229087
0
LINE
8
hole
62
5
39
2
10
70.321869
20
17.229087
11
70.423582
21
17.233528
0
LINE
8
hole
62
5
39
2
10
70.423582
20
17.233528
11
70.522979
21
17.211493
0
LINE
8
hole
62
5
39
2
10
70.522979
20
17.211493
11
70.613286
21
17.164482
0
LINE
8
hole
62
5
39
2
10
70.613286
20
17.164482
11
70.688348
21
17.095700
0
LINE
8
hole
62
5
39
2
10
70.688348
20
17.095700
11
70.743051
21
17.009834
0
LINE
8
hole
62
5
39
2
10
70.743051
20
17.009834
11
70.773666
21
16.912736
0
LINE
8
hole
62
5
39
2
10
70.773666
20
16.912736
11
70.778107
21
16.811022
0
LINE
8
hole
62
5
39
2
10
70.778107
20
16.811022
11
70.756072
21
16.711625
0
LINE
8
hole
62
5
39
2
10
70.756072
20
16.711625
11
70.709060
21
16.621318
0
LINE
8
hole
62
5
39
2
10
70.709060
20
16.621318
11
70.640279
21
16.546255
0
LINE
8
hole
62
5
39
2
10
70.640279
20
16.546255
11
70.554412
21
16.491552
0
LINE
8
hole
62
5
39
2
10
70.554412
20
16.491552
11
70.457314
21
16.460937
0
LINE
8
hole
62
5
39
2
10
70.457314
20
16.460937
11
70.355601
21
16.456496
0
LINE
8
hole
62
5
39
2
10
70.355601
20
16.456496
11
70.256203
21
16.478532
0
LINE
8
hole
62
5
39
2
10
70.256203
20
16.478532
11
70.165896
21
16.525543
0
LINE
8
hole
62
5
39
2
10
70.165896
20
16.525543
11
70.090833
21
16.594325
0
LINE
8
hole
62
5
39
2
10
85.391628
20
2.166848
11
85.336926
21
2.252714
0
LINE
8
hole
62
5
39
2
10
85.336926
20
2.252714
11
85.306311
21
2.349812
0
LINE
8
hole
62
5
39
2
10
85.306311
20
2.349812
11
85.301869
21
2.451526
0
LINE
8
hole
62
5
39
2
10
85.301869
20
2.451526
11
85.323905
21
2.550923
0
LINE
8
hole
62
5
39
2
10
85.323905
20
2.550923
11
85.370917
21
2.641230
0
LINE
8
hole
62
5
39
2
10
85.370917
20
2.641230
11
85.439698
21
2.716293
0
LINE
8
hole
62
5
39
2
10
85.439698
20
2.716293
11
85.525564
21
2.770995
0
LINE
8
hole
62
5
39
2
10
85.525564
20
2.770995
11
85.622663
21
2.801610
0
LINE
8
hole
62
5
39
2
10
85.622663
20
2.801610
11
85.724376
21
2.806051
0
LINE
8
hole
62
5
39
2
10
85.724376
20
2.806051
11
85.823773
21
2.784015
0
LINE
8
hole
62
5
39
2
10
85.823773
20
2.784015
11
85.914081
21
2.737004
0
LINE
8
hole
62
5
39
2
10
85.914081
20
2.737004
11
85.989143
21
2.668222
0
LINE
8
hole
62
5
39
2
10
85.989143
20
2.668222
11
86.043846
21
2.582356
0
LINE
8
hole
62
5
39
2
10
86.043846
20
2.582356
11
86.074461
21
2.485258
0
LINE
8
hole
62
5
39
2
10
86.074461
20
2.485258
11
86.078902
21
2.383544
0
LINE
8
hole
62
5
39
2
10
86.078902
20
2.383544
11
86.056866
21
2.284147
0
LINE
8
hole
62
5
39
2
10
86.056866
20
2.284147
11
86.009855
21
2.193841
0
LINE
8
hole
62
5
39
2
10
86.009855
20
2.193841
11
85.941073
21
2.118778
0
LINE
8
hole
62
5
39
2
10
85.941073
20
2.118778
11
85.855207
21
2.064075
0
LINE
8
hole
62
5
39
2
10
85.855207
20
2.064075
11
85.758108
21
2.033460
0
LINE
8
hole
62
5
39
2
10
85.758108
20
2.033460
11
85.656395
21
2.029019
0
LINE
8
hole
62
5
39
2
10
85.656395
20
2.029019
11
85.556998
21
2.051055
0
LINE
8
hole
62
5
39
2
10
85.556998
20
2.051055
11
85.466691
21
2.098066
0
LINE
8
hole
62
5
39
2
10
85.466691
20
2.098066
11
85.391628
21
2.166848
0
LINE
8
hole
62
5
39
2
10
86.528054
20
15.156255
11
86.473351
21
15.242121
0
LINE
8
hole
62
5
39
2
10
86.473351
20
15.242121
11
86.442736
21
15.339219
0
LINE
8
hole
62
5
39
2
10
86.442736
20
15.339219
11
86.438295
21
15.440933
0
LINE
8
hole
62
5
39
2
10
86.438295
20
15.440933
11
86.460331
21
15.540330
0
LINE
8
hole
62
5
39
2
10
86.460331
20
15.540330
11
86.507342
21
15.630637
0
LINE
8
hole
62
5
39
2
10
86.507342
20
15.630637
11
86.576124
21
15.705699
0
LINE
8
hole
62
5
39
2
10
86.576124
20
15.705699
11
86.661990
21
15.760402
0
LINE
8
hole
62
5
39
2
10
86.661990
20
15.760402
11
86.759089
21
15.791017
0
LINE
8
hole
62
5
39
2
10
86.759089
20
15.791017
11
86.860802
21
15.795458
0
LINE
8
hole
62
5
39
2
10
86.860802
20
15.795458
11
86.960200
21
15.773422
0
LINE
8
hole
62
5
39
2
10
86.960200
20
15.773422
11
87.050507
21
15.726411
0
LINE
8
hole
62
5
39
2
10
87.050507
20
15.726411
11
87.125569
21
15.657629
0
LINE
8
hole
62
5
39
2
10
87.125569
20
15.657629
11
87.180272
21
15.571763
0
LINE
8
hole
62
5
39
2
10
87.180272
20
15.571763
11
87.210887
21
15.474665
0
LINE
8
hole
62
5
39
2
10
87.210887
20
15.474665
11
87.215328
21
15.372951
0
LINE
8
hole
62
5
39
2
10
87.215328
20
15.372951
11
87.193292
21
15.273555
0
LINE
8
hole
62
5
39
2
10
87.193292
20
15.273555
11
87.146281
21
15.183248
0
LINE
8
hole
62
5
39
2
10
87.146281
20
15.183248
11
87.077498
21
15.108185
0
LINE
8
hole
62
5
39
2
10
87.077498
20
15.108185
11
86.991633
21
15.053482
0
LINE
8
hole
62
5
39
2
10
86.991633
20
15.053482
11
86.894535
21
15.022867
0
LINE
8
hole
62
5
39
2
10
86.894535
20
15.022867
11
86.792820
21
15.018426
0
LINE
8
hole
62
5
39
2
10
86.792820
20
15.018426
11
86.693423
21
15.040461
0
LINE
8
hole
62
5
39
2
10
86.693423
20
15.040461
11
86.603117
21
15.087473
0
LINE
8
hole
62
5
39
2
10
86.603117
20
15.087473
11
86.528054
21
15.156255
0
LINE
8
hole
62
5
39
2
10
72.196816
20
4.501023
11
71.475296
21
5.325523
0
LINE
8
hole
62
5
39
2
10
71.475296
20
5.325523
11
70.233534
21
6.528273
0
LINE
8
hole
62
5
39
2
10
70.233534
20
6.528273
11
70.068514
21
7.169796
0
LINE
8
hole
62
5
39
2
10
70.068514
20
7.169796
11
69.507202
21
9.047230
0
LINE
8
hole
62
5
39
2
10
69.507202
20
9.047230
11
69.533962
21
9.376640
0
LINE
8
hole
62
5
39
2
10
69.533962
20
9.376640
11
69.710798
21
11.062649
0
LINE
8
hole
62
5
39
2
10
69.710798
20
11.062649
11
69.741933
21
11.161362
0
LINE
8
hole
62
5
39
2
10
69.741933
20
11.161362
11
70.239311
21
12.553275
0
LINE
8
hole
62
5
39
2
10
70.239311
20
12.553275
11
70.423366
21
12.846447
0
LINE
8
hole
62
5
39
2
10
70.423366
20
12.846447
11
70.933260
21
13.659973
0
LINE
8
hole
62
5
39
2
10
70.933260
20
13.659973
11
70.970474
21
13.708248
0
LINE
8
hole
62
5
39
2
10
70.970474
20
13.708248
11
71.728647
21
14.506268
0
LINE
8
hole
62
5
39
2
10
71.728647
20
14.506268
11
71.837995
21
14.601497
0
LINE
8
hole
62
5
39
2
10
71.837995
20
14.601497
11
72.577882
21
15.162949
0
LINE
8
hole
62
5
39
2
10
72.577882
20
15.162949
11
72.784526
21
15.300212
0
LINE
8
hole
62
5
39
2
10
72.784526
20
15.300212
11
73.472128
21
15.712981
0
LINE
8
hole
62
5
39
2
10
73.472128
20
15.712981
11
73.786711
21
15.881351
0
LINE
8
hole
62
5
39
2
10
73.786711
20
15.881351
11
74.377917
21
16.148125
0
LINE
8
hole
62
5
39
2
10
74.377917
20
16.148125
11
74.785351
21
16.309373
0
LINE
8
hole
62
5
39
2
10
74.785351
20
16.309373
11
75.272007
21
16.467523
0
LINE
8
hole
62
5
39
2
10
75.272007
20
16.467523
11
75.732915
21
16.599284
0
LINE
8
hole
62
5
39
2
10
75.732915
20
16.599284
11
76.181856
21
16.689886
0
LINE
8
hole
62
5
39
2
10
76.181856
20
16.689886
11
76.696509
21
16.775594
0
LINE
8
hole
62
5
39
2
10
76.696509
20
16.775594
11
77.130799
21
16.813708
0
LINE
8
hole
62
5
39
2
10
77.130799
20
16.813708
11
77.652335
21
16.845477
0
LINE
8
hole
62
5
39
2
10
77.652335
20
16.845477
11
78.123889
21
16.851386
0
LINE
8
hole
62
5
39
2
10
78.123889
20
16.851386
11
78.620832
21
16.849663
0
LINE
8
hole
62
5
39
2
10
78.620832
20
16.849663
11
79.207126
21
16.836174
0
LINE
8
hole
62
5
39
2
10
79.207126
20
16.836174
11
79.650169
21
16.819290
0
LINE
8
hole
62
5
39
2
10
79.650169
20
16.819290
11
80.476804
21
16.759785
0
LINE
8
hole
62
5
39
2
10
80.476804
20
16.759785
11
80.804576
21
16.730882
0
LINE
8
hole
62
5
39
2
10
80.804576
20
16.730882
11
82.023920
21
16.512344
0
LINE
8
hole
62
5
39
2
10
82.023920
20
16.512344
11
82.150976
21
16.485305
0
LINE
8
hole
62
5
39
2
10
82.150976
20
16.485305
11
82.719108
21
16.247820
0
LINE
8
hole
62
5
39
2
10
82.719108
20
16.247820
11
83.575519
21
15.888752
0
LINE
8
hole
62
5
39
2
10
83.575519
20
15.888752
11
83.763945
21
15.753898
0
LINE
8
hole
62
5
39
2
10
83.763945
20
15.753898
11
84.875415
21
14.907380
0
LINE
8
hole
62
5
39
2
10
84.875415
20
14.907380
11
85.191599
21
14.550967
0
LINE
8
hole
62
5
39
2
10
85.191599
20
14.550967
11
86.003709
21
13.569467
0
LINE
8
hole
62
5
39
2
10
86.003709
20
13.569467
11
86.364378
21
12.820516
0
LINE
8
hole
62
5
39
2
10
86.364378
20
12.820516
11
86.886588
21
11.503279
0
LINE
8
hole
62
5
39
2
10
86.886588
20
11.503279
11
86.831681
21
9.758824
0
LINE
8
hole
62
5
39
2
10
86.831681
20
9.758824
11
86.689370
21
8.623020
0
LINE
8
hole
62
5
39
2
10
86.689370
20
8.623020
11
85.549832
21
6.590217
0
LINE
8
hole
62
5
39
2
10
85.549832
20
6.590217
11
85.087731
21
5.894843
0
LINE
8
hole
62
5
39
2
10
85.087731
20
5.894843
11
83.498516
21
4.478363
0
LINE
8
hole
62
5
39
2
10
83.498516
20
4.478363
11
83.132457
21
4.162086
0
LINE
8
hole
62
5
39
2
10
83.132457
20
4.162086
11
81.301775
21
3.283860
0
LINE
8
hole
62
5
39
2
10
81.301775
20
3.283860
11
81.097438
21
3.180520
0
LINE
8
hole
62
5
39
2
10
81.097438
20
3.180520
11
79.261056
21
2.990133
0
LINE
8
hole
62
5
39
2
10
79.261056
20
2.990133
11
78.952105
21
2.939205
0
LINE
8
hole
62
5
39
2
10
78.952105
20
2.939205
11
77.282084
21
3.078752
0
LINE
8
hole
62
5
39
2
10
77.282084
20
3.078752
11
76.800325
21
3.098708
0
LINE
8
hole
62
5
39
2
10
76.800325
20
3.098708
11
75.321931
21
3.389774
0
LINE
8
hole
62
5
39
2
10
75.321931
20
3.389774
11
74.556646
21
3.487935
0
LINE
8
hole
62
5
39
2
10
74.556646
20
3.487935
11
73.323507
21
4.073781
0
LINE
8
hole
62
5
39
2
10
73.323507
20
4.073781
11
72.196816
21
4.501023
0
LINE
8
boundary
62
5
39
2
10
70.575722
20
2.153372
11
87.545027
21
0.668750
0
LINE
8
boundary
62
5
39
2
10
87.545027
20
0.668750
11
87.785074
21
3.412493
0
LINE
8
boundary
62
5
39
2
10
87.785074
20
3.412493
11
88.956951
21
16.807104
0
LINE
8
boundary
62
5
39
2
10
88.956951
20
16.807104
11
85.488884
21
17.110521
0
LINE
8
boundary
62
5
39
2
10
85.488884
20
17.110521
11
68.534949
21
18.593798
0
LINE
8
boundary
62
5
39
2
10
68.534949
20
18.593798
11
68.296511
21
15.868439
0
LINE
8
boundary
62
5
39
2
10
68.296511
20
15.868439
11
67.123026
21
2.455444
0
LINE
8
boundary
62
5
39
2
10
67.123026
20
2.455444
11
70.575722
21
2.153372
0
LINE
8
annotation
62
1
39
211
10
78.064580
20
17.017032
11
78.064580
21
17.159907
0
LINE
8
annotation
62
1
39
211
10
78.041383
20
2.461132
11
78.184258
21
2.461132
0
LINE
8
annotation
62
1
39
211
10
87.054377
20
9.653323
11
87.054377
21
9.796198
0
LINE
8
annotation
62
1
39
211
10
87.054377
20
9.653323
11
87.054377
21
9.796198
0
LINE
8
annotation
62
1
39
211
10
87.054377
20
9.796198
11
87.054377
21
9.653323
0
LINE
8
annotation
62
1
39
211
10
87.054377
20
9.653323
11
87.197252
21
9.653323
0
LINE
8
annotation
62
1
39
211
10
69.306419
20
9.631274
11
69.306419
21
9.488399
0
LINE
8
annotation
62
1
39
211
10
84.227648
20
2.021390
11
84.227648
21
3.593590
0
LINE
8
annotation
62
1
39
211
10
84.227648
20
3.593590
11
83.878128
21
3.243971
0
LINE
8
annotation
62
1
39
211
10
85.166743
20
2.021390
11
85.166743
21
3.593590
0
LINE
8
annotation
62
1
39
211
10
85.166743
20
3.593590
11
84.817223
21
3.243971
0
LINE
8
hole
62
5
39
2
10
108.969242
20
9.626389
11
109.026392
21
9.626389
0
LINE
8
hole
62
5
39
2
10
109.026392
20
9.626389
11
109.026392
21
9.683539
0
LINE
8
hole
62
5
39
2
10
109.026392
20
9.683539
11
108.969242
21
9.683539
0
LINE
8
hole
62
5
39
2
10
108.969242
20
9.683539
11
108.969242
21
9.626389
0
LINE
8
hole
62
5
39
2
10
91.406851
20
9.626389
11
91.464001
21
9.626389
0
LINE
8
hole
62
5
39
2
10
91.464001
20
9.626389
11
91.464001
21
9.683539
0
LINE
8
hole
62
5
39
2
10
91.464001
20
9.683539
11
91.406851
21
9.683539
0
LINE
8
hole
62
5
39
2
10
91.406851
20
9.683539
11
91.406851
21
9.626389
0
LINE
8
hole
62
5
39
2
10
100.186035
20
16.988580
11
100.243185
21
16.988580
0
LINE
8
hole
62
5
39
2
10
100.243185
20
16.988580
11
100.243185
21
17.045730
0
LINE
8
hole
62
5
39
2
10
100.243185
20
17.045730
11
100.186035
21
17.045730
0
LINE
8
hole
62
5
39
2
10
100.186035
20
17.045730
11
100.186035
21
16.988580
0
LINE
8
hole
62
5
39
2
10
100.162839
20
2.432680
11
100.219989
21
2.432680
0
LINE
8
hole
62
5
39
2
10
100.219989
20
2.432680
11
100.219989
21
2.489830
0
LINE
8
hole
62
5
39
2
10
100.219989
20
2.489830
11
100.162839
21
2.489830
0
LINE
8
hole
62
5
39
2
10
100.162839
20
2.489830
11
100.162839
21
2.432680
0
LINE
8
hole
62
5
39
2
10
91.105833
20
3.604918
11
91.063204
21
3.671833
0
LINE
8
hole
62
5
39
2
10
91.063204
20
3.671833
11
91.027271
21
3.766455
0
LINE
8
hole
62
5
39
2
10
91.027271
20
3.766455
11
91.017055
21
3.867150
0
LINE
8
hole
62
5
39
2
10
91.017055
20
3.867150
11
91.033247
21
3.967058
0
LINE
8
hole
62
5
39
2
10
91.033247
20
3.967058
11
91.074745
21
4.059369
0
LINE
8
hole
62
5
39
2
10
91.074745
20
4.059369
11
91.138721
21
4.137794
0
LINE
8
hole
62
5
39
2
10
91.138721
20
4.137794
11
91.220813
21
4.196989
0
LINE
8
hole
62
5
39
2
10
91.220813
20
4.196989
11
91.315427
21
4.232920
0
LINE
8
hole
62
5
39
2
10
91.315427
20
4.232920
11
91.416116
21
4.243140
0
LINE
8
hole
62
5
39
2
10
91.416116
20
4.243140
11
91.516020
21
4.226953
0
LINE
8
hole
62
5
39
2
10
91.516020
20
4.226953
11
91.608331
21
4.185462
0
LINE
8
hole
62
5
39
2
10
91.608331
20
4.185462
11
91.686759
21
4.121493
0
LINE
8
hole
62
5
39
2
10
91.686759
20
4.121493
11
91.745959
21
4.039406
0
LINE
8
hole
62
5
39
2
10
91.745959
20
4.039406
11
91.781898
21
3.944793
0
LINE
8
hole
62
5
39
2
10
91.781898
20
3.944793
11
91.792124
21
3.844100
0
LINE
8
hole
62
5
39
2
10
91.792124
20
3.844100
11
91.775942
21
3.744191
0
LINE
8
hole
62
5
39
2
10
91.775942
20
3.744191
11
91.734452
21
3.651873
0
LINE
8
hole
62
5
39
2
10
91.734452
20
3.651873
11
91.670480
21
3.573439
0
LINE
8
hole
62
5
39
2
10
91.670480
20
3.573439
11
91.588386
21
3.514234
0
LINE
8
hole
62
5
39
2
10
91.588386
20
3.514234
11
91.493766
21
3.478294
0
LINE
8
hole
62
5
39
2
10
91.493766
20
3.478294
11
91.393067
21
3.468071
0
LINE
8
hole
62
5
39
2
10
91.393067
20
3.468071
11
91.293153
21
3.484259
0
LINE
8
hole
62
5
39
2
10
91.293153
20
3.484259
11
91.200834
21
3.525757
0
LINE
8
hole
62
5
39
2
10
91.200834
20
3.525757
11
91.122403
21
3.589735
0
LINE
8
hole
62
5
39
2
10
91.122403
20
3.589735
11
91.105833
21
3.604918
0
LINE
8
hole
62
5
39
2
10
107.543053
20
2.166848
11
107.500876
21
2.233054
0
LINE
8
hole
62
5
39
2
10
107.500876
20
2.233054
11
107.464745
21
2.327583
0
LINE
8
hole
62
5
39
2
10
107.464745
20
2.327583
11
107.454312
21
2.428240
0
LINE
8
hole
62
5
39
2
10
107.454312
20
2.428240
11
107.470286
21
2.528168
0
LINE
8
hole
62
5
39
2
10
107.470286
20
2.528168
11
107.511579
21
2.620554
0
LINE
8
hole
62
5
39
2
10
107.511579
20
2.620554
11
107.575374
21
2.699105
0
LINE
8
hole
62
5
39
2
10
107.575374
20
2.699105
11
107.657325
21
2.758467
0
LINE
8
hole
62
5
39
2
10
107.657325
20
2.758467
11
107.751846
21
2.794597
0
LINE
8
hole
62
5
39
2
10
107.751846
20
2.794597
11
107.852498
21
2.805034
0
LINE
8
hole
62
5
39
2
10
107.852498
20
2.805034
11
107.952420
21
2.789065
0
LINE
8
hole
62
5
39
2
10
107.952420
20
2.789065
11
108.044806
21
2.747779
0
LINE
8
hole
62
5
39
2
10
108.044806
20
2.747779
11
108.123360
21
2.683991
0
LINE
8
hole
62
5
39
2
10
108.123360
20
2.683991
11
108.182728
21
2.602045
0
LINE
8
hole
62
5
39
2
10
108.182728
20
2.602045
11
108.218865
21
2.507524
0
LINE
8
hole
62
5
39
2
10
108.218865
20
2.507524
11
108.229309
21
2.406869
0
LINE
8
hole
62
5
39
2
10
108.229309
20
2.406869
11
108.213345
21
2.306940
0
LINE
8
hole
62
5
39
2
10
108.213345
20
2.306940
11
108.172060
21
2.214548
0
LINE
8
hole
62
5
39
2
10
108.172060
20
2.214548
11
108.108268
21
2.135987
0
LINE
8
hole
62
5
39
2
10
108.108268
20
2.135987
11
108.026316
21
2.076614
0
LINE
8
hole
62
5
39
2
10
108.026316
20
2.076614
11
107.931787
21
2.040477
0
LINE
8
hole
62
5
39
2
10
107.931787
20
2.040477
11
107.831127
21
2.030037
0
LINE
8
hole
62
5
39
2
10
107.831127
20
2.030037
11
107.731194
21
2.046007
0
LINE
8
hole
62
5
39
2
10
107.731194
20
2.046007
11
107.638800
21
2.087298
0
LINE
8
hole
62
5
39
2
10
107.638800
20
2.087298
11
107.560242
21
2.151097
0
LINE
8
hole
62
5
39
2
10
107.560242
20
2.151097
11
107.543053
21
2.166848
0
LINE
8
hole
62
5
39
2
10
92.242259
20
16.594325
11
92.199630
21
16.661240
0
LINE
8
hole
62
5
39
2
10
92.199630
20
16.661240
11
92.163698
21
16.755861
0
LINE
8
hole
62
5
39
2
10
92.163698
20
16.755861
11
92.153480
21
16.856557
0
LINE
8
hole
62
5
39
2
10
92.153480
20
16.856557
11
92.169673
21
16.956465
0
LINE
8
hole
62
5
39
2
10
92.169673
20
16.956465
11
92.211172
21
17.048777
0
LINE
8
hole
62
5
39
2
10
92.211172
20
17.048777
11
92.275147
21
17.127202
0
LINE
8
hole
62
5
39
2
10
92.275147
20
17.127202
11
92.357239
21
17.186396
0
LINE
8
hole
62
5
39
2
10
92.357239
20
17.186396
11
92.451854
21
17.222328
0
LINE
8
hole
62
5
39
2
10
92.451854
20
17.222328
11
92.552542
21
17.232548
0
LINE
8
hole
62
5
39
2
10
92.552542
20
17.232548
11
92.652446
21
17.216360
0
LINE
8
hole
62
5
39
2
10
92.652446
20
17.216360
11
92.744757
21
17.174869
0
LINE
8
hole
62
5
39
2
10
92.744757
20
17.174869
11
92.823185
21
17.110900
0
LINE
8
hole
62
5
39
2
10
92.823185
20
17.110900
11
92.882385
21
17.028813
0
LINE
8
hole
62
5
39
2
10
92.882385
20
17.028813
11
92.918324
21
16.934200
0
LINE
8
hole
62
5
39
2
10
92.918324
20
16.934200
11
92.928551
21
16.833507
0
LINE
8
hole
62
5
39
2
10
92.928551
20
16.833507
11
92.912368
21
16.733598
0
LINE
8
hole
62
5
39
2
10
92.912368
20
16.733598
11
92.870877
21
16.641280
0
LINE
8
hole
62
5
39
2
10
92.870877
20
16.641280
11
92.806906
21
16.562846
0
LINE
8
hole
62
5
39
2
10
92.806906
20
16.562846
11
92.724812
21
16.503640
0
LINE
8
hole
62
5
39
2
10
92.724812
20
16.503640
11
92.630191
21
16.467701
0
LINE
8
hole
62
5
39
2
10
92.630191
20
16.467701
11
92.529493
21
16.457477
0
LINE
8
hole
62
5
39
2
10
92.529493
20
16.457477
11
92.429578
21
16.473666
0
LINE
8
hole
62
5
39
2
10
92.429578
20
16.473666
11
92.337260
21
16.515164
0
LINE
8
hole
62
5
39
2
10
92.337260
20
16.515164
11
92.258828
21
16.579142
0
LINE
8
hole
62
5
39
2
10
92.258828
20
16.579142
11
92.242259
21
16.594325
0
LINE
8
hole
62
5
39
2
10
108.679479
20
15.156255
11
108.637301
21
15.222461
0
LINE
8
hole
62
5
39
2
10
108.637301
20
15.222461
11
108.601170
21
15.316990
0
LINE
8
hole
62
5
39
2
10
108.601170
20
15.316990
11
108.590737
21
15.417648
0
LINE
8
hole
62
5
39
2
10
108.590737
20
15.417648
11
108.606712
21
15.517575
0
LINE
8
hole
62
5
39
2
10
108.606712
20
15.517575
11
108.648004
21
15.609961
0
LINE
8
hole
62
5
39
2
10
108.648004
20
15.609961
11
108.711800
21
15.688512
0
LINE
8
hole
62
5
39
2
10
108.711800
20
15.688512
11
108.793751
21
15.747874
0
LINE
8
hole
62
5
39
2
10
108.793751
20
15.747874
11
108.888272
21
15.784004
0
LINE
8
hole
62
5
39
2
10
108.888272
20
15.784004
11
108.988924
21
15.794440
0
LINE
8
hole
62
5
39
2
10
108.988924
20
15.794440
11
109.088847
21
15.778472
0
LINE
8
hole
62
5
39
2
10
109.088847
20
15.778472
11
109.181233
21
15.737186
0
LINE
8
hole
62
5
39
2
10
109.181233
20
15.737186
11
109.259786
21
15.673398
0
LINE
8
hole
62
5
39
2
10
109.259786
20
15.673398
11
109.319154
21
15.591451
0
LINE
8
hole
62
5
39
2
10
109.319154
20
15.591451
11
109.355292
21
15.496930
0
LINE
8
hole
62
5
39
2
10
109.355292
20
15.496930
11
109.365735
21
15.396276
0
LINE
8
hole
62
5
39
2
10
109.365735
20
15.396276
11
109.349770
21
15.296347
0
LINE
8
hole
62
5
39
2
10
109.349770
20
15.296347
11
109.308486
21
15.203954
0
LINE
8
hole
62
5
39
2
10
109.308486
20
15.203954
11
109.244694
21
15.125394
0
LINE
8
hole
62
5
39
2
10
109.244694
20
15.125394
11
109.162741
21
15.066021
0
LINE
8
hole
62
5
39
2
10
109.162741
20
15.066021
11
109.068213
21
15.029883
0
LINE
8
hole
62
5
39
2
10
109.068213
20
15.029883
11
108.967552
21
15.019443
0
LINE
8
hole
62
5
39
2
10
108.967552
20
15.019443
11
108.867619
21
15.035413
0
LINE
8
hole
62
5
39
2
10
108.867619
20
15.035413
11
108.775225
21
15.076706
0
LINE
8
hole
62
5
39
2
10
108.775225
20
15.076706
11
108.696667
21
15.140504
0
LINE
8
hole
62
5
39
2
10
108.696667
20
15.140504
11
108.679479
21
15.156255
0
LINE
8
hole
62
5
39
2
10
92.886925
20
6.055367
11
92.410777
21
6.475175
0
LINE
8
hole
62
5
39
2
10
92.410777
20
6.475175
11
91.885774
21
8.245107
0
LINE
8
hole
62
5
39
2
10
91.885774
20
8.245107
11
91.610706
21
9.092692
0
LINE
8
hole
62
5
39
2
10
91.610706
20
9.092692
11
91.730812
21
10.292525
0
LINE
8
hole
62
5
39
2
10
91.730812
20
10.292525
11
91.851191
21
11.195684
0
LINE
8
hole
62
5
39
2
10
91.851191
20
11.195684
11
92.120569
21
11.957776
0
LINE
8
hole
62
5
39
2
10
92.120569
20
11.957776
11
92.456285
21
12.729989
0
LINE
8
hole
62
5
39
2
10
92.456285
20
12.729989
11
92.789652
21
13.261871
0
LINE
8
hole
62
5
39
2
10
92.789652
20
13.261871
11
93.267522
21
13.881776
0
LINE
8
hole
62
5
39
2
10
93.267522
20
13.881776
11
93.611941
21
14.244296
0
LINE
8
hole
62
5
39
2
10
93.611941
20
14.244296
11
94.184303
21
14.742756
0
LINE
8
hole
62
5
39
2
10
94.184303
20
14.742756
11
94.470072
21
14.959607
0
LINE
8
hole
62
5
39
2
10
94.470072
20
14.959607
11
95.138596
21
15.403673
0
LINE
8
hole
62
5
39
2
10
95.138596
20
15.403673
11
95.336520
21
15.522487
0
LINE
8
hole
62
5
39
2
10
95.336520
20
15.522487
11
96.137615
21
15.951245
0
LINE
8
hole
62
5
39
2
10
96.137615
20
15.951245
11
96.220465
21
15.988630
0
LINE
8
hole
62
5
39
2
10
96.220465
20
15.988630
11
96.961348
21
16.281843
0
LINE
8
hole
62
5
39
2
10
96.961348
20
16.281843
11
97.106000
21
16.337986
0
LINE
8
hole
62
5
39
2
10
97.106000
20
16.337986
11
97.995939
21
16.591036
0
LINE
8
hole
62
5
39
2
10
97.995939
20
16.591036
11
98.059258
21
16.607482
0
LINE
8
hole
62
5
39
2
10
98.059258
20
16.607482
11
98.928643
21
16.751378
0
LINE
8
hole
62
5
39
2
10
98.928643
20
16.751378
11
99.016798
21
16.764684
0
LINE
8
hole
62
5
39
2
10
99.016798
20
16.764684
11
99.895908
21
16.818753
0
LINE
8
hole
62
5
39
2
10
99.895908
20
16.818753
11
99.966884
21
16.823029
0
LINE
8
hole
62
5
39
2
10
99.966884
20
16.823029
11
100.918811
21
16.820571
0
LINE
8
hole
62
5
39
2
10
100.918811
20
16.820571
11
101.062858
21
16.815520
0
LINE
8
hole
62
5
39
2
10
101.062858
20
16.815520
11
101.952637
21
16.781612
0
LINE
8
hole
62
5
39
2
10
101.952637
20
16.781612
11
102.063097
21
16.773661
0
LINE
8
hole
62
5
39
2
10
102.063097
20
16.773661
11
103.086508
21
16.683417
0
LINE
8
hole
62
5
39
2
10
103.086508
20
16.683417
11
103.441744
21
16.619749
0
LINE
8
hole
62
5
39
2
10
103.441744
20
16.619749
11
104.375211
21
16.421097
0
LINE
8
hole
62
5
39
2
10
104.375211
20
16.421097
11
105.068595
21
16.131257
0
LINE
8
hole
62
5
39
2
10
105.068595
20
16.131257
11
105.762376
21
15.833445
0
LINE
8
hole
62
5
39
2
10
105.762376
20
15.833445
11
106.678725
21
15.137362
0
LINE
8
hole
62
5
39
2
10
106.678725
20
15.137362
11
107.047154
21
14.848112
0
LINE
8
hole
62
5
39
2
10
107.047154
20
14.848112
11
107.976201
21
13.725864
0
LINE
8
hole
62
5
39
2
10
107.976201
20
13.725864
11
108.160753
21
13.488027
0
LINE
8
hole
62
5
39
2
10
108.160753
20
13.488027
11
108.847917
21
11.715192
0
LINE
8
hole
62
5
39
2
10
108.847917
20
11.715192
11
108.987334
21
11.363523
0
LINE
8
hole
62
5
39
2
10
108.987334
20
11.363523
11
108.984329
21
11.268065
0
LINE
8
hole
62
5
39
2
10
108.984329
20
11.268065
11
108.637807
21
8.502426
0
LINE
8
hole
62
5
39
2
10
108.637807
20
8.502426
11
108.221137
21
7.759133
0
LINE
8
hole
62
5
39
2
10
108.221137
20
7.759133
11
107.018566
21
5.949496
0
LINE
8
hole
62
5
39
2
10
107.018566
20
5.949496
11
106.433981
21
5.428450
0
LINE
8
hole
62
5
39
2
10
106.433981
20
5.428450
11
105.169433
21
4.335873
0
LINE
8
hole
62
5
39
2
10
105.169433
20
4.335873
11
104.374796
21
3.954666
0
LINE
8
hole
62
5
39
2
10
104.374796
20
3.954666
11
103.243296
21
3.382423
0
LINE
8
hole
62
5
39
2
10
103.243296
20
3.382423
11
102.378709
21
3.292788
0
LINE
8
hole
62
5
39
2
10
102.378709
20
3.292788
11
101.191038
21
3.097009
0
LINE
8
hole
62
5
39
2
10
101.191038
20
3.097009
11
100.512994
21
3.153666
0
LINE
8
hole
62
5
39
2
10
100.512994
20
3.153666
11
99.092341
21
3.212516
0
LINE
8
hole
62
5
39
2
10
99.092341
20
3.212516
11
98.615119
21
3.306472
0
LINE
8
hole
62
5
39
2
10
98.615119
20
3.306472
11
96.889661
21
3.527790
0
LINE
8
hole
62
5
39
2
10
96.889661
20
3.527790
11
96.724798
21
3.606114
0
LINE
8
hole
62
5
39
2
10
96.724798
20
3.606114
11
95.681778
21
4.001628
0
LINE
8
hole
62
5
39
2
10
95.681778
20
4.001628
11
94.666649
21
4.401143
0
LINE
8
hole
62
5
39
2
10
94.666649
20
4.401143
11
94.504227
21
4.452747
0
LINE
8
hole
62
5
39
2
10
94.504227
20
4.452747
11
92.886925
21
6.055367
0
LINE
8
boundary
62
5
39
2
10
94.317338
20
2.014248
11
109.696453
21
0.668750
0
LINE
8
boundary
62
5
39
2
10
109.696453
20
0.668750
11
110.046316
21
4.667699
0
LINE
8
boundary
62
5
39
2
10
110.046316
20
4.667699
11
111.108377
21
16.807104
0
LINE
8
boundary
62
5
39
2
10
111.108377
20
16.807104
11
106.053738
21
17.249328
0
LINE
8
boundary
62
5
39
2
10
106.053738
20
17.249328
11
90.686374
21
18.593798
0
LINE
8
boundary
62
5
39
2
10
90.686374
20
18.593798
11
90.338120
21
14.613232
0
LINE
8
boundary
62
5
39
2
10
90.338120
20
14.613232
11
89.274451
21
2.455444
0
LINE
8
boundary
62
5
39
2
10
89.274451
20
2.455444
11
94.317338
21
2.014248
0
LINE
8
annotation
62
1
39
211
10
108.997817
20
9.654964
11
108.997817
21
9.797839
0
LINE
8
annotation
62
1
39
211
10
108.997817
20
9.654964
11
108.997817
21
9.797839
0
LINE
8
annotation
62
1
39
211
10
108.997817
20
9.797839
11
108.997817
21
9.654964
0
LINE
8
annotation
62
1
39
211
10
108.997817
20
9.654964
11
108.997816
21
9.512089
0
LINE
8
annotation
62
1
39
211
10
91.435426
20
9.654964
11
91.578301
21
9.654964
0
LINE
8
annotation
62
1
39
211
10
91.435426
20
9.654964
11
91.578301
21
9.654964
0
LINE
8
annotation
62
1
39
211
10
91.578301
20
9.654964
11
91.435426
21
9.654964
0
LINE
8
annotation
62
1
39
211
10
91.435426
20
9.654964
11
91.435426
21
9.512089
0
LINE
8
annotation
62
1
39
211
10
100.214610
20
17.017155
11
100.214610
21
17.160030
0
LINE
8
annotation
62
1
39
211
10
100.191414
20
2.461255
11
100.334289
21
2.461255
0
LINE
8
annotation
62
1
39
211
10
105.523872
20
2.021390
11
105.523872
21
3.593590
0
LINE
8
annotation
62
1
39
211
10
105.523872
20
3.593590
11
105.174352
21
3.243971
0
LINE
8
annotation
62
1
39
211
10
106.365935
20
2.042128
11
106.365935
21
2.042128
0
LINE
8
annotation
62
1
39
211
10
106.365935
20
2.042128
11
106.402475
21
2.028468
0
LINE
8
annotation
62
1
39
211
10
106.402475
20
2.028468
11
106.439950
21
2.021682
0
LINE
8
annotation
62
1
39
211
10
106.439950
20
2.021682
11
106.477512
21
2.021492
0
LINE
8
annotation
62
1
39
211
10
106.477512
20
2.021492
11
106.514315
21
2.027622
0
LINE
8
annotation
62
1
39
211
10
106.514315
20
2.027622
11
106.549511
21
2.039795
0
LINE
8
annotation
62
1
39
211
10
106.549511
20
2.039795
11
106.582253
21
2.057735
0
LINE
8
annotation
62
1
39
211
10
106.582253
20
2.057735
11
106.611694
21
2.081164
0
LINE
8
annotation
62
1
39
211
10
106.611694
20
2.081164
11
106.636987
21
2.109807
0
LINE
8
annotation
62
1
39
211
10
106.636987
20
2.109807
11
106.657284
21
2.143385
0
LINE
8
annotation
62
1
39
211
10
106.657284
20
2.143385
11
106.657284
21
2.143385
0
LINE
8
annotation
62
1
39
211
10
106.657284
20
2.143385
11
106.717843
21
2.285139
0
LINE
8
annotation
62
1
39
211
10
106.717843
20
2.285139
11
106.763263
21
2.430996
0
LINE
8
annotation
62
1
39
211
10
106.763263
20
2.430996
11
106.793543
21
2.579793
0
LINE
8
annotation
62
1
39
211
10
106.793543
20
2.579793
11
106.808682
21
2.730367
0
LINE
8
annotation
62
1
39
211
10
106.808682
20
2.730367
11
106.808682
21
2.881556
0
LINE
8
annotation
62
1
39
211
10
106.808682
20
2.881556
11
106.793543
21
3.032196
0
LINE
8
annotation
62
1
39
211
10
106.793543
20
3.032196
11
106.763263
21
3.181124
0
LINE
8
annotation
62
1
39
211
10
106.763263
20
3.181124
11
106.717843
21
3.327178
0
LINE
8
annotation
62
1
39
211
10
106.717843
20
3.327178
11
106.657284
21
3.469195
0
LINE
8
annotation
62
1
39
211
10
106.657284
20
3.469195
11
106.657284
21
3.469195
0
LINE
8
annotation
62
1
39
211
10
106.657284
20
3.469195
11
106.649583
21
3.483528
0
LINE
8
annotation
62
1
39
211
10
106.649583
20
3.483528
11
106.640851
21
3.497231
0
LINE
8
annotation
62
1
39
211
10
106.640851
20
3.497231
11
106.631156
21
3.510237
0
LINE
8
annotation
62
1
39
211
10
106.631156
20
3.510237
11
106.620563
21
3.522478
0
LINE
8
annotation
62
1
39
211
10
106.620563
20
3.522478
11
106.609137
21
3.533888
0
LINE
8
annotation
62
1
39
211
10
106.609137
20
3.533888
11
106.596944
21
3.544398
0
LINE
8
annotation
62
1
39
211
10
106.596944
20
3.544398
11
106.584050
21
3.553942
0
LINE
8
annotation
62
1
39
211
10
106.584050
20
3.553942
11
106.570520
21
3.562452
0
LINE
8
annotation
62
1
39
211
10
106.570520
20
3.562452
11
106.556421
21
3.569861
0
LINE
8
annotation
62
1
39
211
10
106.556421
20
3.569861
11
106.556421
21
3.569861
0
LINE
8
annotation
62
1
39
211
10
106.556421
20
3.569861
11
106.519591
21
3.583817
0
LINE
8
annotation
62
1
39
211
10
106.519591
20
3.583817
11
106.481897
21
3.590835
0
LINE
8
annotation
62
1
39
211
10
106.481897
20
3.590835
11
106.444176
21
3.591194
0
LINE
8
annotation
62
1
39
211
10
106.444176
20
3.591194
11
106.407265
21
3.585173
0
LINE
8
annotation
62
1
39
211
10
106.407265
20
3.585173
11
106.372003
21
3.573049
0
LINE
8
annotation
62
1
39
211
10
106.372003
20
3.573049
11
106.339227
21
3.555101
0
LINE
8
annotation
62
1
39
211
10
106.339227
20
3.555101
11
106.309773
21
3.531608
0
LINE
8
annotation
62
1
39
211
10
106.309773
20
3.531608
11
106.284480
21
3.502847
0
LINE
8
annotation
62
1
39
211
10
106.284480
20
3.502847
11
106.264185
21
3.469097
0
LINE
8
annotation
62
1
39
211
10
106.264185
20
3.469097
11
106.264185
21
3.469097
0
LINE
8
annotation
62
1
39
211
10
106.264185
20
3.469097
11
106.203917
21
3.327372
0
LINE
8
annotation
62
1
39
211
10
106.203917
20
3.327372
11
106.158717
21
3.181537
0
LINE
8
annotation
62
1
39
211
10
106.158717
20
3.181537
11
106.128583
21
3.032754
0
LINE
8
annotation
62
1
39
211
10
106.128583
20
3.032754
11
106.113517
21
2.882188
0
LINE
8
annotation
62
1
39
211
10
106.113517
20
2.882188
11
106.113517
21
2.730999
0
LINE
8
annotation
62
1
39
211
10
106.113517
20
2.730999
11
106.128583
21
2.580352
0
LINE
8
annotation
62
1
39
211
10
106.128583
20
2.580352
11
106.158717
21
2.431409
0
LINE
8
annotation
62
1
39
211
10
106.158717
20
2.431409
11
106.203917
21
2.285333
0
LINE
8
annotation
62
1
39
211
10
106.203917
20
2.285333
11
106.264185
21
2.143287
0
LINE
8
annotation
62
1
39
211
10
106.264185
20
2.143287
11
106.264185
21
2.143287
0
LINE
8
annotation
62
1
39
211
10
106.264185
20
2.143287
11
106.271858
21
2.128983
0
LINE
8
annotation
62
1
39
211
10
106.271858
20
2.128983
11
106.280525
21
2.115348
0
LINE
8
annotation
62
1
39
211
10
106.280525
20
2.115348
11
106.290148
21
2.102424
0
LINE
8
annotation
62
1
39
211
10
106.290148
20
2.102424
11
106.300692
21
2.090253
0
LINE
8
annotation
62
1
39
211
10
106.300692
20
2.090253
11
106.312119
21
2.078875
0
LINE
8
annotation
62
1
39
211
10
106.312119
20
2.078875
11
106.324393
21
2.068332
0
LINE
8
annotation
62
1
39
211
10
106.324393
20
2.068332
11
106.337479
21
2.058666
0
LINE
8
annotation
62
1
39
211
10
106.337479
20
2.058666
11
106.351338
21
2.049917
0
LINE
8
annotation
62
1
39
211
10
106.351338
20
2.049917
11
106.365935
21
2.042128
0
LINE
8
hole
62
5
39
2
10
11.582345
20
35.181831
11
11.639495
21
35.181831
0
LINE
8
hole
62
5
39
2
10
11.639495
20
35.181831
11
11.639495
21
35.238981
0
LINE
8
hole
62
5
39
2
10
11.639495
20
35.238981
11
11.582345
21
35.238981
0
LINE
8
hole
62
5
39
2
10
11.582345
20
35.238981
11
11.582345
21
35.181831
0
LINE
8
hole
62
5
39
2
10
11.558533
20
20.675105
11
11.615683
21
20.675105
0
LINE
8
hole
62
5
39
2
10
11.615683
20
20.675105
11
11.615683
21
20.732255
0
LINE
8
hole
62
5
39
2
10
11.615683
20
20.732255
11
11.558533
21
20.732255
0
LINE
8
hole
62
5
39
2
10
11.558533
20
20.732255
11
11.558533
21
20.675105
0
LINE
8
hole
62
5
39
2
10
20.362145
20
27.869059
11
20.419295
21
27.869059
0
LINE
8
hole
62
5
39
2
10
20.419295
20
27.869059
11
20.419295
21
27.926209
0
LINE
8
hole
62
5
39
2
10
20.419295
20
27.926209
11
20.362145
21
27.926209
0
LINE
8
hole
62
5
39
2
10
20.362145
20
27.926209
11
20.362145
21
27.869059
0
LINE
8
hole
62
5
39
2
10
2.799755
20
27.869059
11
2.856905
21
27.869059
0
LINE
8
hole
62
5
39
2
10
2.856905
20
27.869059
11
2.856905
21
27.926209
0
LINE
8
hole
62
5
39
2
10
2.856905
20
27.926209
11
2.799755
21
27.926209
0
LINE
8
hole
62
5
39
2
10
2.799755
20
27.926209
11
2.799755
21
27.869059
0
LINE
8
hole
62
5
39
2
10
2.500132
20
21.847467
11
2.445429
21
21.933332
0
LINE
8
hole
62
5
39
2
10
2.445429
20
21.933332
11
2.414814
21
22.030431
0
LINE
8
hole
62
5
39
2
10
2.414814
20
22.030431
11
2.410373
21
22.132145
0
LINE
8
hole
62
5
39
2
10
2.410373
20
22.132145
11
2.432409
21
22.231541
0
LINE
8
hole
62
5
39
2
10
2.432409
20
22.231541
11
2.479419
21
22.321848
0
LINE
8
hole
62
5
39
2
10
2.479419
20
22.321848
11
2.548202
21
22.396911
0
LINE
8
hole
62
5
39
2
10
2.548202
20
22.396911
11
2.634069
21
22.451613
0
LINE
8
hole
62
5
39
2
10
2.634069
20
22.451613
11
2.731166
21
22.482228
0
LINE
8
hole
62
5
39
2
10
2.731166
20
22.482228
11
2.832880
21
22.486669
0
LINE
8
hole
62
5
39
2
10
2.832880
20
22.486669
11
2.932277
21
22.464633
0
LINE
8
hole
62
5
39
2
10
2.932277
20
22.464633
11
3.022585
21
22.417622
0
LINE
8
hole
62
5
39
2
10
3.022585
20
22.417622
11
3.097647
21
22.348840
0
LINE
8
hole
62
5
39
2
10
3.097647
20
22.348840
11
3.152350
21
22.262975
0
LINE
8
hole
62
5
39
2
10
3.152350
20
22.262975
11
3.182964
21
22.165876
0
LINE
8
hole
62
5
39
2
10
3.182964
20
22.165876
11
3.187405
21
22.064162
0
LINE
8
hole
62
5
39
2
10
3.187405
20
22.064162
11
3.165369
21
21.964766
0
LINE
8
hole
62
5
39
2
10
3.165369
20
21.964766
11
3.118358
21
21.874459
0
LINE
8
hole
62
5
39
2
10
3.118358
20
21.874459
11
3.049576
21
21.799396
0
LINE
8
hole
62
5
39
2
10
3.049576
20
21.799396
11
2.963711
21
21.744694
0
LINE
8
hole
62
5
39
2
10
2.963711
20
21.744694
11
2.866612
21
21.714078
0
LINE
8
hole
62
5
39
2
10
2.866612
20
21.714078
11
2.764898
21
21.709638
0
LINE
8
hole
62
5
39
2
10
2.764898
20
21.709638
11
2.665502
21
21.731674
0
LINE
8
hole
62
5
39
2
10
2.665502
20
21.731674
11
2.575194
21
21.778685
0
LINE
8
hole
62
5
39
2
10
2.575194
20
21.778685
11
2.500132
21
21.847467
0
LINE
8
hole
62
5
39
2
10
3.636558
20
34.836874
11
3.581855
21
34.922739
0
LINE
8
hole
62
5
39
2
10
3.581855
20
34.922739
11
3.551240
21
35.019838
0
LINE
8
hole
62
5
39
2
10
3.551240
20
35.019838
11
3.546799
21
35.121552
0
LINE
8
hole
62
5
39
2
10
3.546799
20
35.121552
11
3.568835
21
35.220948
0
LINE
8
hole
62
5
39
2
10
3.568835
20
35.220948
11
3.615845
21
35.311255
0
LINE
8
hole
62
5
39
2
10
3.615845
20
35.311255
11
3.684628
21
35.386318
0
LINE
8
hole
62
5
39
2
10
3.684628
20
35.386318
11
3.770494
21
35.441021
0
LINE
8
hole
62
5
39
2
10
3.770494
20
35.441021
11
3.867592
21
35.471636
0
LINE
8
hole
62
5
39
2
10
3.867592
20
35.471636
11
3.969305
21
35.476076
0
LINE
8
hole
62
5
39
2
10
3.969305
20
35.476076
11
4.068703
21
35.454040
0
LINE
8
hole
62
5
39
2
10
4.068703
20
35.454040
11
4.159010
21
35.407030
0
LINE
8
hole
62
5
39
2
10
4.159010
20
35.407030
11
4.234073
21
35.338247
0
LINE
8
hole
62
5
39
2
10
4.234073
20
35.338247
11
4.288775
21
35.252381
0
LINE
8
hole
62
5
39
2
10
4.288775
20
35.252381
11
4.319390
21
35.155283
0
LINE
8
hole
62
5
39
2
10
4.319390
20
35.155283
11
4.323831
21
35.053570
0
LINE
8
hole
62
5
39
2
10
4.323831
20
35.053570
11
4.301795
21
34.954172
0
LINE
8
hole
62
5
39
2
10
4.301795
20
34.954172
11
4.254784
21
34.863866
0
LINE
8
hole
62
5
39
2
10
4.254784
20
34.863866
11
4.186003
21
34.788803
0
LINE
8
hole
62
5
39
2
10
4.186003
20
34.788803
11
4.100136
21
34.734100
0
LINE
8
hole
62
5
39
2
10
4.100136
20
34.734100
11
4.003038
21
34.703485
0
LINE
8
hole
62
5
39
2
10
4.003038
20
34.703485
11
3.901324
21
34.699045
0
LINE
8
hole
62
5
39
2
10
3.901324
20
34.699045
11
3.801927
21
34.721081
0
LINE
8
hole
62
5
39
2
10
3.801927
20
34.721081
11
3.711620
21
34.768092
0
LINE
8
hole
62
5
39
2
10
3.711620
20
34.768092
11
3.636558
21
34.836874
0
LINE
8
hole
62
5
39
2
10
18.937352
20
20.409396
11
18.882650
21
20.495263
0
LINE
8
hole
62
5
39
2
10
18.882650
20
20.495263
11
18.852035
21
20.592360
0
LINE
8
hole
62
5
39
2
10
18.852035
20
20.592360
11
18.847594
21
20.694074
0
LINE
8
hole
62
5
39
2
10
18.847594
20
20.694074
11
18.869629
21
20.793471
0
LINE
8
hole
62
5
39
2
10
18.869629
20
20.793471
11
18.916641
21
20.883778
0
LINE
8
hole
62
5
39
2
10
18.916641
20
20.883778
11
18.985422
21
20.958840
0
LINE
8
hole
62
5
39
2
10
18.985422
20
20.958840
11
19.071289
21
21.013543
0
LINE
8
hole
62
5
39
2
10
19.071289
20
21.013543
11
19.168387
21
21.044158
0
LINE
8
hole
62
5
39
2
10
19.168387
20
21.044158
11
19.270100
21
21.048599
0
LINE
8
hole
62
5
39
2
10
19.270100
20
21.048599
11
19.369497
21
21.026563
0
LINE
8
hole
62
5
39
2
10
19.369497
20
21.026563
11
19.459805
21
20.979552
0
LINE
8
hole
62
5
39
2
10
19.459805
20
20.979552
11
19.534867
21
20.910770
0
LINE
8
hole
62
5
39
2
10
19.534867
20
20.910770
11
19.589570
21
20.824904
0
LINE
8
hole
62
5
39
2
10
19.589570
20
20.824904
11
19.620185
21
20.727806
0
LINE
8
hole
62
5
39
2
10
19.620185
20
20.727806
11
19.624626
21
20.626092
0
LINE
8
hole
62
5
39
2
10
19.624626
20
20.626092
11
19.602590
21
20.526695
0
LINE
8
hole
62
5
39
2
10
19.602590
20
20.526695
11
19.555579
21
20.436388
0
LINE
8
hole
62
5
39
2
10
19.555579
20
20.436388
11
19.486797
21
20.361326
0
LINE
8
hole
62
5
39
2
10
19.486797
20
20.361326
11
19.400931
21
20.306623
0
LINE
8
hole
62
5
39
2
10
19.400931
20
20.306623
11
19.303833
21
20.276008
0
LINE
8
hole
62
5
39
2
10
19.303833
20
20.276008
11
19.202120
21
20.271567
0
LINE
8
hole
62
5
39
2
10
19.202120
20
20.271567
11
19.102722
21
20.293603
0
LINE
8
hole
62
5
39
2
10
19.102722
20
20.293603
11
19.012415
21
20.340614
0
LINE
8
hole
62
5
39
2
10
19.012415
20
20.340614
11
18.937352
21
20.409396
0
LINE
8
hole
62
5
39
2
10
20.073778
20
33.398803
11
20.019075
21
33.484669
0
LINE
8
hole
62
5
39
2
10
20.019075
20
33.484669
11
19.988460
21
33.581767
0
LINE
8
hole
62
5
39
2
10
19.988460
20
33.581767
11
19.984020
21
33.683481
0
LINE
8
hole
62
5
39
2
10
19.984020
20
33.683481
11
20.006056
21
33.782878
0
LINE
8
hole
62
5
39
2
10
20.006056
20
33.782878
11
20.053067
21
33.873185
0
LINE
8
hole
62
5
39
2
10
20.053067
20
33.873185
11
20.121849
21
33.948248
0
LINE
8
hole
62
5
39
2
10
20.121849
20
33.948248
11
20.207714
21
34.002950
0
LINE
8
hole
62
5
39
2
10
20.207714
20
34.002950
11
20.304813
21
34.033565
0
LINE
8
hole
62
5
39
2
10
20.304813
20
34.033565
11
20.406526
21
34.038006
0
LINE
8
hole
62
5
39
2
10
20.406526
20
34.038006
11
20.505923
21
34.015970
0
LINE
8
hole
62
5
39
2
10
20.505923
20
34.015970
11
20.596230
21
33.968959
0
LINE
8
hole
62
5
39
2
10
20.596230
20
33.968959
11
20.671293
21
33.900177
0
LINE
8
hole
62
5
39
2
10
20.671293
20
33.900177
11
20.725996
21
33.814311
0
LINE
8
hole
62
5
39
2
10
20.725996
20
33.814311
11
20.756611
21
33.717213
0
LINE
8
hole
62
5
39
2
10
20.756611
20
33.717213
11
20.761052
21
33.615499
0
LINE
8
hole
62
5
39
2
10
20.761052
20
33.615499
11
20.739016
21
33.516102
0
LINE
8
hole
62
5
39
2
10
20.739016
20
33.516102
11
20.692005
21
33.425796
0
LINE
8
hole
62
5
39
2
10
20.692005
20
33.425796
11
20.623223
21
33.350733
0
LINE
8
hole
62
5
39
2
10
20.623223
20
33.350733
11
20.537356
21
33.296029
0
LINE
8
hole
62
5
39
2
10
20.537356
20
33.296029
11
20.440259
21
33.265415
0
LINE
8
hole
62
5
39
2
10
20.440259
20
33.265415
11
20.338545
21
33.260974
0
LINE
8
hole
62
5
39
2
10
20.338545
20
33.260974
11
20.239147
21
33.283010
0
LINE
8
hole
62
5
39
2
10
20.239147
20
33.283010
11
20.148840
21
33.330020
0
LINE
8
hole
62
5
39
2
10
20.148840
20
33.330020
11
20.073778
21
33.398803
0
LINE
8
hole
62
5
39
2
10
5.285843
20
23.400654
11
3.810664
21
24.701283
0
LINE
8
hole
62
5
39
2
10
3.810664
20
24.701283
11
3.644709
21
25.260767
0
LINE
8
hole
62
5
39
2
10
3.644709
20
25.260767
11
2.951071
21
27.398118
0
LINE
8
hole
62
5
39
2
10
2.951071
20
27.398118
11
2.975088
21
27.638040
0
LINE
8
hole
62
5
39
2
10
2.975088
20
27.638040
11
3.233720
21
29.578460
0
LINE
8
hole
62
5
39
2
10
3.233720
20
29.578460
11
3.289279
21
29.707238
0
LINE
8
hole
62
5
39
2
10
3.289279
20
29.707238
11
3.887430
21
31.093364
0
LINE
8
hole
62
5
39
2
10
3.887430
20
31.093364
11
3.919609
21
31.154027
0
LINE
8
hole
62
5
39
2
10
3.919609
20
31.154027
11
4.730397
21
32.214217
0
LINE
8
hole
62
5
39
2
10
4.730397
20
32.214217
11
4.819296
21
32.302032
0
LINE
8
hole
62
5
39
2
10
4.819296
20
32.302032
11
5.615104
21
33.001557
0
LINE
8
hole
62
5
39
2
10
5.615104
20
33.001557
11
5.805622
21
33.124595
0
LINE
8
hole
62
5
39
2
10
5.805622
20
33.124595
11
6.508287
21
33.588111
0
LINE
8
hole
62
5
39
2
10
6.508287
20
33.588111
11
6.787127
21
33.733938
0
LINE
8
hole
62
5
39
2
10
6.787127
20
33.733938
11
7.381635
21
34.046375
0
LINE
8
hole
62
5
39
2
10
7.381635
20
34.046375
11
7.770383
21
34.222905
0
LINE
8
hole
62
5
39
2
10
7.770383
20
34.222905
11
8.216017
21
34.395867
0
LINE
8
hole
62
5
39
2
10
8.216017
20
34.395867
11
8.717777
21
34.577375
0
LINE
8
hole
62
5
39
2
10
8.717777
20
34.577375
11
9.061294
21
34.674584
0
LINE
8
hole
62
5
39
2
10
9.061294
20
34.674584
11
9.640517
21
34.825027
0
LINE
8
hole
62
5
39
2
10
9.640517
20
34.825027
11
9.965461
21
34.878810
0
LINE
8
hole
62
5
39
2
10
9.965461
20
34.878810
11
10.581210
21
34.971756
0
LINE
8
hole
62
5
39
2
10
10.581210
20
34.971756
11
10.908303
21
34.991874
0
LINE
8
hole
62
5
39
2
10
10.908303
20
34.991874
11
11.520565
21
35.028762
0
LINE
8
hole
62
5
39
2
10
11.520565
20
35.028762
11
11.896714
21
35.027790
0
LINE
8
hole
62
5
39
2
10
11.896714
20
35.027790
11
12.480414
21
35.022603
0
LINE
8
hole
62
5
39
2
10
12.480414
20
35.022603
11
12.964343
21
35.004380
0
LINE
8
hole
62
5
39
2
10
12.964343
20
35.004380
11
13.483842
21
34.977853
0
LINE
8
hole
62
5
39
2
10
13.483842
20
34.977853
11
14.169392
21
34.917414
0
LINE
8
hole
62
5
39
2
10
14.169392
20
34.917414
11
14.579024
21
34.871571
0
LINE
8
hole
62
5
39
2
10
14.579024
20
34.871571
11
15.588455
21
34.655401
0
LINE
8
hole
62
5
39
2
10
15.588455
20
34.655401
11
15.820233
21
34.603875
0
LINE
8
hole
62
5
39
2
10
15.820233
20
34.603875
11
16.688126
21
34.233245
0
LINE
8
hole
62
5
39
2
10
16.688126
20
34.233245
11
17.170811
21
34.026049
0
LINE
8
hole
62
5
39
2
10
17.170811
20
34.026049
11
17.297185
21
33.930052
0
LINE
8
hole
62
5
39
2
10
17.297185
20
33.930052
11
18.433457
21
33.037974
0
LINE
8
hole
62
5
39
2
10
18.433457
20
33.037974
11
18.720431
21
32.691322
0
LINE
8
hole
62
5
39
2
10
18.720431
20
32.691322
11
19.541761
21
31.632856
0
LINE
8
hole
62
5
39
2
10
19.541761
20
31.632856
11
19.889818
21
30.734895
0
LINE
8
hole
62
5
39
2
10
19.889818
20
30.734895
11
20.274813
21
29.423204
0
LINE
8
hole
62
5
39
2
10
20.274813
20
29.423204
11
19.983457
21
27.397055
0
LINE
8
hole
62
5
39
2
10
19.983457
20
27.397055
11
19.800756
21
26.623926
0
LINE
8
hole
62
5
39
2
10
19.800756
20
26.623926
11
18.521454
21
24.699261
0
LINE
8
hole
62
5
39
2
10
18.521454
20
24.699261
11
18.180535
21
24.258700
0
LINE
8
hole
62
5
39
2
10
18.180535
20
24.258700
11
16.658661
21
22.939710
0
LINE
8
hole
62
5
39
2
10
16.658661
20
22.939710
11
16.436215
21
22.758761
0
LINE
8
hole
62
5
39
2
10
16.436215
20
22.758761
11
14.726497
21
21.884488
0
LINE
8
hole
62
5
39
2
10
14.726497
20
21.884488
11
14.622808
21
21.833488
0
LINE
8
hole
62
5
39
2
10
14.622808
20
21.833488
11
12.914737
21
21.575301
0
LINE
8
hole
62
5
39
2
10
12.914737
20
21.575301
11
12.646293
21
21.519598
0
LINE
8
hole
62
5
39
2
10
12.646293
20
21.519598
11
11.070802
21
21.601790
0
LINE
8
hole
62
5
39
2
10
11.070802
20
21.601790
11
10.590545
21
21.587067
0
LINE
8
hole
62
5
39
2
10
10.590545
20
21.587067
11
9.209978
21
21.783093
0
LINE
8
hole
62
5
39
2
10
9.209978
20
21.783093
11
8.409953
21
21.840506
0
LINE
8
hole
62
5
39
2
10
8.409953
20
21.840506
11
7.251698
21
22.296351
0
LINE
8
hole
62
5
39
2
10
7.251698
20
22.296351
11
5.998443
21
22.694522
0
LINE
8
hole
62
5
39
2
10
5.998443
20
22.694522
11
5.285843
21
23.400654
0
LINE
8
boundary
62
5
39
2
10
7.301827
20
20.117673
11
21.090752
21
18.911298
0
LINE
8
boundary
62
5
39
2
10
21.090752
20
18.911298
11
21.550431
21
24.165453
0
LINE
8
boundary
62
5
39
2
10
21.550431
20
24.165453
11
22.502675
21
35.049652
0
LINE
8
boundary
62
5
39
2
10
22.502675
20
35.049652
11
15.861464
21
35.630683
0
LINE
8
boundary
62
5
39
2
10
15.861464
20
35.630683
11
2.080673
21
36.836346
0
LINE
8
boundary
62
5
39
2
10
2.080673
20
36.836346
11
1.622602
21
31.600574
0
LINE
8
boundary
62
5
39
2
10
1.622602
20
31.600574
11
0.668750
21
20.697992
0
LINE
8
boundary
62
5
39
2
10
0.668750
20
20.697992
11
7.301827
21
20.117673
0
LINE
8
annotation
62
1
39
211
10
11.610920
20
35.210406
11
11.610920
21
35.353281
0
LINE
8
annotation
62
1
39
211
10
11.610920
20
35.210406
11
11.610920
21
35.353281
0
LINE
8
annotation
62
1
39
211
10
11.610920
20
35.353281
11
11.610920
21
35.210406
0
LINE
8
annotation
62
1
39
211
10
11.610920
20
35.210406
11
11.753795
21
35.210406
0
LINE
8
annotation
62
1
39
211
10
11.587108
20
20.703680
11
11.587108
21
20.560805
0
LINE
8
annotation
62
1
39
211
10
20.390720
20
27.897634
11
20.390720
21
28.040509
0
LINE
8
annotation
62
1
39
211
10
20.390720
20
27.897634
11
20.390720
21
28.040509
0
LINE
8
annotation
62
1
39
211
10
20.390720
20
28.040509
11
20.390720
21
27.897634
0
LINE
8
annotation
62
1
39
211
10
20.390720
20
27.897634
11
20.390720
21
27.754759
0
LINE
8
annotation
62
1
39
211
10
2.828330
20
27.897634
11
2.971205
21
27.897634
0
LINE
8
annotation
62
1
39
211
10
2.828330
20
27.897634
11
2.971205
21
27.897634
0
LINE
8
annotation
62
1
39
211
10
2.971205
20
27.897634
11
2.828330
21
27.897634
0
LINE
8
annotation
62
1
39
211
10
2.828330
20
27.897634
11
2.828330
21
27.754759
0
LINE
8
annotation
62
1
39
211
10
19.852933
20
21.918023
11
19.852933
21
21.918023
0
LINE
8
annotation
62
1
39
211
10
19.852933
20
21.918023
11
20.002692
21
21.973831
0
LINE
8
annotation
62
1
39
211
10
20.002692
20
21.973831
11
20.140153
21
22.049265
0
LINE
8
annotation
62
1
39
211
10
20.140153
20
22.049265
11
20.263894
21
22.142404
0
LINE
8
annotation
62
1
39
211
10
20.263894
20
22.142404
11
20.372496
21
22.251325
0
LINE
8
annotation
62
1
39
211
10
20.372496
20
22.251325
11
20.464537
21
22.374107
0
LINE
8
annotation
62
1
39
211
10
20.464537
20
22.374107
11
20.538597
21
22.508828
0
LINE
8
annotation
62
1
39
211
10
20.538597
20
22.508828
11
20.593256
21
22.653565
0
LINE
8
annotation
62
1
39
211
10
20.593256
20
22.653565
11
20.627093
21
22.806396
0
LINE
8
annotation
62
1
39
211
10
20.627093
20
22.806396
11
20.638688
21
22.965400
0
LINE
8
annotation
62
1
39
211
10
20.638688
20
22.965400
11
20.638688
21
23.751895
0
LINE
8
annotation
62
1
39
211
10
20.638688
20
23.751895
11
20.638688
21
23.751895
0
LINE
8
annotation
62
1
39
211
10
20.638688
20
23.751895
11
20.630257
21
23.846107
0
LINE
8
annotation
62
1
39
211
10
20.630257
20
23.846107
11
20.605948
21
23.934801
0
LINE
8
annotation
62
1
39
211
10
20.605948
20
23.934801
11
20.567234
21
24.016492
0
LINE
8
annotation
62
1
39
211
10
20.567234
20
24.016492
11
20.515589
21
24.089692
0
LINE
8
annotation
62
1
39
211
10
20.515589
20
24.089692
11
20.452488
21
24.152916
0
LINE
8
annotation
62
1
39
211
10
20.452488
20
24.152916
11
20.379404
21
24.204677
0
LINE
8
annotation
62
1
39
211
10
20.379404
20
24.204677
11
20.297812
21
24.243489
0
LINE
8
annotation
62
1
39
211
10
20.297812
20
24.243489
11
20.209186
21
24.267867
0
LINE
8
annotation
62
1
39
211
10
20.209186
20
24.267867
11
20.114999
21
24.276323
0
LINE
8
annotation
62
1
39
211
10
20.114999
20
24.276323
11
20.114999
21
24.276323
0
LINE
8
annotation
62
1
39
211
10
20.114999
20
24.276323
11
20.021007
21
24.267867
0
LINE
8
annotation
62
1
39
211
10
20.021007
20
24.267867
11
19.932484
21
24.243489
0
LINE
8
annotation
62
1
39
211
10
19.932484
20
24.243489
11
19.850923
21
24.204677
0
LINE
8
annotation
62
1
39
211
10
19.850923
20
24.204677
11
19.777815
21
24.152916
0
LINE
8
annotation
62
1
39
211
10
19.777815
20
24.152916
11
19.714653
21
24.089692
0
LINE
8
annotation
62
1
39
211
10
19.714653
20
24.089692
11
19.662929
21
24.016492
0
LINE
8
annotation
62
1
39
211
10
19.662929
20
24.016492
11
19.624136
21
23.934801
0
LINE
8
annotation
62
1
39
211
10
19.624136
20
23.934801
11
19.599765
21
23.846107
0
LINE
8
annotation
62
1
39
211
10
19.599765
20
23.846107
11
19.591310
21
23.751895
0
LINE
8
annotation
62
1
39
211
10
19.591310
20
23.751895
11
19.591310
21
23.489681
0
LINE
8
annotation
62
1
39
211
10
19.591310
20
23.489681
11
19.591310
21
23.489681
0
LINE
8
annotation
62
1
39
211
10
19.591310
20
23.489681
11
19.599765
21
23.395474
0
LINE
8
annotation
62
1
39
211
10
19.599765
20
23.395474
11
19.624136
21
23.306793
0
LINE
8
annotation
62
1
39
211
10
19.624136
20
23.306793
11
19.662929
21
23.225122
0
LINE
8
annotation
62
1
39
211
10
19.662929
20
23.225122
11
19.714653
21
23.151945
0
LINE
8
annotation
62
1
39
211
10
19.714653
20
23.151945
11
19.777815
21
23.088746
0
LINE
8
annotation
62
1
39
211
10
19.777815
20
23.088746
11
19.850923
21
23.037008
0
LINE
8
annotation
62
1
39
211
10
19.850923
20
23.037008
11
19.932484
21
22.998215
0
LINE
8
annotation
62
1
39
211
10
19.932484
20
22.998215
11
20.021007
21
22.973851
0
LINE
8
annotation
62
1
39
211
10
20.021007
20
22.973851
11
20.114999
21
22.965400
0
LINE
8
annotation
62
1
39
211
10
20.114999
20
22.965400
11
20.638688
21
22.965400
0
LINE
8
annotation
62
1
39
211
10
19.525868
20
21.623236
11
20.705018
21
21.623236
0
LINE
8
hole
62
5
39
2
10
33.708563
20
20.675228
11
33.765713
21
20.675228
0
LINE
8
hole
62
5
39
2
10
33.765713
20
20.675228
11
33.765713
21
20.732378
0
LINE
8
hole
62
5
39
2
10
33.765713
20
20.732378
11
33.708563
21
20.732378
0
LINE
8
hole
62
5
39
2
10
33.708563
20
20.732378
11
33.708563
21
20.675228
0
LINE
8
hole
62
5
39
2
10
24.904950
20
27.868937
11
24.962100
21
27.868937
0
LINE
8
hole
62
5
39
2
10
24.962100
20
27.868937
11
24.962100
21
27.926087
0
LINE
8
hole
62
5
39
2
10
24.962100
20
27.926087
11
24.904950
21
27.926087
0
LINE
8
hole
62
5
39
2
10
24.904950
20
27.926087
11
24.904950
21
27.868937
0
LINE
8
hole
62
5
39
2
10
33.708563
20
35.015265
11
33.765713
21
35.015265
0
LINE
8
hole
62
5
39
2
10
33.765713
20
35.015265
11
33.765713
21
35.072415
0
LINE
8
hole
62
5
39
2
10
33.765713
20
35.072415
11
33.708563
21
35.072415
0
LINE
8
hole
62
5
39
2
10
33.708563
20
35.072415
11
33.708563
21
35.015265
0
LINE
8
hole
62
5
39
2
10
42.443529
20
27.845124
11
42.500679
21
27.845124
0
LINE
8
hole
62
5
39
2
10
42.500679
20
27.845124
11
42.500679
21
27.902274
0
LINE
8
hole
62
5
39
2
10
42.500679
20
27.902274
11
42.443529
21
27.902274
0
LINE
8
hole
62
5
39
2
10
42.443529
20
27.902274
11
42.443529
21
27.845124
0
LINE
8
hole
62
5
39
2
10
24.651558
20
21.847467
11
24.619869
21
21.897207
0
LINE
8
hole
62
5
39
2
10
24.619869
20
21.897207
11
24.579119
21
21.989582
0
LINE
8
hole
62
5
39
2
10
24.579119
20
21.989582
11
24.563667
21
22.089355
0
LINE
8
hole
62
5
39
2
10
24.563667
20
22.089355
11
24.574564
21
22.189726
0
LINE
8
hole
62
5
39
2
10
24.574564
20
22.189726
11
24.611068
21
22.283856
0
LINE
8
hole
62
5
39
2
10
24.611068
20
22.283856
11
24.670689
21
22.365330
0
LINE
8
hole
62
5
39
2
10
24.670689
20
22.365330
11
24.749365
21
22.428596
0
LINE
8
hole
62
5
39
2
10
24.749365
20
22.428596
11
24.841732
21
22.469345
0
LINE
8
hole
62
5
39
2
10
24.841732
20
22.469345
11
24.941499
21
22.484800
0
LINE
8
hole
62
5
39
2
10
24.941499
20
22.484800
11
25.041866
21
22.473908
0
LINE
8
hole
62
5
39
2
10
25.041866
20
22.473908
11
25.135995
21
22.437412
0
LINE
8
hole
62
5
39
2
10
25.135995
20
22.437412
11
25.217471
21
22.377797
0
LINE
8
hole
62
5
39
2
10
25.217471
20
22.377797
11
25.280744
21
22.299127
0
LINE
8
hole
62
5
39
2
10
25.280744
20
22.299127
11
25.321500
21
22.206760
0
LINE
8
hole
62
5
39
2
10
25.321500
20
22.206760
11
25.336961
21
22.106991
0
LINE
8
hole
62
5
39
2
10
25.336961
20
22.106991
11
25.326074
21
22.006619
0
LINE
8
hole
62
5
39
2
10
25.326074
20
22.006619
11
25.289578
21
21.912483
0
LINE
8
hole
62
5
39
2
10
25.289578
20
21.912483
11
25.229961
21
21.831000
0
LINE
8
hole
62
5
39
2
10
25.229961
20
21.831000
11
25.151285
21
21.767723
0
LINE
8
hole
62
5
39
2
10
25.151285
20
21.767723
11
25.058911
21
21.726965
0
LINE
8
hole
62
5
39
2
10
25.058911
20
21.726965
11
24.959135
21
21.711507
0
LINE
8
hole
62
5
39
2
10
24.959135
20
21.711507
11
24.858758
21
21.722400
0
LINE
8
hole
62
5
39
2
10
24.858758
20
21.722400
11
24.764621
21
21.758902
0
LINE
8
hole
62
5
39
2
10
24.764621
20
21.758902
11
24.683141
21
21.818526
0
LINE
8
hole
62
5
39
2
10
24.683141
20
21.818526
11
24.651558
21
21.847467
0
LINE
8
hole
62
5
39
2
10
41.088778
20
20.409396
11
41.057542
21
20.458428
0
LINE
8
hole
62
5
39
2
10
41.057542
20
20.458428
11
41.016593
21
20.550710
0
LINE
8
hole
62
5
39
2
10
41.016593
20
20.550710
11
41.000924
21
20.650445
0
LINE
8
hole
62
5
39
2
10
41.000924
20
20.650445
11
41.011603
21
20.750836
0
LINE
8
hole
62
5
39
2
10
41.011603
20
20.750836
11
41.047901
21
20.845041
0
LINE
8
hole
62
5
39
2
10
41.047901
20
20.845041
11
41.107342
21
20.926640
0
LINE
8
hole
62
5
39
2
10
41.107342
20
20.926640
11
41.185877
21
20.990075
0
LINE
8
hole
62
5
39
2
10
41.185877
20
20.990075
11
41.278152
21
21.031022
0
LINE
8
hole
62
5
39
2
10
41.278152
20
21.031022
11
41.377881
21
21.046693
0
LINE
8
hole
62
5
39
2
10
41.377881
20
21.046693
11
41.478266
21
21.036020
0
LINE
8
hole
62
5
39
2
10
41.478266
20
21.036020
11
41.572470
21
20.999729
0
LINE
8
hole
62
5
39
2
10
41.572470
20
20.999729
11
41.654072
21
20.940295
0
LINE
8
hole
62
5
39
2
10
41.654072
20
20.940295
11
41.717513
21
20.861765
0
LINE
8
hole
62
5
39
2
10
41.717513
20
20.861765
11
41.758467
21
20.769491
0
LINE
8
hole
62
5
39
2
10
41.758467
20
20.769491
11
41.774145
21
20.669760
0
LINE
8
hole
62
5
39
2
10
41.774145
20
20.669760
11
41.763476
21
20.569368
0
LINE
8
hole
62
5
39
2
10
41.763476
20
20.569368
11
41.727187
21
20.475157
0
LINE
8
hole
62
5
39
2
10
41.727187
20
20.475157
11
41.667750
21
20.393548
0
LINE
8
hole
62
5
39
2
10
41.667750
20
20.393548
11
41.589215
21
20.330104
0
LINE
8
hole
62
5
39
2
10
41.589215
20
20.330104
11
41.496933
21
20.289148
0
LINE
8
hole
62
5
39
2
10
41.496933
20
20.289148
11
41.397196
21
20.273473
0
LINE
8
hole
62
5
39
2
10
41.397196
20
20.273473
11
41.296799
21
20.284147
0
LINE
8
hole
62
5
39
2
10
41.296799
20
20.284147
11
41.202587
21
20.320444
0
LINE
8
hole
62
5
39
2
10
41.202587
20
20.320444
11
41.120981
21
20.379888
0
LINE
8
hole
62
5
39
2
10
41.120981
20
20.379888
11
41.088778
21
20.409396
0
LINE
8
hole
62
5
39
2
10
25.787984
20
34.836873
11
25.756295
21
34.886614
0
LINE
8
hole
62
5
39
2
10
25.756295
20
34.886614
11
25.715546
21
34.978989
0
LINE
8
hole
62
5
39
2
10
25.715546
20
34.978989
11
25.700093
21
35.078762
0
LINE
8
hole
62
5
39
2
10
25.700093
20
35.078762
11
25.710990
21
35.179133
0
LINE
8
hole
62
5
39
2
10
25.710990
20
35.179133
11
25.747493
21
35.273263
0
LINE
8
hole
62
5
39
2
10
25.747493
20
35.273263
11
25.807115
21
35.354737
0
LINE
8
hole
62
5
39
2
10
25.807115
20
35.354737
11
25.885790
21
35.418004
0
LINE
8
hole
62
5
39
2
10
25.885790
20
35.418004
11
25.978159
21
35.458753
0
LINE
8
hole
62
5
39
2
10
25.978159
20
35.458753
11
26.077925
21
35.474207
0
LINE
8
hole
62
5
39
2
10
26.077925
20
35.474207
11
26.178292
21
35.463315
0
LINE
8
hole
62
5
39
2
10
26.178292
20
35.463315
11
26.272421
21
35.426819
0
LINE
8
hole
62
5
39
2
10
26.272421
20
35.426819
11
26.353897
21
35.367204
0
LINE
8
hole
62
5
39
2
10
26.353897
20
35.367204
11
26.417170
21
35.288533
0
LINE
8
hole
62
5
39
2
10
26.417170
20
35.288533
11
26.457925
21
35.196167
0
LINE
8
hole
62
5
39
2
10
26.457925
20
35.196167
11
26.473387
21
35.096398
0
LINE
8
hole
62
5
39
2
10
26.473387
20
35.096398
11
26.462500
21
34.996025
0
LINE
8
hole
62
5
39
2
10
26.462500
20
34.996025
11
26.426004
21
34.901889
0
LINE
8
hole
62
5
39
2
10
26.426004
20
34.901889
11
26.366387
21
34.820406
0
LINE
8
hole
62
5
39
2
10
26.366387
20
34.820406
11
26.287710
21
34.757129
0
LINE
8
hole
62
5
39
2
10
26.287710
20
34.757129
11
26.195337
21
34.716372
0
LINE
8
hole
62
5
39
2
10
26.195337
20
34.716372
11
26.095561
21
34.700913
0
LINE
8
hole
62
5
39
2
10
26.095561
20
34.700913
11
25.995184
21
34.711806
0
LINE
8
hole
62
5
39
2
10
25.995184
20
34.711806
11
25.901047
21
34.748309
0
LINE
8
hole
62
5
39
2
10
25.901047
20
34.748309
11
25.819566
21
34.807932
0
LINE
8
hole
62
5
39
2
10
25.819566
20
34.807932
11
25.787984
21
34.836873
0
LINE
8
hole
62
5
39
2
10
42.225203
20
33.398802
11
42.193967
21
33.447835
0
LINE
8
hole
62
5
39
2
10
42.193967
20
33.447835
11
42.153018
21
33.540117
0
LINE
8
hole
62
5
39
2
10
42.153018
20
33.540117
11
42.137350
21
33.639852
0
LINE
8
hole
62
5
39
2
10
42.137350
20
33.639852
11
42.148030
21
33.740243
0
LINE
8
hole
62
5
39
2
10
42.148030
20
33.740243
11
42.184327
21
33.834448
0
LINE
8
hole
62
5
39
2
10
42.184327
20
33.834448
11
42.243769
21
33.916047
0
LINE
8
hole
62
5
39
2
10
42.243769
20
33.916047
11
42.322302
21
33.979482
0
LINE
8
hole
62
5
39
2
10
42.322302
20
33.979482
11
42.414578
21
34.020430
0
LINE
8
hole
62
5
39
2
10
42.414578
20
34.020430
11
42.514307
21
34.036100
0
LINE
8
hole
62
5
39
2
10
42.514307
20
34.036100
11
42.614692
21
34.025427
0
LINE
8
hole
62
5
39
2
10
42.614692
20
34.025427
11
42.708896
21
33.989136
0
LINE
8
hole
62
5
39
2
10
42.708896
20
33.989136
11
42.790498
21
33.929701
0
LINE
8
hole
62
5
39
2
10
42.790498
20
33.929701
11
42.853939
21
33.851172
0
LINE
8
hole
62
5
39
2
10
42.853939
20
33.851172
11
42.894893
21
33.758898
0
LINE
8
hole
62
5
39
2
10
42.894893
20
33.758898
11
42.910571
21
33.659167
0
LINE
8
hole
62
5
39
2
10
42.910571
20
33.659167
11
42.899902
21
33.558775
0
LINE
8
hole
62
5
39
2
10
42.899902
20
33.558775
11
42.863613
21
33.464564
0
LINE
8
hole
62
5
39
2
10
42.863613
20
33.464564
11
42.804176
21
33.382955
0
LINE
8
hole
62
5
39
2
10
42.804176
20
33.382955
11
42.725640
21
33.319510
0
LINE
8
hole
62
5
39
2
10
42.725640
20
33.319510
11
42.633358
21
33.278554
0
LINE
8
hole
62
5
39
2
10
42.633358
20
33.278554
11
42.533621
21
33.262879
0
LINE
8
hole
62
5
39
2
10
42.533621
20
33.262879
11
42.433224
21
33.273554
0
LINE
8
hole
62
5
39
2
10
42.433224
20
33.273554
11
42.339012
21
33.309850
0
LINE
8
hole
62
5
39
2
10
42.339012
20
33.309850
11
42.257406
21
33.369294
0
LINE
8
hole
62
5
39
2
10
42.257406
20
33.369294
11
42.225203
21
33.398802
0
LINE
8
hole
62
5
39
2
10
26.718194
20
24.511197
11
26.082965
21
25.046797
0
LINE
8
hole
62
5
39
2
10
26.082965
20
25.046797
11
25.425609
21
27.020973
0
LINE
8
hole
62
5
39
2
10
25.425609
20
27.020973
11
25.111356
21
27.870911
0
LINE
8
hole
62
5
39
2
10
25.111356
20
27.870911
11
25.336436
21
29.400596
0
LINE
8
hole
62
5
39
2
10
25.336436
20
29.400596
11
25.487241
21
30.391600
0
LINE
8
hole
62
5
39
2
10
25.487241
20
30.391600
11
26.092667
21
31.347244
0
LINE
8
hole
62
5
39
2
10
26.092667
20
31.347244
11
26.691224
21
32.153457
0
LINE
8
hole
62
5
39
2
10
26.691224
20
32.153457
11
27.336275
21
32.631416
0
LINE
8
hole
62
5
39
2
10
27.336275
20
32.631416
11
28.235047
21
33.134474
0
LINE
8
hole
62
5
39
2
10
28.235047
20
33.134474
11
28.650386
21
33.317102
0
LINE
8
hole
62
5
39
2
10
28.650386
20
33.317102
11
29.812523
21
33.646706
0
LINE
8
hole
62
5
39
2
10
29.812523
20
33.646706
11
29.999517
21
33.717408
0
LINE
8
hole
62
5
39
2
10
29.999517
20
33.717408
11
30.225540
21
33.792837
0
LINE
8
hole
62
5
39
2
10
30.225540
20
33.792837
11
31.182354
21
34.077673
0
LINE
8
hole
62
5
39
2
10
31.182354
20
34.077673
11
31.505208
21
34.171468
0
LINE
8
hole
62
5
39
2
10
31.505208
20
34.171468
11
31.843026
21
34.258315
0
LINE
8
hole
62
5
39
2
10
31.843026
20
34.258315
11
32.494264
21
34.425414
0
LINE
8
hole
62
5
39
2
10
32.494264
20
34.425414
11
32.678466
21
34.454036
0
LINE
8
hole
62
5
39
2
10
32.678466
20
34.454036
11
33.472050
21
34.588104
0
LINE
8
hole
62
5
39
2
10
33.472050
20
34.588104
11
33.775763
21
34.609799
0
LINE
8
hole
62
5
39
2
10
33.775763
20
34.609799
11
34.474835
21
34.654645
0
LINE
8
hole
62
5
39
2
10
34.474835
20
34.654645
11
34.803672
21
34.652513
0
LINE
8
hole
62
5
39
2
10
34.803672
20
34.652513
11
35.501073
21
34.643073
0
LINE
8
hole
62
5
39
2
10
35.501073
20
34.643073
11
35.768152
21
34.628122
0
LINE
8
hole
62
5
39
2
10
35.768152
20
34.628122
11
36.563271
21
34.561554
0
LINE
8
hole
62
5
39
2
10
36.563271
20
34.561554
11
36.649463
21
34.552173
0
LINE
8
hole
62
5
39
2
10
36.649463
20
34.552173
11
36.909322
21
34.510842
0
LINE
8
hole
62
5
39
2
10
36.909322
20
34.510842
11
37.447159
21
34.409498
0
LINE
8
hole
62
5
39
2
10
37.447159
20
34.409498
11
37.789903
21
34.299239
0
LINE
8
hole
62
5
39
2
10
37.789903
20
34.299239
11
38.828331
21
33.919493
0
LINE
8
hole
62
5
39
2
10
38.828331
20
33.919493
11
39.888101
21
33.165273
0
LINE
8
hole
62
5
39
2
10
39.888101
20
33.165273
11
40.414049
21
32.798568
0
LINE
8
hole
62
5
39
2
10
40.414049
20
32.798568
11
41.368835
21
31.228265
0
LINE
8
hole
62
5
39
2
10
41.368835
20
31.228265
11
41.492190
21
30.986145
0
LINE
8
hole
62
5
39
2
10
41.492190
20
30.986145
11
41.661069
21
28.724427
0
LINE
8
hole
62
5
39
2
10
41.661069
20
28.724427
11
41.663327
21
28.639584
0
LINE
8
hole
62
5
39
2
10
41.663327
20
28.639584
11
41.212882
21
27.524839
0
LINE
8
hole
62
5
39
2
10
41.212882
20
27.524839
11
40.732456
21
26.338754
0
LINE
8
hole
62
5
39
2
10
40.732456
20
26.338754
11
40.672218
21
26.269913
0
LINE
8
hole
62
5
39
2
10
40.672218
20
26.269913
11
40.188992
21
25.765799
0
LINE
8
hole
62
5
39
2
10
40.188992
20
25.765799
11
39.275947
21
24.815694
0
LINE
8
hole
62
5
39
2
10
39.275947
20
24.815694
11
39.168994
21
24.704741
0
LINE
8
hole
62
5
39
2
10
39.168994
20
24.704741
11
38.057837
21
23.986799
0
LINE
8
hole
62
5
39
2
10
38.057837
20
23.986799
11
37.625501
21
23.705650
0
LINE
8
hole
62
5
39
2
10
37.625501
20
23.705650
11
37.570169
21
23.681041
0
LINE
8
hole
62
5
39
2
10
37.570169
20
23.681041
11
36.121953
21
23.080277
0
LINE
8
hole
62
5
39
2
10
36.121953
20
23.080277
11
35.923915
21
23.035194
0
LINE
8
hole
62
5
39
2
10
35.923915
20
23.035194
11
34.539416
21
22.689755
0
LINE
8
hole
62
5
39
2
10
34.539416
20
22.689755
11
34.475767
21
22.683559
0
LINE
8
hole
62
5
39
2
10
34.475767
20
22.683559
11
33.824834
21
22.574576
0
LINE
8
hole
62
5
39
2
10
33.824834
20
22.574576
11
32.885859
21
22.419127
0
LINE
8
hole
62
5
39
2
10
32.885859
20
22.419127
11
32.801027
21
22.402260
0
LINE
8
hole
62
5
39
2
10
32.801027
20
22.402260
11
31.115545
21
22.397704
0
LINE
8
hole
62
5
39
2
10
31.115545
20
22.397704
11
30.770632
21
22.397267
0
LINE
8
hole
62
5
39
2
10
30.770632
20
22.397267
11
28.957499
21
22.919868
0
LINE
8
hole
62
5
39
2
10
28.957499
20
22.919868
11
28.385916
21
23.095250
0
LINE
8
hole
62
5
39
2
10
28.385916
20
23.095250
11
26.718194
21
24.511197
0
LINE
8
boundary
62
5
39
2
10
37.404204
20
19.422055
11
43.242178
21
18.911298
0
LINE
8
boundary
62
5
39
2
10
43.242178
20
18.911298
11
44.250939
21
30.441481
0
LINE
8
boundary
62
5
39
2
10
44.250939
20
30.441481
11
44.654101
21
35.049652
0
LINE
8
boundary
62
5
39
2
10
44.654101
20
35.049652
11
30.080031
21
36.324718
0
LINE
8
boundary
62
5
39
2
10
30.080031
20
36.324718
11
24.232099
21
36.836345
0
LINE
8
boundary
62
5
39
2
10
24.232099
20
36.836345
11
23.224946
21
25.324541
0
LINE
8
boundary
62
5
39
2
10
23.224946
20
25.324541
11
22.820175
21
20.697991
0
LINE
8
boundary
62
5
39
2
10
22.820175
20
20.697991
11
37.404204
21
19.422055
0
LINE
8
annotation
62
1
39
211
10
42.472104
20
27.873699
11
42.472104
21
28.016574
0
LINE
8
annotation
62
1
39
211
10
42.472104
20
27.873699
11
42.472104
21
28.016574
0
LINE
8
annotation
62
1
39
211
10
42.472104
20
28.016574
11
42.472104
21
27.873699
0
LINE
8
annotation
62
1
39
211
10
42.472104
20
27.873699
11
42.472104
21
27.730824
0
LINE
8
annotation
62
1
39
211
10
24.933525
20
27.897512
11
25.076400
21
27.897512
0
LINE
8
annotation
62
1
39
211
10
24.933525
20
27.897512
11
25.076400
21
27.897512
0
LINE
8
annotation
62
1
39
211
10
25.076400
20
27.897512
11
24.933525
21
27.897512
0
LINE
8
annotation
62
1
39
211
10
24.933525
20
27.897512
11
24.933525
21
27.754637
0
LINE
8
annotation
62
1
39
211
10
33.737138
20
35.043840
11
33.737138
21
35.186715
0
LINE
8
annotation
62
1
39
211
10
33.737138
20
20.703803
11
33.880013
21
20.703803
0
LINE
8
annotation
62
1
39
211
10
39.509403
20
21.077546
11
38.199959
21
21.077546
0
LINE
8
annotation
62
1
39
211
10
38.199959
20
21.077546
11
38.722908
21
22.911566
0
LINE
8
annotation
62
1
39
211
10
39.116895
20
20.553266
11
39.116895
21
21.600643
0
LINE
8
hole
62
5
39
2
10
55.861384
20
20.675105
11
55.918534
21
20.675105
0
LINE
8
hole
62
5
39
2
10
55.918534
20
20.675105
11
55.918534
21
20.732255
0
LINE
8
hole
62
5
39
2
10
55.918534
20
20.732255
11
55.861384
21
20.732255
0
LINE
8
hole
62
5
39
2
10
55.861384
20
20.732255
11
55.861384
21
20.675105
0
LINE
8
hole
62
5
39
2
10
47.007357
20
27.869059
11
47.064507
21
27.869059
0
LINE
8
hole
62
5
39
2
10
47.064507
20
27.869059
11
47.064507
21
27.926209
0
LINE
8
hole
62
5
39
2
10
47.064507
20
27.926209
11
47.007357
21
27.926209
0
LINE
8
hole
62
5
39
2
10
47.007357
20
27.926209
11
47.007357
21
27.869059
0
LINE
8
hole
62
5
39
2
10
55.861384
20
35.015143
11
55.918534
21
35.015143
0
LINE
8
hole
62
5
39
2
10
55.918534
20
35.015143
11
55.918534
21
35.072293
0
LINE
8
hole
62
5
39
2
10
55.918534
20
35.072293
11
55.861384
21
35.072293
0
LINE
8
hole
62
5
39
2
10
55.861384
20
35.072293
11
55.861384
21
35.015143
0
LINE
8
hole
62
5
39
2
10
64.593560
20
27.845247
11
64.650710
21
27.845247
0
LINE
8
hole
62
5
39
2
10
64.650710
20
27.845247
11
64.650710
21
27.902397
0
LINE
8
hole
62
5
39
2
10
64.650710
20
27.902397
11
64.593560
21
27.902397
0
LINE
8
hole
62
5
39
2
10
64.593560
20
27.902397
11
64.593560
21
27.845247
0
LINE
8
hole
62
5
39
2
10
46.802984
20
21.847467
11
46.748280
21
21.933332
0
LINE
8
hole
62
5
39
2
10
46.748280
20
21.933332
11
46.717665
21
22.030431
0
LINE
8
hole
62
5
39
2
10
46.717665
20
22.030431
11
46.713225
21
22.132145
0
LINE
8
hole
62
5
39
2
10
46.713225
20
22.132145
11
46.735261
21
22.231541
0
LINE
8
hole
62
5
39
2
10
46.735261
20
22.231541
11
46.782271
21
22.321848
0
LINE
8
hole
62
5
39
2
10
46.782271
20
22.321848
11
46.851054
21
22.396911
0
LINE
8
hole
62
5
39
2
10
46.851054
20
22.396911
11
46.936920
21
22.451613
0
LINE
8
hole
62
5
39
2
10
46.936920
20
22.451613
11
47.034018
21
22.482228
0
LINE
8
hole
62
5
39
2
10
47.034018
20
22.482228
11
47.135732
21
22.486669
0
LINE
8
hole
62
5
39
2
10
47.135732
20
22.486669
11
47.235129
21
22.464633
0
LINE
8
hole
62
5
39
2
10
47.235129
20
22.464633
11
47.325436
21
22.417623
0
LINE
8
hole
62
5
39
2
10
47.325436
20
22.417623
11
47.400498
21
22.348840
0
LINE
8
hole
62
5
39
2
10
47.400498
20
22.348840
11
47.455201
21
22.262974
0
LINE
8
hole
62
5
39
2
10
47.455201
20
22.262974
11
47.485816
21
22.165876
0
LINE
8
hole
62
5
39
2
10
47.485816
20
22.165876
11
47.490257
21
22.064163
0
LINE
8
hole
62
5
39
2
10
47.490257
20
22.064163
11
47.468221
21
21.964766
0
LINE
8
hole
62
5
39
2
10
47.468221
20
21.964766
11
47.421210
21
21.874459
0
LINE
8
hole
62
5
39
2
10
47.421210
20
21.874459
11
47.352428
21
21.799397
0
LINE
8
hole
62
5
39
2
10
47.352428
20
21.799397
11
47.266562
21
21.744693
0
LINE
8
hole
62
5
39
2
10
47.266562
20
21.744693
11
47.169464
21
21.714078
0
LINE
8
hole
62
5
39
2
10
47.169464
20
21.714078
11
47.067751
21
21.709637
0
LINE
8
hole
62
5
39
2
10
47.067751
20
21.709637
11
46.968353
21
21.731673
0
LINE
8
hole
62
5
39
2
10
46.968353
20
21.731673
11
46.878046
21
21.778684
0
LINE
8
hole
62
5
39
2
10
46.878046
20
21.778684
11
46.802984
21
21.847467
0
LINE
8
hole
62
5
39
2
10
63.240204
20
20.409396
11
63.185502
21
20.495262
0
LINE
8
hole
62
5
39
2
10
63.185502
20
20.495262
11
63.154887
21
20.592360
0
LINE
8
hole
62
5
39
2
10
63.154887
20
20.592360
11
63.150445
21
20.694074
0
LINE
8
hole
62
5
39
2
10
63.150445
20
20.694074
11
63.172481
21
20.793471
0
LINE
8
hole
62
5
39
2
10
63.172481
20
20.793471
11
63.219492
21
20.883778
0
LINE
8
hole
62
5
39
2
10
63.219492
20
20.883778
11
63.288274
21
20.958840
0
LINE
8
hole
62
5
39
2
10
63.288274
20
20.958840
11
63.374140
21
21.013543
0
LINE
8
hole
62
5
39
2
10
63.374140
20
21.013543
11
63.471239
21
21.044158
0
LINE
8
hole
62
5
39
2
10
63.471239
20
21.044158
11
63.572952
21
21.048599
0
LINE
8
hole
62
5
39
2
10
63.572952
20
21.048599
11
63.672349
21
21.026563
0
LINE
8
hole
62
5
39
2
10
63.672349
20
21.026563
11
63.762656
21
20.979552
0
LINE
8
hole
62
5
39
2
10
63.762656
20
20.979552
11
63.837719
21
20.910770
0
LINE
8
hole
62
5
39
2
10
63.837719
20
20.910770
11
63.892421
21
20.824904
0
LINE
8
hole
62
5
39
2
10
63.892421
20
20.824904
11
63.923036
21
20.727806
0
LINE
8
hole
62
5
39
2
10
63.923036
20
20.727806
11
63.927478
21
20.626092
0
LINE
8
hole
62
5
39
2
10
63.927478
20
20.626092
11
63.905441
21
20.526695
0
LINE
8
hole
62
5
39
2
10
63.905441
20
20.526695
11
63.858431
21
20.436388
0
LINE
8
hole
62
5
39
2
10
63.858431
20
20.436388
11
63.789649
21
20.361325
0
LINE
8
hole
62
5
39
2
10
63.789649
20
20.361325
11
63.703783
21
20.306623
0
LINE
8
hole
62
5
39
2
10
63.703783
20
20.306623
11
63.606684
21
20.276008
0
LINE
8
hole
62
5
39
2
10
63.606684
20
20.276008
11
63.504971
21
20.271567
0
LINE
8
hole
62
5
39
2
10
63.504971
20
20.271567
11
63.405574
21
20.293603
0
LINE
8
hole
62
5
39
2
10
63.405574
20
20.293603
11
63.315266
21
20.340614
0
LINE
8
hole
62
5
39
2
10
63.315266
20
20.340614
11
63.240204
21
20.409396
0
LINE
8
hole
62
5
39
2
10
47.939409
20
34.836873
11
47.884707
21
34.922739
0
LINE
8
hole
62
5
39
2
10
47.884707
20
34.922739
11
47.854092
21
35.019837
0
LINE
8
hole
62
5
39
2
10
47.854092
20
35.019837
11
47.849651
21
35.121551
0
LINE
8
hole
62
5
39
2
10
47.849651
20
35.121551
11
47.871686
21
35.220948
0
LINE
8
hole
62
5
39
2
10
47.871686
20
35.220948
11
47.918697
21
35.311255
0
LINE
8
hole
62
5
39
2
10
47.918697
20
35.311255
11
47.987480
21
35.386318
0
LINE
8
hole
62
5
39
2
10
47.987480
20
35.386318
11
48.073346
21
35.441020
0
LINE
8
hole
62
5
39
2
10
48.073346
20
35.441020
11
48.170444
21
35.471636
0
LINE
8
hole
62
5
39
2
10
48.170444
20
35.471636
11
48.272157
21
35.476076
0
LINE
8
hole
62
5
39
2
10
48.272157
20
35.476076
11
48.371555
21
35.454040
0
LINE
8
hole
62
5
39
2
10
48.371555
20
35.454040
11
48.461861
21
35.407030
0
LINE
8
hole
62
5
39
2
10
48.461861
20
35.407030
11
48.536924
21
35.338247
0
LINE
8
hole
62
5
39
2
10
48.536924
20
35.338247
11
48.591627
21
35.252381
0
LINE
8
hole
62
5
39
2
10
48.591627
20
35.252381
11
48.622242
21
35.155283
0
LINE
8
hole
62
5
39
2
10
48.622242
20
35.155283
11
48.626683
21
35.053570
0
LINE
8
hole
62
5
39
2
10
48.626683
20
35.053570
11
48.604647
21
34.954172
0
LINE
8
hole
62
5
39
2
10
48.604647
20
34.954172
11
48.557636
21
34.863866
0
LINE
8
hole
62
5
39
2
10
48.557636
20
34.863866
11
48.488855
21
34.788803
0
LINE
8
hole
62
5
39
2
10
48.488855
20
34.788803
11
48.402988
21
34.734100
0
LINE
8
hole
62
5
39
2
10
48.402988
20
34.734100
11
48.305890
21
34.703485
0
LINE
8
hole
62
5
39
2
10
48.305890
20
34.703485
11
48.204177
21
34.699044
0
LINE
8
hole
62
5
39
2
10
48.204177
20
34.699044
11
48.104779
21
34.721080
0
LINE
8
hole
62
5
39
2
10
48.104779
20
34.721080
11
48.014472
21
34.768091
0
LINE
8
hole
62
5
39
2
10
48.014472
20
34.768091
11
47.939409
21
34.836873
0
LINE
8
hole
62
5
39
2
10
64.376630
20
33.398802
11
64.321927
21
33.484669
0
LINE
8
hole
62
5
39
2
10
64.321927
20
33.484669
11
64.291312
21
33.581767
0
LINE
8
hole
62
5
39
2
10
64.291312
20
33.581767
11
64.286871
21
33.683480
0
LINE
8
hole
62
5
39
2
10
64.286871
20
33.683480
11
64.308907
21
33.782878
0
LINE
8
hole
62
5
39
2
10
64.308907
20
33.782878
11
64.355918
21
33.873185
0
LINE
8
hole
62
5
39
2
10
64.355918
20
33.873185
11
64.424700
21
33.948247
0
LINE
8
hole
62
5
39
2
10
64.424700
20
33.948247
11
64.510566
21
34.002950
0
LINE
8
hole
62
5
39
2
10
64.510566
20
34.002950
11
64.607664
21
34.033565
0
LINE
8
hole
62
5
39
2
10
64.607664
20
34.033565
11
64.709378
21
34.038006
0
LINE
8
hole
62
5
39
2
10
64.709378
20
34.038006
11
64.808775
21
34.015970
0
LINE
8
hole
62
5
39
2
10
64.808775
20
34.015970
11
64.899083
21
33.968959
0
LINE
8
hole
62
5
39
2
10
64.899083
20
33.968959
11
64.974144
21
33.900177
0
LINE
8
hole
62
5
39
2
10
64.974144
20
33.900177
11
65.028848
21
33.814311
0
LINE
8
hole
62
5
39
2
10
65.028848
20
33.814311
11
65.059462
21
33.717213
0
LINE
8
hole
62
5
39
2
10
65.059462
20
33.717213
11
65.063904
21
33.615499
0
LINE
8
hole
62
5
39
2
10
65.063904
20
33.615499
11
65.041868
21
33.516102
0
LINE
8
hole
62
5
39
2
10
65.041868
20
33.516102
11
64.994857
21
33.425795
0
LINE
8
hole
62
5
39
2
10
64.994857
20
33.425795
11
64.926075
21
33.350732
0
LINE
8
hole
62
5
39
2
10
64.926075
20
33.350732
11
64.840208
21
33.296029
0
LINE
8
hole
62
5
39
2
10
64.840208
20
33.296029
11
64.743110
21
33.265414
0
LINE
8
hole
62
5
39
2
10
64.743110
20
33.265414
11
64.641396
21
33.260973
0
LINE
8
hole
62
5
39
2
10
64.641396
20
33.260973
11
64.541999
21
33.283010
0
LINE
8
hole
62
5
39
2
10
64.541999
20
33.283010
11
64.451692
21
33.330020
0
LINE
8
hole
62
5
39
2
10
64.451692
20
33.330020
11
64.376630
21
33.398802
0
LINE
8
hole
62
5
39
2
10
49.898406
20
23.488203
11
48.179587
21
24.943801
0
LINE
8
hole
62
5
39
2
10
48.179587
20
24.943801
11
47.978183
21
25.546394
0
LINE
8
hole
62
5
39
2
10
47.978183
20
25.546394
11
47.227718
21
27.790829
0
LINE
8
hole
62
5
39
2
10
47.227718
20
27.790829
11
47.286592
21
28.175501
0
LINE
8
hole
62
5
39
2
10
47.286592
20
28.175501
11
47.586665
21
30.259785
0
LINE
8
hole
62
5
39
2
10
47.586665
20
30.259785
11
47.648017
21
30.376198
0
LINE
8
hole
62
5
39
2
10
47.648017
20
30.376198
11
48.682402
21
32.006177
0
LINE
8
hole
62
5
39
2
10
48.682402
20
32.006177
11
48.927386
21
32.192025
0
LINE
8
hole
62
5
39
2
10
48.927386
20
32.192025
11
49.939031
21
32.941616
0
LINE
8
hole
62
5
39
2
10
49.939031
20
32.941616
11
50.103207
21
33.033508
0
LINE
8
hole
62
5
39
2
10
50.103207
20
33.033508
11
51.071154
21
33.459122
0
LINE
8
hole
62
5
39
2
10
51.071154
20
33.459122
11
51.493849
21
33.579006
0
LINE
8
hole
62
5
39
2
10
51.493849
20
33.579006
11
52.085151
21
33.802577
0
LINE
8
hole
62
5
39
2
10
52.085151
20
33.802577
11
52.638317
21
33.987181
0
LINE
8
hole
62
5
39
2
10
52.638317
20
33.987181
11
52.722608
21
34.020118
0
LINE
8
hole
62
5
39
2
10
52.722608
20
34.020118
11
52.792438
21
34.047496
0
LINE
8
hole
62
5
39
2
10
52.792438
20
34.047496
11
53.001245
21
34.111970
0
LINE
8
hole
62
5
39
2
10
53.001245
20
34.111970
11
53.664505
21
34.323846
0
LINE
8
hole
62
5
39
2
10
53.664505
20
34.323846
11
54.376512
21
34.496414
0
LINE
8
hole
62
5
39
2
10
54.376512
20
34.496414
11
54.563841
21
34.544480
0
LINE
8
hole
62
5
39
2
10
54.563841
20
34.544480
11
55.443509
21
34.681164
0
LINE
8
hole
62
5
39
2
10
55.443509
20
34.681164
11
55.498764
21
34.690499
0
LINE
8
hole
62
5
39
2
10
55.498764
20
34.690499
11
56.431665
21
34.757138
0
LINE
8
hole
62
5
39
2
10
56.431665
20
34.757138
11
57.029246
21
34.755669
0
LINE
8
hole
62
5
39
2
10
57.029246
20
34.755669
11
57.433829
21
34.753046
0
LINE
8
hole
62
5
39
2
10
57.433829
20
34.753046
11
58.298568
21
34.704691
0
LINE
8
hole
62
5
39
2
10
58.298568
20
34.704691
11
58.373782
21
34.698394
0
LINE
8
hole
62
5
39
2
10
58.373782
20
34.698394
11
58.977547
21
34.632681
0
LINE
8
hole
62
5
39
2
10
58.977547
20
34.632681
11
59.209084
21
34.595854
0
LINE
8
hole
62
5
39
2
10
59.209084
20
34.595854
11
59.828410
21
34.471490
0
LINE
8
hole
62
5
39
2
10
59.828410
20
34.471490
11
61.162287
21
34.007478
0
LINE
8
hole
62
5
39
2
10
61.162287
20
34.007478
11
61.236646
21
33.977744
0
LINE
8
hole
62
5
39
2
10
61.236646
20
33.977744
11
62.649442
21
32.890082
0
LINE
8
hole
62
5
39
2
10
62.649442
20
32.890082
11
62.982939
21
32.418490
0
LINE
8
hole
62
5
39
2
10
62.982939
20
32.418490
11
63.745872
21
31.150378
0
LINE
8
hole
62
5
39
2
10
63.745872
20
31.150378
11
63.921594
21
30.091705
0
LINE
8
hole
62
5
39
2
10
63.921594
20
30.091705
11
64.019000
21
28.768361
0
LINE
8
hole
62
5
39
2
10
64.019000
20
28.768361
11
63.499625
21
27.296606
0
LINE
8
hole
62
5
39
2
10
63.499625
20
27.296606
11
63.108603
21
26.331245
0
LINE
8
hole
62
5
39
2
10
63.108603
20
26.331245
11
62.211197
21
25.305675
0
LINE
8
hole
62
5
39
2
10
62.211197
20
25.305675
11
61.534523
21
24.599750
0
LINE
8
hole
62
5
39
2
10
61.534523
20
24.599750
11
60.617940
21
23.943430
0
LINE
8
hole
62
5
39
2
10
60.617940
20
23.943430
11
59.978491
21
23.527594
0
LINE
8
hole
62
5
39
2
10
59.978491
20
23.527594
11
58.877735
21
23.038041
0
LINE
8
hole
62
5
39
2
10
58.877735
20
23.038041
11
58.435347
21
22.854525
0
LINE
8
hole
62
5
39
2
10
58.435347
20
22.854525
11
57.317157
21
22.599970
0
LINE
8
hole
62
5
39
2
10
57.317157
20
22.599970
11
56.784160
21
22.466986
0
LINE
8
hole
62
5
39
2
10
56.784160
20
22.466986
11
55.734697
21
22.364821
0
LINE
8
hole
62
5
39
2
10
55.734697
20
22.364821
11
54.986849
21
22.239612
0
LINE
8
hole
62
5
39
2
10
54.986849
20
22.239612
11
54.038071
21
22.266325
0
LINE
8
hole
62
5
39
2
10
54.038071
20
22.266325
11
52.930776
21
22.260601
0
LINE
8
hole
62
5
39
2
10
52.930776
20
22.260601
11
52.105158
21
22.503429
0
LINE
8
hole
62
5
39
2
10
52.105158
20
22.503429
11
50.513360
21
22.960395
0
LINE
8
hole
62
5
39
2
10
50.513360
20
22.960395
11
49.898406
21
23.488203
0
LINE
8
boundary
62
5
39
2
10
57.965439
20
19.561178
11
65.393603
21
18.911298
0
LINE
8
boundary
62
5
39
2
10
65.393603
20
18.911298
11
66.292548
21
29.186275
0
LINE
8
boundary
62
5
39
2
10
66.292548
20
29.186275
11
66.805527
21
35.049652
0
LINE
8
boundary
62
5
39
2
10
66.805527
20
35.049652
11
53.818029
21
36.185911
0
LINE
8
boundary
62
5
39
2
10
53.818029
20
36.185911
11
46.383525
21
36.836345
0
LINE
8
boundary
62
5
39
2
10
46.383525
20
36.836345
11
45.486188
21
26.579748
0
LINE
8
boundary
62
5
39
2
10
45.486188
20
26.579748
11
44.971601
21
20.697991
0
LINE
8
boundary
62
5
39
2
10
44.971601
20
20.697991
11
57.965439
21
19.561178
0
LINE
8
annotation
62
1
39
211
10
55.889959
20
35.043718
11
55.889959
21
35.186593
0
LINE
8
annotation
62
1
39
211
10
55.889959
20
20.703680
11
56.032834
21
20.703680
0
LINE
8
annotation
62
1
39
211
10
64.622135
20
27.873822
11
64.622135
21
28.016697
0
LINE
8
annotation
62
1
39
211
10
64.622135
20
27.873822
11
64.622135
21
28.016697
0
LINE
8
annotation
62
1
39
211
10
64.622135
20
28.016697
11
64.622135
21
27.873822
0
LINE
8
annotation
62
1
39
211
10
64.622135
20
27.873822
11
64.765010
21
27.873822
0
LINE
8
annotation
62
1
39
211
10
47.035932
20
27.897634
11
47.035932
21
27.754759
0
LINE
8
annotation
62
1
39
211
10
63.719649
20
22.207351
11
64.417900
21
22.207351
0
LINE
8
annotation
62
1
39
211
10
64.417900
20
22.207351
11
64.417900
21
22.207351
0
LINE
8
annotation
62
1
39
211
10
64.417900
20
22.207351
11
64.543223
21
22.218619
0
LINE
8
annotation
62
1
39
211
10
64.543223
20
22.218619
11
64.661253
21
22.251104
0
LINE
8
annotation
62
1
39
211
10
64.661253
20
22.251104
11
64.770002
21
22.302828
0
LINE
8
annotation
62
1
39
211
10
64.770002
20
22.302828
11
64.867479
21
22.371812
0
LINE
8
annotation
62
1
39
211
10
64.867479
20
22.371812
11
64.951695
21
22.456078
0
LINE
8
annotation
62
1
39
211
10
64.951695
20
22.456078
11
65.020660
21
22.553647
0
LINE
8
annotation
62
1
39
211
10
65.020660
20
22.553647
11
65.072385
21
22.662541
0
LINE
8
annotation
62
1
39
211
10
65.072385
20
22.662541
11
65.104878
21
22.780782
0
LINE
8
annotation
62
1
39
211
10
65.104878
20
22.780782
11
65.116152
21
22.906392
0
LINE
8
annotation
62
1
39
211
10
65.116152
20
22.906392
11
65.116152
21
23.254236
0
LINE
8
annotation
62
1
39
211
10
65.116152
20
23.254236
11
65.116152
21
23.254236
0
LINE
8
annotation
62
1
39
211
10
65.116152
20
23.254236
11
65.104885
21
23.379784
0
LINE
8
annotation
62
1
39
211
10
65.104885
20
23.379784
11
65.072407
21
23.497862
0
LINE
8
annotation
62
1
39
211
10
65.072407
20
23.497862
11
65.020704
21
23.606520
0
LINE
8
annotation
62
1
39
211
10
65.020704
20
23.606520
11
64.951760
21
23.703809
0
LINE
8
annotation
62
1
39
211
10
64.951760
20
23.703809
11
64.867561
21
23.787781
0
LINE
8
annotation
62
1
39
211
10
64.867561
20
23.787781
11
64.770090
21
23.856485
0
LINE
8
annotation
62
1
39
211
10
64.770090
20
23.856485
11
64.661333
21
23.907972
0
LINE
8
annotation
62
1
39
211
10
64.661333
20
23.907972
11
64.543275
21
23.940294
0
LINE
8
annotation
62
1
39
211
10
64.543275
20
23.940294
11
64.417900
21
23.951501
0
LINE
8
annotation
62
1
39
211
10
64.417900
20
23.951501
11
63.719649
21
23.951501
0
LINE
8
annotation
62
1
39
211
10
63.719649
20
23.951501
11
63.719649
21
25.351751
0
LINE
8
annotation
62
1
39
211
10
63.719649
20
25.351751
11
65.116152
21
25.351751
0
LINE
8
hole
62
5
39
2
10
69.206407
20
27.869059
11
69.263557
21
27.869059
0
LINE
8
hole
62
5
39
2
10
69.263557
20
27.869059
11
69.263557
21
27.926209
0
LINE
8
hole
62
5
39
2
10
69.263557
20
27.926209
11
69.206407
21
27.926209
0
LINE
8
hole
62
5
39
2
10
69.206407
20
27.926209
11
69.206407
21
27.869059
0
LINE
8
hole
62
5
39
2
10
78.012810
20
35.015143
11
78.069960
21
35.015143
0
LINE
8
hole
62
5
39
2
10
78.069960
20
35.015143
11
78.069960
21
35.072293
0
LINE
8
hole
62
5
39
2
10
78.069960
20
35.072293
11
78.012810
21
35.072293
0
LINE
8
hole
62
5
39
2
10
78.012810
20
35.072293
11
78.012810
21
35.015143
0
LINE
8
hole
62
5
39
2
10
78.012810
20
20.675105
11
78.069960
21
20.675105
0
LINE
8
hole
62
5
39
2
10
78.069960
20
20.675105
11
78.069960
21
20.732255
0
LINE
8
hole
62
5
39
2
10
78.069960
20
20.732255
11
78.012810
21
20.732255
0
LINE
8
hole
62
5
39
2
10
78.012810
20
20.732255
11
78.012810
21
20.675105
0
LINE
8
hole
62
5
39
2
10
86.744986
20
27.845247
11
86.802136
21
27.845247
0
LINE
8
hole
62
5
39
2
10
86.802136
20
27.845247
11
86.802136
21
27.902397
0
LINE
8
hole
62
5
39
2
10
86.802136
20
27.902397
11
86.744986
21
27.902397
0
LINE
8
hole
62
5
39
2
10
86.744986
20
27.902397
11
86.744986
21
27.845247
0
LINE
8
hole
62
5
39
2
10
68.954410
20
21.847467
11
68.906310
21
21.922967
0
LINE
8
hole
62
5
39
2
10
68.906310
20
21.922967
11
68.872786
21
22.018711
0
LINE
8
hole
62
5
39
2
10
68.872786
20
22.018711
11
68.865187
21
22.119869
0
LINE
8
hole
62
5
39
2
10
68.865187
20
22.119869
11
68.884027
21
22.219545
0
LINE
8
hole
62
5
39
2
10
68.884027
20
22.219545
11
68.928023
21
22.310948
0
LINE
8
hole
62
5
39
2
10
68.928023
20
22.310948
11
68.994175
21
22.387848
0
LINE
8
hole
62
5
39
2
10
68.994175
20
22.387848
11
69.077975
21
22.445006
0
LINE
8
hole
62
5
39
2
10
69.077975
20
22.445006
11
69.173712
21
22.478529
0
LINE
8
hole
62
5
39
2
10
69.173712
20
22.478529
11
69.274864
21
22.486132
0
LINE
8
hole
62
5
39
2
10
69.274864
20
22.486132
11
69.374536
21
22.467298
0
LINE
8
hole
62
5
39
2
10
69.374536
20
22.467298
11
69.465938
21
22.423309
0
LINE
8
hole
62
5
39
2
10
69.465938
20
22.423309
11
69.542841
21
22.357164
0
LINE
8
hole
62
5
39
2
10
69.542841
20
22.357164
11
69.600006
21
22.273368
0
LINE
8
hole
62
5
39
2
10
69.600006
20
22.273368
11
69.633536
21
22.177631
0
LINE
8
hole
62
5
39
2
10
69.633536
20
22.177631
11
69.641146
21
22.076477
0
LINE
8
hole
62
5
39
2
10
69.641146
20
22.076477
11
69.622315
21
21.976799
0
LINE
8
hole
62
5
39
2
10
69.622315
20
21.976799
11
69.578327
21
21.885390
0
LINE
8
hole
62
5
39
2
10
69.578327
20
21.885390
11
69.512178
21
21.808480
0
LINE
8
hole
62
5
39
2
10
69.512178
20
21.808480
11
69.428376
21
21.751311
0
LINE
8
hole
62
5
39
2
10
69.428376
20
21.751311
11
69.332632
21
21.717781
0
LINE
8
hole
62
5
39
2
10
69.332632
20
21.717781
11
69.231471
21
21.710175
0
LINE
8
hole
62
5
39
2
10
69.231471
20
21.710175
11
69.131789
21
21.729011
0
LINE
8
hole
62
5
39
2
10
69.131789
20
21.729011
11
69.040380
21
21.773006
0
LINE
8
hole
62
5
39
2
10
69.040380
20
21.773006
11
68.963473
21
21.839162
0
LINE
8
hole
62
5
39
2
10
68.963473
20
21.839162
11
68.954410
21
21.847467
0
LINE
8
hole
62
5
39
2
10
70.090836
20
34.836873
11
70.042736
21
34.912374
0
LINE
8
hole
62
5
39
2
10
70.042736
20
34.912374
11
70.009213
21
35.008119
0
LINE
8
hole
62
5
39
2
10
70.009213
20
35.008119
11
70.001612
21
35.109276
0
LINE
8
hole
62
5
39
2
10
70.001612
20
35.109276
11
70.020453
21
35.208953
0
LINE
8
hole
62
5
39
2
10
70.020453
20
35.208953
11
70.064449
21
35.300355
0
LINE
8
hole
62
5
39
2
10
70.064449
20
35.300355
11
70.130601
21
35.377255
0
LINE
8
hole
62
5
39
2
10
70.130601
20
35.377255
11
70.214402
21
35.434414
0
LINE
8
hole
62
5
39
2
10
70.214402
20
35.434414
11
70.310139
21
35.467936
0
LINE
8
hole
62
5
39
2
10
70.310139
20
35.467936
11
70.411289
21
35.475540
0
LINE
8
hole
62
5
39
2
10
70.411289
20
35.475540
11
70.510962
21
35.456704
0
LINE
8
hole
62
5
39
2
10
70.510962
20
35.456704
11
70.602364
21
35.412716
0
LINE
8
hole
62
5
39
2
10
70.602364
20
35.412716
11
70.679267
21
35.346570
0
LINE
8
hole
62
5
39
2
10
70.679267
20
35.346570
11
70.736432
21
35.262775
0
LINE
8
hole
62
5
39
2
10
70.736432
20
35.262775
11
70.769961
21
35.167037
0
LINE
8
hole
62
5
39
2
10
70.769961
20
35.167037
11
70.777571
21
35.065883
0
LINE
8
hole
62
5
39
2
10
70.777571
20
35.065883
11
70.758740
21
34.966206
0
LINE
8
hole
62
5
39
2
10
70.758740
20
34.966206
11
70.714752
21
34.874796
0
LINE
8
hole
62
5
39
2
10
70.714752
20
34.874796
11
70.648603
21
34.797886
0
LINE
8
hole
62
5
39
2
10
70.648603
20
34.797886
11
70.564802
21
34.740717
0
LINE
8
hole
62
5
39
2
10
70.564802
20
34.740717
11
70.469058
21
34.707188
0
LINE
8
hole
62
5
39
2
10
70.469058
20
34.707188
11
70.367896
21
34.699581
0
LINE
8
hole
62
5
39
2
10
70.367896
20
34.699581
11
70.268216
21
34.718418
0
LINE
8
hole
62
5
39
2
10
70.268216
20
34.718418
11
70.176806
21
34.762413
0
LINE
8
hole
62
5
39
2
10
70.176806
20
34.762413
11
70.099899
21
34.828568
0
LINE
8
hole
62
5
39
2
10
70.099899
20
34.828568
11
70.090836
21
34.836873
0
LINE
8
hole
62
5
39
2
10
85.391630
20
20.409396
11
85.343982
21
20.484188
0
LINE
8
hole
62
5
39
2
10
85.343982
20
20.484188
11
85.310260
21
20.579840
0
LINE
8
hole
62
5
39
2
10
85.310260
20
20.579840
11
85.302444
21
20.680960
0
LINE
8
hole
62
5
39
2
10
85.302444
20
20.680960
11
85.321065
21
20.780654
0
LINE
8
hole
62
5
39
2
10
85.321065
20
20.780654
11
85.364855
21
20.872132
0
LINE
8
hole
62
5
39
2
10
85.364855
20
20.872132
11
85.430828
21
20.949158
0
LINE
8
hole
62
5
39
2
10
85.430828
20
20.949158
11
85.514488
21
21.006485
0
LINE
8
hole
62
5
39
2
10
85.514488
20
21.006485
11
85.610133
21
21.040206
0
LINE
8
hole
62
5
39
2
10
85.610133
20
21.040206
11
85.711244
21
21.048026
0
LINE
8
hole
62
5
39
2
10
85.711244
20
21.048026
11
85.810936
21
21.029410
0
LINE
8
hole
62
5
39
2
10
85.810936
20
21.029410
11
85.902412
21
20.985627
0
LINE
8
hole
62
5
39
2
10
85.902412
20
20.985627
11
85.979443
21
20.919661
0
LINE
8
hole
62
5
39
2
10
85.979443
20
20.919661
11
86.036775
21
20.836006
0
LINE
8
hole
62
5
39
2
10
86.036775
20
20.836006
11
86.070504
21
20.740362
0
LINE
8
hole
62
5
39
2
10
86.070504
20
20.740362
11
86.078329
21
20.639246
0
LINE
8
hole
62
5
39
2
10
86.078329
20
20.639246
11
86.059718
21
20.539549
0
LINE
8
hole
62
5
39
2
10
86.059718
20
20.539549
11
86.015935
21
20.448065
0
LINE
8
hole
62
5
39
2
10
86.015935
20
20.448065
11
85.949967
21
20.371029
0
LINE
8
hole
62
5
39
2
10
85.949967
20
20.371029
11
85.866305
21
20.313692
0
LINE
8
hole
62
5
39
2
10
85.866305
20
20.313692
11
85.770654
21
20.279963
0
LINE
8
hole
62
5
39
2
10
85.770654
20
20.279963
11
85.669532
21
20.272140
0
LINE
8
hole
62
5
39
2
10
85.669532
20
20.272140
11
85.569830
21
20.290758
0
LINE
8
hole
62
5
39
2
10
85.569830
20
20.290758
11
85.478346
21
20.334548
0
LINE
8
hole
62
5
39
2
10
85.478346
20
20.334548
11
85.401313
21
20.400524
0
LINE
8
hole
62
5
39
2
10
85.401313
20
20.400524
11
85.391630
21
20.409396
0
LINE
8
hole
62
5
39
2
10
86.528056
20
33.398802
11
86.480408
21
33.473596
0
LINE
8
hole
62
5
39
2
10
86.480408
20
33.473596
11
86.446686
21
33.569247
0
LINE
8
hole
62
5
39
2
10
86.446686
20
33.569247
11
86.438870
21
33.670367
0
LINE
8
hole
62
5
39
2
10
86.438870
20
33.670367
11
86.457492
21
33.770062
0
LINE
8
hole
62
5
39
2
10
86.457492
20
33.770062
11
86.501282
21
33.861539
0
LINE
8
hole
62
5
39
2
10
86.501282
20
33.861539
11
86.567254
21
33.938565
0
LINE
8
hole
62
5
39
2
10
86.567254
20
33.938565
11
86.650913
21
33.995892
0
LINE
8
hole
62
5
39
2
10
86.650913
20
33.995892
11
86.746558
21
34.029614
0
LINE
8
hole
62
5
39
2
10
86.746558
20
34.029614
11
86.847671
21
34.037432
0
LINE
8
hole
62
5
39
2
10
86.847671
20
34.037432
11
86.947362
21
34.018816
0
LINE
8
hole
62
5
39
2
10
86.947362
20
34.018816
11
87.038839
21
33.975033
0
LINE
8
hole
62
5
39
2
10
87.038839
20
33.975033
11
87.115868
21
33.909067
0
LINE
8
hole
62
5
39
2
10
87.115868
20
33.909067
11
87.173201
21
33.825412
0
LINE
8
hole
62
5
39
2
10
87.173201
20
33.825412
11
87.206930
21
33.729768
0
LINE
8
hole
62
5
39
2
10
87.206930
20
33.729768
11
87.214755
21
33.628652
0
LINE
8
hole
62
5
39
2
10
87.214755
20
33.628652
11
87.196143
21
33.528955
0
LINE
8
hole
62
5
39
2
10
87.196143
20
33.528955
11
87.152362
21
33.437471
0
LINE
8
hole
62
5
39
2
10
87.152362
20
33.437471
11
87.086392
21
33.360435
0
LINE
8
hole
62
5
39
2
10
87.086392
20
33.360435
11
87.002731
21
33.303099
0
LINE
8
hole
62
5
39
2
10
87.002731
20
33.303099
11
86.907080
21
33.269370
0
LINE
8
hole
62
5
39
2
10
86.907080
20
33.269370
11
86.805957
21
33.261547
0
LINE
8
hole
62
5
39
2
10
86.805957
20
33.261547
11
86.706256
21
33.280165
0
LINE
8
hole
62
5
39
2
10
86.706256
20
33.280165
11
86.614771
21
33.323954
0
LINE
8
hole
62
5
39
2
10
86.614771
20
33.323954
11
86.537738
21
33.389930
0
LINE
8
hole
62
5
39
2
10
86.537738
20
33.389930
11
86.528056
21
33.398802
0
LINE
8
hole
62
5
39
2
10
72.259505
20
23.639990
11
70.463633
21
25.154200
0
LINE
8
hole
62
5
39
2
10
70.463633
20
25.154200
11
70.277295
21
25.713812
0
LINE
8
hole
62
5
39
2
10
70.277295
20
25.713812
11
69.456445
21
27.933912
0
LINE
8
hole
62
5
39
2
10
69.456445
20
27.933912
11
69.518383
21
28.354857
0
LINE
8
hole
62
5
39
2
10
69.518383
20
28.354857
11
69.847276
21
30.516139
0
LINE
8
hole
62
5
39
2
10
69.847276
20
30.516139
11
69.928609
21
30.644520
0
LINE
8
hole
62
5
39
2
10
69.928609
20
30.644520
11
71.155882
21
32.297567
0
LINE
8
hole
62
5
39
2
10
71.155882
20
32.297567
11
71.439162
21
32.461909
0
LINE
8
hole
62
5
39
2
10
71.439162
20
32.461909
11
72.591752
21
33.109993
0
LINE
8
hole
62
5
39
2
10
72.591752
20
33.109993
11
72.790393
21
33.210712
0
LINE
8
hole
62
5
39
2
10
72.790393
20
33.210712
11
74.009246
21
33.561130
0
LINE
8
hole
62
5
39
2
10
74.009246
20
33.561130
11
74.391007
21
33.648113
0
LINE
8
hole
62
5
39
2
10
74.391007
20
33.648113
11
75.312933
21
33.887392
0
LINE
8
hole
62
5
39
2
10
75.312933
20
33.887392
11
75.775552
21
34.021792
0
LINE
8
hole
62
5
39
2
10
75.775552
20
34.021792
11
76.033655
21
34.088145
0
LINE
8
hole
62
5
39
2
10
76.033655
20
34.088145
11
76.865468
21
34.314375
0
LINE
8
hole
62
5
39
2
10
76.865468
20
34.314375
11
77.424529
21
34.408325
0
LINE
8
hole
62
5
39
2
10
77.424529
20
34.408325
11
77.892513
21
34.490737
0
LINE
8
hole
62
5
39
2
10
77.892513
20
34.490737
11
78.550955
21
34.532470
0
LINE
8
hole
62
5
39
2
10
78.550955
20
34.532470
11
78.937000
21
34.553204
0
LINE
8
hole
62
5
39
2
10
78.937000
20
34.553204
11
79.592743
21
34.544770
0
LINE
8
hole
62
5
39
2
10
79.592743
20
34.544770
11
80.016502
21
34.515161
0
LINE
8
hole
62
5
39
2
10
80.016502
20
34.515161
11
80.562525
21
34.467072
0
LINE
8
hole
62
5
39
2
10
80.562525
20
34.467072
11
81.189444
21
34.355488
0
LINE
8
hole
62
5
39
2
10
81.189444
20
34.355488
11
81.519589
21
34.293279
0
LINE
8
hole
62
5
39
2
10
81.519589
20
34.293279
11
82.822478
21
33.874146
0
LINE
8
hole
62
5
39
2
10
82.822478
20
33.874146
11
82.909582
21
33.827071
0
LINE
8
hole
62
5
39
2
10
82.909582
20
33.827071
11
84.583448
21
32.660006
0
LINE
8
hole
62
5
39
2
10
84.583448
20
32.660006
11
84.936536
21
32.079295
0
LINE
8
hole
62
5
39
2
10
84.936536
20
32.079295
11
85.584622
21
30.807229
0
LINE
8
hole
62
5
39
2
10
85.584622
20
30.807229
11
85.653210
21
29.888670
0
LINE
8
hole
62
5
39
2
10
85.653210
20
29.888670
11
85.688675
21
28.556158
0
LINE
8
hole
62
5
39
2
10
85.688675
20
28.556158
11
85.301751
21
27.598614
0
LINE
8
hole
62
5
39
2
10
85.301751
20
27.598614
11
84.781752
21
26.412120
0
LINE
8
hole
62
5
39
2
10
84.781752
20
26.412120
11
84.181482
21
25.787485
0
LINE
8
hole
62
5
39
2
10
84.181482
20
25.787485
11
83.286705
21
24.859255
0
LINE
8
hole
62
5
39
2
10
83.286705
20
24.859255
11
82.773055
21
24.527375
0
LINE
8
hole
62
5
39
2
10
82.773055
20
24.527375
11
81.756348
21
23.878454
0
LINE
8
hole
62
5
39
2
10
81.756348
20
23.878454
11
81.049151
21
23.588894
0
LINE
8
hole
62
5
39
2
10
81.049151
20
23.588894
11
80.277822
21
23.281235
0
LINE
8
hole
62
5
39
2
10
80.277822
20
23.281235
11
79.528072
21
23.093004
0
LINE
8
hole
62
5
39
2
10
79.528072
20
23.093004
11
78.742959
21
22.866313
0
LINE
8
hole
62
5
39
2
10
78.742959
20
22.866313
11
78.041869
21
22.750246
0
LINE
8
hole
62
5
39
2
10
78.041869
20
22.750246
11
77.042640
21
22.551566
0
LINE
8
hole
62
5
39
2
10
77.042640
20
22.551566
11
76.404307
21
22.549841
0
LINE
8
hole
62
5
39
2
10
76.404307
20
22.549841
11
75.047629
21
22.548121
0
LINE
8
hole
62
5
39
2
10
75.047629
20
22.548121
11
74.520966
21
22.699921
0
LINE
8
hole
62
5
39
2
10
74.520966
20
22.699921
11
72.713531
21
23.254508
0
LINE
8
hole
62
5
39
2
10
72.713531
20
23.254508
11
72.259505
21
23.639990
0
LINE
8
boundary
62
5
39
2
10
83.297246
20
19.282931
11
87.545030
21
18.911298
0
LINE
8
boundary
62
5
39
2
10
87.545030
20
18.911298
11
88.663607
21
31.696686
0
LINE
8
boundary
62
5
39
2
10
88.663607
20
31.696686
11
88.956953
21
35.049651
0
LINE
8
boundary
62
5
39
2
10
88.956953
20
35.049651
11
72.796311
21
36.463525
0
LINE
8
boundary
62
5
39
2
10
72.796311
20
36.463525
11
68.534951
21
36.836345
0
LINE
8
boundary
62
5
39
2
10
68.534951
20
36.836345
11
67.417982
21
24.069335
0
LINE
8
boundary
62
5
39
2
10
67.417982
20
24.069335
11
67.123027
21
20.697991
0
LINE
8
boundary
62
5
39
2
10
67.123027
20
20.697991
11
83.297246
21
19.282931
0
LINE
8
annotation
62
1
39
211
10
78.041385
20
35.043718
11
78.041385
21
35.186593
0
LINE
8
annotation
62
1
39
211
10
78.041385
20
35.043718
11
78.041385
21
35.186593
0
LINE
8
annotation
62
1
39
211
10
78.041385
20
35.186593
11
78.041385
21
35.043718
0
LINE
8
annotation
62
1
39
211
10
78.041385
20
35.043718
11
78.184260
21
35.043718
0
LINE
8
annotation
62
1
39
211
10
78.041385
20
20.703680
11
78.041385
21
20.560805
0
LINE
8
annotation
62
1
39
211
10
86.773561
20
27.873822
11
86.773561
21
28.016697
0
LINE
8
annotation
62
1
39
211
10
86.773561
20
27.873822
11
86.773561
21
28.016697
0
LINE
8
annotation
62
1
39
211
10
86.773561
20
28.016697
11
86.773561
21
27.873822
0
LINE
8
annotation
62
1
39
211
10
86.773561
20
27.873822
11
86.773561
21
27.730947
0
LINE
8
annotation
62
1
39
211
10
69.234982
20
27.897634
11
69.377857
21
27.897634
0
LINE
8
annotation
62
1
39
211
10
69.234982
20
27.897634
11
69.377857
21
27.897634
0
LINE
8
annotation
62
1
39
211
10
69.377857
20
27.897634
11
69.234982
21
27.897634
0
LINE
8
annotation
62
1
39
211
10
69.234982
20
27.897634
11
69.234982
21
27.754759
0
LINE
8
annotation
62
1
39
211
10
85.188696
20
22.207450
11
85.886948
21
22.207450
0
LINE
8
annotation
62
1
39
211
10
85.886948
20
22.207450
11
85.886948
21
22.207450
0
LINE
8
annotation
62
1
39
211
10
85.886948
20
22.207450
11
86.012530
21
22.218715
0
LINE
8
annotation
62
1
39
211
10
86.012530
20
22.218715
11
86.130699
21
22.251183
0
LINE
8
annotation
62
1
39
211
10
86.130699
20
22.251183
11
86.239488
21
22.302861
0
LINE
8
annotation
62
1
39
211
10
86.239488
20
22.302861
11
86.336933
21
22.371755
0
LINE
8
annotation
62
1
39
211
10
86.336933
20
22.371755
11
86.421068
21
22.455872
0
LINE
8
annotation
62
1
39
211
10
86.421068
20
22.455872
11
86.489927
21
22.553220
0
LINE
8
annotation
62
1
39
211
10
86.489927
20
22.553220
11
86.541546
21
22.661805
0
LINE
8
annotation
62
1
39
211
10
86.541546
20
22.661805
11
86.573958
21
22.779634
0
LINE
8
annotation
62
1
39
211
10
86.573958
20
22.779634
11
86.585199
21
22.904715
0
LINE
8
annotation
62
1
39
211
10
86.585199
20
22.904715
11
86.585199
21
23.254334
0
LINE
8
annotation
62
1
39
211
10
86.585199
20
23.254334
11
86.585199
21
23.254334
0
LINE
8
annotation
62
1
39
211
10
86.585199
20
23.254334
11
86.573958
21
23.379363
0
LINE
8
annotation
62
1
39
211
10
86.573958
20
23.379363
11
86.541546
21
23.497165
0
LINE
8
annotation
62
1
39
211
10
86.541546
20
23.497165
11
86.489927
21
23.605742
0
LINE
8
annotation
62
1
39
211
10
86.489927
20
23.605742
11
86.421068
21
23.703096
0
LINE
8
annotation
62
1
39
211
10
86.421068
20
23.703096
11
86.336933
21
23.787230
0
LINE
8
annotation
62
1
39
211
10
86.336933
20
23.787230
11
86.239488
21
23.856145
0
LINE
8
annotation
62
1
39
211
10
86.239488
20
23.856145
11
86.130699
21
23.907843
0
LINE
8
annotation
62
1
39
211
10
86.130699
20
23.907843
11
86.012530
21
23.940328
0
LINE
8
annotation
62
1
39
211
10
86.012530
20
23.940328
11
85.886948
21
23.951600
0
LINE
8
annotation
62
1
39
211
10
85.886948
20
23.951600
11
85.537329
21
23.951600
0
LINE
8
annotation
62
1
39
211
10
85.537329
20
23.951600
11
85.886948
21
23.951600
0
LINE
8
annotation
62
1
39
211
10
85.886948
20
23.951600
11
85.886948
21
23.951600
0
LINE
8
annotation
62
1
39
211
10
85.886948
20
23.951600
11
86.012530
21
23.962875
0
LINE
8
annotation
62
1
39
211
10
86.012530
20
23.962875
11
86.130699
21
23.995378
0
LINE
8
annotation
62
1
39
211
10
86.130699
20
23.995378
11
86.239488
21
24.047128
0
LINE
8
annotation
62
1
39
211
10
86.239488
20
24.047128
11
86.336933
21
24.116143
0
LINE
8
annotation
62
1
39
211
10
86.336933
20
24.116143
11
86.421068
21
24.200441
0
LINE
8
annotation
62
1
39
211
10
86.421068
20
24.200441
11
86.489927
21
24.298042
0
LINE
8
annotation
62
1
39
211
10
86.489927
20
24.298042
11
86.541546
21
24.406962
0
LINE
8
annotation
62
1
39
211
10
86.541546
20
24.406962
11
86.573958
21
24.525221
0
LINE
8
annotation
62
1
39
211
10
86.573958
20
24.525221
11
86.585199
21
24.650837
0
LINE
8
annotation
62
1
39
211
10
86.585199
20
24.650837
11
86.585199
21
24.650837
0
LINE
8
annotation
62
1
39
211
10
86.585199
20
24.650837
11
86.573958
21
24.775866
0
LINE
8
annotation
62
1
39
211
10
86.573958
20
24.775866
11
86.541546
21
24.893668
0
LINE
8
annotation
62
1
39
211
10
86.541546
20
24.893668
11
86.489927
21
25.002245
0
LINE
8
annotation
62
1
39
211
10
86.489927
20
25.002245
11
86.421068
21
25.099600
0
LINE
8
annotation
62
1
39
211
10
86.421068
20
25.099600
11
86.336933
21
25.183733
0
LINE
8
annotation
62
1
39
211
10
86.336933
20
25.183733
11
86.239488
21
25.252648
0
LINE
8
annotation
62
1
39
211
10
86.239488
20
25.252648
11
86.130699
21
25.304347
0
LINE
8
annotation
62
1
39
211
10
86.130699
20
25.304347
11
86.012530
21
25.336831
0
LINE
8
annotation
62
1
39
211
10
86.012530
20
25.336831
11
85.886948
21
25.348103
0
LINE
8
annotation
62
1
39
211
10
85.886948
20
25.348103
11
85.188696
21
25.348103
0
LINE
8
hole
62
5
39
2
10
100.186654
20
35.181953
11
100.243804
21
35.181953
0
LINE
8
hole
62
5
39
2
10
100.243804
20
35.181953
11
100.243804
21
35.239103
0
LINE
8
hole
62
5
39
2
10
100.243804
20
35.239103
11
100.186654
21
35.239103
0
LINE
8
hole
62
5
39
2
10
100.186654
20
35.239103
11
100.186654
21
35.181953
0
LINE
8
hole
62
5
39
2
10
108.897806
20
27.845124
11
108.954956
21
27.845124
0
LINE
8
hole
62
5
39
2
10
108.954956
20
27.845124
11
108.954956
21
27.902274
0
LINE
8
hole
62
5
39
2
10
108.954956
20
27.902274
11
108.897806
21
27.902274
0
LINE
8
hole
62
5
39
2
10
108.897806
20
27.902274
11
108.897806
21
27.845124
0
LINE
8
hole
62
5
39
2
10
91.311603
20
27.868937
11
91.368753
21
27.868937
0
LINE
8
hole
62
5
39
2
10
91.368753
20
27.868937
11
91.368753
21
27.926087
0
LINE
8
hole
62
5
39
2
10
91.368753
20
27.926087
11
91.311603
21
27.926087
0
LINE
8
hole
62
5
39
2
10
91.311603
20
27.926087
11
91.311603
21
27.868937
0
LINE
8
hole
62
5
39
2
10
100.162841
20
20.675228
11
100.219991
21
20.675228
0
LINE
8
hole
62
5
39
2
10
100.219991
20
20.675228
11
100.219991
21
20.732378
0
LINE
8
hole
62
5
39
2
10
100.219991
20
20.732378
11
100.162841
21
20.732378
0
LINE
8
hole
62
5
39
2
10
100.162841
20
20.732378
11
100.162841
21
20.675228
0
LINE
8
hole
62
5
39
2
10
107.543056
20
20.409396
11
107.488353
21
20.495262
0
LINE
8
hole
62
5
39
2
10
107.488353
20
20.495262
11
107.457738
21
20.592360
0
LINE
8
hole
62
5
39
2
10
107.457738
20
20.592360
11
107.453297
21
20.694074
0
LINE
8
hole
62
5
39
2
10
107.453297
20
20.694074
11
107.475332
21
20.793471
0
LINE
8
hole
62
5
39
2
10
107.475332
20
20.793471
11
107.522344
21
20.883778
0
LINE
8
hole
62
5
39
2
10
107.522344
20
20.883778
11
107.591126
21
20.958840
0
LINE
8
hole
62
5
39
2
10
107.591126
20
20.958840
11
107.676992
21
21.013543
0
LINE
8
hole
62
5
39
2
10
107.676992
20
21.013543
11
107.774091
21
21.044158
0
LINE
8
hole
62
5
39
2
10
107.774091
20
21.044158
11
107.875804
21
21.048599
0
LINE
8
hole
62
5
39
2
10
107.875804
20
21.048599
11
107.975201
21
21.026563
0
LINE
8
hole
62
5
39
2
10
107.975201
20
21.026563
11
108.065508
21
20.979552
0
LINE
8
hole
62
5
39
2
10
108.065508
20
20.979552
11
108.140571
21
20.910770
0
LINE
8
hole
62
5
39
2
10
108.140571
20
20.910770
11
108.195273
21
20.824904
0
LINE
8
hole
62
5
39
2
10
108.195273
20
20.824904
11
108.225888
21
20.727806
0
LINE
8
hole
62
5
39
2
10
108.225888
20
20.727806
11
108.230330
21
20.626092
0
LINE
8
hole
62
5
39
2
10
108.230330
20
20.626092
11
108.208293
21
20.526695
0
LINE
8
hole
62
5
39
2
10
108.208293
20
20.526695
11
108.161282
21
20.436388
0
LINE
8
hole
62
5
39
2
10
108.161282
20
20.436388
11
108.092501
21
20.361326
0
LINE
8
hole
62
5
39
2
10
108.092501
20
20.361326
11
108.006634
21
20.306623
0
LINE
8
hole
62
5
39
2
10
108.006634
20
20.306623
11
107.909536
21
20.276008
0
LINE
8
hole
62
5
39
2
10
107.909536
20
20.276008
11
107.807823
21
20.271567
0
LINE
8
hole
62
5
39
2
10
107.807823
20
20.271567
11
107.708425
21
20.293603
0
LINE
8
hole
62
5
39
2
10
107.708425
20
20.293603
11
107.618119
21
20.340614
0
LINE
8
hole
62
5
39
2
10
107.618119
20
20.340614
11
107.543056
21
20.409396
0
LINE
8
hole
62
5
39
2
10
91.105835
20
21.847467
11
91.051132
21
21.933332
0
LINE
8
hole
62
5
39
2
10
91.051132
20
21.933332
11
91.020517
21
22.030431
0
LINE
8
hole
62
5
39
2
10
91.020517
20
22.030431
11
91.016076
21
22.132144
0
LINE
8
hole
62
5
39
2
10
91.016076
20
22.132144
11
91.038112
21
22.231541
0
LINE
8
hole
62
5
39
2
10
91.038112
20
22.231541
11
91.085123
21
22.321848
0
LINE
8
hole
62
5
39
2
10
91.085123
20
22.321848
11
91.153905
21
22.396911
0
LINE
8
hole
62
5
39
2
10
91.153905
20
22.396911
11
91.239772
21
22.451613
0
LINE
8
hole
62
5
39
2
10
91.239772
20
22.451613
11
91.336869
21
22.482228
0
LINE
8
hole
62
5
39
2
10
91.336869
20
22.482228
11
91.438584
21
22.486669
0
LINE
8
hole
62
5
39
2
10
91.438584
20
22.486669
11
91.537981
21
22.464633
0
LINE
8
hole
62
5
39
2
10
91.537981
20
22.464633
11
91.628288
21
22.417622
0
LINE
8
hole
62
5
39
2
10
91.628288
20
22.417622
11
91.703350
21
22.348841
0
LINE
8
hole
62
5
39
2
10
91.703350
20
22.348841
11
91.758053
21
22.262975
0
LINE
8
hole
62
5
39
2
10
91.758053
20
22.262975
11
91.788668
21
22.165876
0
LINE
8
hole
62
5
39
2
10
91.788668
20
22.165876
11
91.793109
21
22.064163
0
LINE
8
hole
62
5
39
2
10
91.793109
20
22.064163
11
91.771073
21
21.964766
0
LINE
8
hole
62
5
39
2
10
91.771073
20
21.964766
11
91.724062
21
21.874459
0
LINE
8
hole
62
5
39
2
10
91.724062
20
21.874459
11
91.655280
21
21.799396
0
LINE
8
hole
62
5
39
2
10
91.655280
20
21.799396
11
91.569414
21
21.744694
0
LINE
8
hole
62
5
39
2
10
91.569414
20
21.744694
11
91.472316
21
21.714078
0
LINE
8
hole
62
5
39
2
10
91.472316
20
21.714078
11
91.370602
21
21.709638
0
LINE
8
hole
62
5
39
2
10
91.370602
20
21.709638
11
91.271204
21
21.731674
0
LINE
8
hole
62
5
39
2
10
91.271204
20
21.731674
11
91.180897
21
21.778684
0
LINE
8
hole
62
5
39
2
10
91.180897
20
21.778684
11
91.105835
21
21.847467
0
LINE
8
hole
62
5
39
2
10
92.242261
20
34.836873
11
92.187559
21
34.922739
0
LINE
8
hole
62
5
39
2
10
92.187559
20
34.922739
11
92.156944
21
35.019838
0
LINE
8
hole
62
5
39
2
10
92.156944
20
35.019838
11
92.152502
21
35.121551
0
LINE
8
hole
62
5
39
2
10
92.152502
20
35.121551
11
92.174538
21
35.220948
0
LINE
8
hole
62
5
39
2
10
92.174538
20
35.220948
11
92.221548
21
35.311255
0
LINE
8
hole
62
5
39
2
10
92.221548
20
35.311255
11
92.290331
21
35.386318
0
LINE
8
hole
62
5
39
2
10
92.290331
20
35.386318
11
92.376197
21
35.441020
0
LINE
8
hole
62
5
39
2
10
92.376197
20
35.441020
11
92.473296
21
35.471635
0
LINE
8
hole
62
5
39
2
10
92.473296
20
35.471635
11
92.575009
21
35.476077
0
LINE
8
hole
62
5
39
2
10
92.575009
20
35.476077
11
92.674406
21
35.454041
0
LINE
8
hole
62
5
39
2
10
92.674406
20
35.454041
11
92.764714
21
35.407030
0
LINE
8
hole
62
5
39
2
10
92.764714
20
35.407030
11
92.839776
21
35.338248
0
LINE
8
hole
62
5
39
2
10
92.839776
20
35.338248
11
92.894478
21
35.252381
0
LINE
8
hole
62
5
39
2
10
92.894478
20
35.252381
11
92.925093
21
35.155283
0
LINE
8
hole
62
5
39
2
10
92.925093
20
35.155283
11
92.929535
21
35.053570
0
LINE
8
hole
62
5
39
2
10
92.929535
20
35.053570
11
92.907498
21
34.954172
0
LINE
8
hole
62
5
39
2
10
92.907498
20
34.954172
11
92.860488
21
34.863866
0
LINE
8
hole
62
5
39
2
10
92.860488
20
34.863866
11
92.791706
21
34.788803
0
LINE
8
hole
62
5
39
2
10
92.791706
20
34.788803
11
92.705840
21
34.734100
0
LINE
8
hole
62
5
39
2
10
92.705840
20
34.734100
11
92.608741
21
34.703485
0
LINE
8
hole
62
5
39
2
10
92.608741
20
34.703485
11
92.507027
21
34.699044
0
LINE
8
hole
62
5
39
2
10
92.507027
20
34.699044
11
92.407631
21
34.721080
0
LINE
8
hole
62
5
39
2
10
92.407631
20
34.721080
11
92.317324
21
34.768091
0
LINE
8
hole
62
5
39
2
10
92.317324
20
34.768091
11
92.242261
21
34.836873
0
LINE
8
hole
62
5
39
2
10
108.679481
20
33.398803
11
108.624779
21
33.484669
0
LINE
8
hole
62
5
39
2
10
108.624779
20
33.484669
11
108.594164
21
33.581767
0
LINE
8
hole
62
5
39
2
10
108.594164
20
33.581767
11
108.589723
21
33.683481
0
LINE
8
hole
62
5
39
2
10
108.589723
20
33.683481
11
108.611759
21
33.782877
0
LINE
8
hole
62
5
39
2
10
108.611759
20
33.782877
11
108.658769
21
33.873185
0
LINE
8
hole
62
5
39
2
10
108.658769
20
33.873185
11
108.727552
21
33.948248
0
LINE
8
hole
62
5
39
2
10
108.727552
20
33.948248
11
108.813418
21
34.002950
0
LINE
8
hole
62
5
39
2
10
108.813418
20
34.002950
11
108.910516
21
34.033565
0
LINE
8
hole
62
5
39
2
10
108.910516
20
34.033565
11
109.012230
21
34.038006
0
LINE
8
hole
62
5
39
2
10
109.012230
20
34.038006
11
109.111627
21
34.015970
0
LINE
8
hole
62
5
39
2
10
109.111627
20
34.015970
11
109.201934
21
33.968959
0
LINE
8
hole
62
5
39
2
10
109.201934
20
33.968959
11
109.276996
21
33.900177
0
LINE
8
hole
62
5
39
2
10
109.276996
20
33.900177
11
109.331699
21
33.814311
0
LINE
8
hole
62
5
39
2
10
109.331699
20
33.814311
11
109.362315
21
33.717213
0
LINE
8
hole
62
5
39
2
10
109.362315
20
33.717213
11
109.366755
21
33.615499
0
LINE
8
hole
62
5
39
2
10
109.366755
20
33.615499
11
109.344719
21
33.516102
0
LINE
8
hole
62
5
39
2
10
109.344719
20
33.516102
11
109.297709
21
33.425795
0
LINE
8
hole
62
5
39
2
10
109.297709
20
33.425795
11
109.228926
21
33.350733
0
LINE
8
hole
62
5
39
2
10
109.228926
20
33.350733
11
109.143060
21
33.296029
0
LINE
8
hole
62
5
39
2
10
109.143060
20
33.296029
11
109.045962
21
33.265415
0
LINE
8
hole
62
5
39
2
10
109.045962
20
33.265415
11
108.944249
21
33.260974
0
LINE
8
hole
62
5
39
2
10
108.944249
20
33.260974
11
108.844851
21
33.283010
0
LINE
8
hole
62
5
39
2
10
108.844851
20
33.283010
11
108.754544
21
33.330020
0
LINE
8
hole
62
5
39
2
10
108.754544
20
33.330020
11
108.679481
21
33.398803
0
LINE
8
hole
62
5
39
2
10
92.986464
20
24.242783
11
92.424995
21
24.720940
0
LINE
8
hole
62
5
39
2
10
92.424995
20
24.720940
11
91.843760
21
26.538589
0
LINE
8
hole
62
5
39
2
10
91.843760
20
26.538589
11
91.524593
21
27.484730
0
LINE
8
hole
62
5
39
2
10
91.524593
20
27.484730
11
91.690450
21
28.736467
0
LINE
8
hole
62
5
39
2
10
91.690450
20
28.736467
11
91.841735
21
29.747088
0
LINE
8
hole
62
5
39
2
10
91.841735
20
29.747088
11
92.178943
21
30.528515
0
LINE
8
hole
62
5
39
2
10
92.178943
20
30.528515
11
92.625328
21
31.370036
0
LINE
8
hole
62
5
39
2
10
92.625328
20
31.370036
11
93.021948
21
31.888658
0
LINE
8
hole
62
5
39
2
10
93.021948
20
31.888658
11
93.641359
21
32.500507
0
LINE
8
hole
62
5
39
2
10
93.641359
20
32.500507
11
93.988465
21
32.805618
0
LINE
8
hole
62
5
39
2
10
93.988465
20
32.805618
11
94.692895
21
33.260545
0
LINE
8
hole
62
5
39
2
10
94.692895
20
33.260545
11
94.935216
21
33.420394
0
LINE
8
hole
62
5
39
2
10
94.935216
20
33.420394
11
95.682059
21
33.810975
0
LINE
8
hole
62
5
39
2
10
95.682059
20
33.810975
11
95.768959
21
33.856645
0
LINE
8
hole
62
5
39
2
10
95.768959
20
33.856645
11
96.171964
21
34.039649
0
LINE
8
hole
62
5
39
2
10
96.171964
20
34.039649
11
96.560338
21
34.213237
0
LINE
8
hole
62
5
39
2
10
96.560338
20
34.213237
11
96.625427
21
34.239696
0
LINE
8
hole
62
5
39
2
10
96.625427
20
34.239696
11
97.353110
21
34.499748
0
LINE
8
hole
62
5
39
2
10
97.353110
20
34.499748
11
97.526438
21
34.557507
0
LINE
8
hole
62
5
39
2
10
97.526438
20
34.557507
11
98.208993
21
34.734047
0
LINE
8
hole
62
5
39
2
10
98.208993
20
34.734047
11
98.428426
21
34.785986
0
LINE
8
hole
62
5
39
2
10
98.428426
20
34.785986
11
99.127526
21
34.891433
0
LINE
8
hole
62
5
39
2
10
99.127526
20
34.891433
11
99.352373
21
34.925109
0
LINE
8
hole
62
5
39
2
10
99.352373
20
34.925109
11
100.087578
21
34.970650
0
LINE
8
hole
62
5
39
2
10
100.087578
20
34.970650
11
100.284781
21
34.985673
0
LINE
8
hole
62
5
39
2
10
100.284781
20
34.985673
11
101.100254
21
34.979781
0
LINE
8
hole
62
5
39
2
10
101.100254
20
34.979781
11
101.240894
21
34.979315
0
LINE
8
hole
62
5
39
2
10
101.240894
20
34.979315
11
102.167547
21
34.932490
0
LINE
8
hole
62
5
39
2
10
102.167547
20
34.932490
11
102.223077
21
34.928827
0
LINE
8
hole
62
5
39
2
10
102.223077
20
34.928827
11
102.641882
21
34.881560
0
LINE
8
hole
62
5
39
2
10
102.641882
20
34.881560
11
103.260405
21
34.812340
0
LINE
8
hole
62
5
39
2
10
103.260405
20
34.812340
11
103.378950
21
34.786954
0
LINE
8
hole
62
5
39
2
10
103.378950
20
34.786954
11
104.421487
21
34.555190
0
LINE
8
hole
62
5
39
2
10
104.421487
20
34.555190
11
104.920794
21
34.341963
0
LINE
8
hole
62
5
39
2
10
104.920794
20
34.341963
11
105.746547
21
34.001958
0
LINE
8
hole
62
5
39
2
10
105.746547
20
34.001958
11
106.579288
21
33.346357
0
LINE
8
hole
62
5
39
2
10
106.579288
20
33.346357
11
107.030862
21
33.002453
0
LINE
8
hole
62
5
39
2
10
107.030862
20
33.002453
11
107.937224
21
31.818128
0
LINE
8
hole
62
5
39
2
10
107.937224
20
31.818128
11
108.138295
21
31.533399
0
LINE
8
hole
62
5
39
2
10
108.138295
20
31.533399
11
108.644390
21
29.666491
0
LINE
8
hole
62
5
39
2
10
108.644390
20
29.666491
11
108.770248
21
29.237688
0
LINE
8
hole
62
5
39
2
10
108.770248
20
29.237688
11
108.750534
21
29.100590
0
LINE
8
hole
62
5
39
2
10
108.750534
20
29.100590
11
108.136513
21
26.502261
0
LINE
8
hole
62
5
39
2
10
108.136513
20
26.502261
11
107.693872
21
25.836323
0
LINE
8
hole
62
5
39
2
10
107.693872
20
25.836323
11
106.537569
21
24.342062
0
LINE
8
hole
62
5
39
2
10
106.537569
20
24.342062
11
106.048495
21
23.918187
0
LINE
8
hole
62
5
39
2
10
106.048495
20
23.918187
11
104.871387
21
22.960664
0
LINE
8
hole
62
5
39
2
10
104.871387
20
22.960664
11
104.182956
21
22.608631
0
LINE
8
hole
62
5
39
2
10
104.182956
20
22.608631
11
103.139368
21
22.095334
0
LINE
8
hole
62
5
39
2
10
103.139368
20
22.095334
11
102.372288
21
21.979385
0
LINE
8
hole
62
5
39
2
10
102.372288
20
21.979385
11
101.255603
21
21.747669
0
LINE
8
hole
62
5
39
2
10
101.255603
20
21.747669
11
100.664680
21
21.778497
0
LINE
8
hole
62
5
39
2
10
100.664680
20
21.778497
11
99.266740
21
21.735642
0
LINE
8
hole
62
5
39
2
10
99.266740
20
21.735642
11
98.877549
21
21.790903
0
LINE
8
hole
62
5
39
2
10
98.877549
20
21.790903
11
97.131504
21
21.916205
0
LINE
8
hole
62
5
39
2
10
97.131504
20
21.916205
11
97.048151
21
21.949010
0
LINE
8
hole
62
5
39
2
10
97.048151
20
21.949010
11
96.483058
21
22.128545
0
LINE
8
hole
62
5
39
2
10
96.483058
20
22.128545
11
94.938275
21
22.636378
0
LINE
8
hole
62
5
39
2
10
94.938275
20
22.636378
11
94.694273
21
22.707099
0
LINE
8
hole
62
5
39
2
10
94.694273
20
22.707099
11
92.986464
21
24.242783
0
LINE
8
boundary
62
5
39
2
10
97.497721
20
19.978549
11
109.696455
21
18.911298
0
LINE
8
boundary
62
5
39
2
10
109.696455
20
18.911298
11
110.265951
21
25.420658
0
LINE
8
boundary
62
5
39
2
10
110.265951
20
25.420658
11
111.108379
21
35.049652
0
LINE
8
boundary
62
5
39
2
10
111.108379
20
35.049652
11
102.880596
21
35.769490
0
LINE
8
boundary
62
5
39
2
10
102.880596
20
35.769490
11
90.686377
21
36.836346
0
LINE
8
boundary
62
5
39
2
10
90.686377
20
36.836346
11
90.118489
21
30.345367
0
LINE
8
boundary
62
5
39
2
10
90.118489
20
30.345367
11
89.274453
21
20.697992
0
LINE
8
boundary
62
5
39
2
10
89.274453
20
20.697992
11
97.497721
21
19.978549
0
LINE
8
annotation
62
1
39
211
10
108.926381
20
27.873699
11
108.926381
21
28.016574
0
LINE
8
annotation
62
1
39
211
10
91.340178
20
27.897512
11
91.483053
21
27.897512
0
LINE
8
annotation
62
1
39
211
10
100.215229
20
35.210528
11
100.215229
21
35.353403
0
LINE
8
annotation
62
1
39
211
10
100.215229
20
35.210528
11
100.215229
21
35.353403
0
LINE
8
annotation
62
1
39
211
10
100.215229
20
35.353403
11
100.215229
21
35.210528
0
LINE
8
annotation
62
1
39
211
10
100.215229
20
35.210528
11
100.358104
21
35.210528
0
LINE
8
annotation
62
1
39
211
10
100.191416
20
20.703803
11
100.191416
21
20.560928
0
LINE
8
annotation
62
1
39
211
10
106.150027
20
21.076141
11
106.150027
21
21.076141
0
LINE
8
annotation
62
1
39
211
10
106.150027
20
21.076141
11
106.158482
21
20.981980
0
LINE
8
annotation
62
1
39
211
10
106.158482
20
20.981980
11
106.182852
21
20.893422
0
LINE
8
annotation
62
1
39
211
10
106.182852
20
20.893422
11
106.221645
21
20.811928
0
LINE
8
annotation
62
1
39
211
10
106.221645
20
20.811928
11
106.273369
21
20.738961
0
LINE
8
annotation
62
1
39
211
10
106.273369
20
20.738961
11
106.336531
21
20.675983
0
LINE
8
annotation
62
1
39
211
10
106.336531
20
20.675983
11
106.409639
21
20.624455
0
LINE
8
annotation
62
1
39
211
10
106.409639
20
20.624455
11
106.491200
21
20.585839
0
LINE
8
annotation
62
1
39
211
10
106.491200
20
20.585839
11
106.579723
21
20.561598
0
LINE
8
annotation
62
1
39
211
10
106.579723
20
20.561598
11
106.673715
21
20.553192
0
LINE
8
annotation
62
1
39
211
10
106.673715
20
20.553192
11
106.673715
21
20.553192
0
LINE
8
annotation
62
1
39
211
10
106.673715
20
20.553192
11
106.767707
21
20.561598
0
LINE
8
annotation
62
1
39
211
10
106.767707
20
20.561598
11
106.856230
21
20.585839
0
LINE
8
annotation
62
1
39
211
10
106.856230
20
20.585839
11
106.937792
21
20.624455
0
LINE
8
annotation
62
1
39
211
10
106.937792
20
20.624455
11
107.010900
21
20.675983
0
LINE
8
annotation
62
1
39
211
10
107.010900
20
20.675983
11
107.074062
21
20.738961
0
LINE
8
annotation
62
1
39
211
10
107.074062
20
20.738961
11
107.125785
21
20.811928
0
LINE
8
annotation
62
1
39
211
10
107.125785
20
20.811928
11
107.164579
21
20.893422
0
LINE
8
annotation
62
1
39
211
10
107.164579
20
20.893422
11
107.188949
21
20.981980
0
LINE
8
annotation
62
1
39
211
10
107.188949
20
20.981980
11
107.197404
21
21.076141
0
LINE
8
annotation
62
1
39
211
10
107.197404
20
21.076141
11
107.197404
21
21.337025
0
LINE
8
annotation
62
1
39
211
10
107.197404
20
21.337025
11
107.197404
21
21.337025
0
LINE
8
annotation
62
1
39
211
10
107.197404
20
21.337025
11
107.188954
21
21.431231
0
LINE
8
annotation
62
1
39
211
10
107.188954
20
21.431231
11
107.164596
21
21.519912
0
LINE
8
annotation
62
1
39
211
10
107.164596
20
21.519912
11
107.125818
21
21.601583
0
LINE
8
annotation
62
1
39
211
10
107.125818
20
21.601583
11
107.074110
21
21.674760
0
LINE
8
annotation
62
1
39
211
10
107.074110
20
21.674760
11
107.010960
21
21.737959
0
LINE
8
annotation
62
1
39
211
10
107.010960
20
21.737959
11
106.937857
21
21.789697
0
LINE
8
annotation
62
1
39
211
10
106.937857
20
21.789697
11
106.856290
21
21.828490
0
LINE
8
annotation
62
1
39
211
10
106.856290
20
21.828490
11
106.767746
21
21.852854
0
LINE
8
annotation
62
1
39
211
10
106.767746
20
21.852854
11
106.673715
21
21.861305
0
LINE
8
annotation
62
1
39
211
10
106.673715
20
21.861305
11
106.673715
21
21.861305
0
LINE
8
annotation
62
1
39
211
10
106.673715
20
21.861305
11
106.579684
21
21.852849
0
LINE
8
annotation
62
1
39
211
10
106.579684
20
21.852849
11
106.491141
21
21.828473
0
LINE
8
annotation
62
1
39
211
10
106.491141
20
21.828473
11
106.409573
21
21.789664
0
LINE
8
annotation
62
1
39
211
10
106.409573
20
21.789664
11
106.336470
21
21.737911
0
LINE
8
annotation
62
1
39
211
10
106.336470
20
21.737911
11
106.273320
21
21.674699
0
LINE
8
annotation
62
1
39
211
10
106.273320
20
21.674699
11
106.221612
21
21.601517
0
LINE
8
annotation
62
1
39
211
10
106.221612
20
21.601517
11
106.182835
21
21.519853
0
LINE
8
annotation
62
1
39
211
10
106.182835
20
21.519853
11
106.158477
21
21.431193
0
LINE
8
annotation
62
1
39
211
10
106.158477
20
21.431193
11
106.150027
21
21.337025
0
LINE
8
annotation
62
1
39
211
10
106.150027
20
21.337025
11
106.150027
21
21.076141
0
LINE
8
annotation
62
1
39
211
10
107.197404
20
22.385733
11
107.197404
21
22.385733
0
LINE
8
annotation
62
1
39
211
10
107.197404
20
22.385733
11
107.188954
21
22.479505
0
LINE
8
annotation
62
1
39
211
10
107.188954
20
22.479505
11
107.164596
21
22.567856
0
LINE
8
annotation
62
1
39
211
10
107.164596
20
22.567856
11
107.125818
21
22.649289
0
LINE
8
annotation
62
1
39
211
10
107.125818
20
22.649289
11
107.074110
21
22.722305
0
LINE
8
annotation
62
1
39
211
10
107.074110
20
22.722305
11
107.010960
21
22.785405
0
LINE
8
annotation
62
1
39
211
10
107.010960
20
22.785405
11
106.937857
21
22.837091
0
LINE
8
annotation
62
1
39
211
10
106.937857
20
22.837091
11
106.856290
21
22.875865
0
LINE
8
annotation
62
1
39
211
10
106.856290
20
22.875865
11
106.767746
21
22.900228
0
LINE
8
annotation
62
1
39
211
10
106.767746
20
22.900228
11
106.673715
21
22.908682
0
LINE
8
annotation
62
1
39
211
10
106.673715
20
22.908682
11
106.673715
21
22.908682
0
LINE
8
annotation
62
1
39
211
10
106.673715
20
22.908682
11
106.579684
21
22.900228
0
LINE
8
annotation
62
1
39
211
10
106.579684
20
22.900228
11
106.491141
21
22.875865
0
LINE
8
annotation
62
1
39
211
10
106.491141
20
22.875865
11
106.409573
21
22.837091
0
LINE
8
annotation
62
1
39
211
10
106.409573
20
22.837091
11
106.336470
21
22.785405
0
LINE
8
annotation
62
1
39
211
10
106.336470
20
22.785405
11
106.273320
21
22.722305
0
LINE
8
annotation
62
1
39
211
10
106.273320
20
22.722305
11
106.221612
21
22.649289
0
LINE
8
annotation
62
1
39
211
10
106.221612
20
22.649289
11
106.182835
21
22.567856
0
LINE
8
annotation
62
1
39
211
10
106.182835
20
22.567856
11
106.158477
21
22.479505
0
LINE
8
annotation
62
1
39
211
10
106.158477
20
22.479505
11
106.150027
21
22.385733
0
LINE
8
annotation
62
1
39
211
10
106.150027
20
22.385733
11
106.150027
21
22.385733
0
LINE
8
annotation
62
1
39
211
10
106.150027
20
22.385733
11
106.158482
21
22.291521
0
LINE
8
annotation
62
1
39
211
10
106.158482
20
22.291521
11
106.182852
21
22.202827
0
LINE
8
annotation
62
1
39
211
10
106.182852
20
22.202827
11
106.221645
21
22.121136
0
LINE
8
annotation
62
1
39
211
10
106.221645
20
22.121136
11
106.273369
21
22.047936
0
LINE
8
annotation
62
1
39
211
10
106.273369
20
22.047936
11
106.336531
21
21.984712
0
LINE
8
annotation
62
1
39
211
10
106.336531
20
21.984712
11
106.409639
21
21.932951
0
LINE
8
annotation
62
1
39
211
10
106.409639
20
21.932951
11
106.491200
21
21.894138
0
LINE
8
annotation
62
1
39
211
10
106.491200
20
21.894138
11
106.579723
21
21.869761
0
LINE
8
annotation
62
1
39
211
10
106.579723
20
21.869761
11
106.673715
21
21.861305
0
LINE
8
annotation
62
1
39
211
10
106.673715
20
21.861305
11
106.673715
21
21.861305
0
LINE
8
annotation
62
1
39
211
10
106.673715
20
21.861305
11
106.767707
21
21.869761
0
LINE
8
annotation
62
1
39
211
10
106.767707
20
21.869761
11
106.856230
21
21.894138
0
LINE
8
annotation
62
1
39
211
10
106.856230
20
21.894138
11
106.937792
21
21.932951
0
LINE
8
annotation
62
1
39
211
10
106.937792
20
21.932951
11
107.010900
21
21.984712
0
LINE
8
annotation
62
1
39
211
10
107.010900
20
21.984712
11
107.074062
21
22.047936
0
LINE
8
annotation
62
1
39
211
10
107.074062
20
22.047936
11
107.125785
21
22.121136
0
LINE
8
annotation
62
1
39
211
10
107.125785
20
22.121136
11
107.164579
21
22.202827
0
LINE
8
annotation
62
1
39
211
10
107.164579
20
22.202827
11
107.188949
21
22.291521
0
LINE
8
annotation
62
1
39
211
10
107.188949
20
22.291521
11
107.197404
21
22.385733
0
LINE
8
hole
62
5
39
2
10
11.582345
20
53.329128
11
11.639495
21
53.329128
0
LINE
8
hole
62
5
39
2
10
11.639495
20
53.329128
11
11.639495
21
53.386278
0
LINE
8
hole
62
5
39
2
10
11.639495
20
53.386278
11
11.582345
21
53.386278
0
LINE
8
hole
62
5
39
2
10
11.582345
20
53.386278
11
11.582345
21
53.329128
0
LINE
8
hole
62
5
39
2
10
20.290708
20
46.087794
11
20.347858
21
46.087794
0
LINE
8
hole
62
5
39
2
10
20.347858
20
46.087794
11
20.347858
21
46.144944
0
LINE
8
hole
62
5
39
2
10
20.347858
20
46.144944
11
20.290708
21
46.144944
0
LINE
8
hole
62
5
39
2
10
20.290708
20
46.144944
11
20.290708
21
46.087794
0
LINE
8
hole
62
5
39
2
10
2.704505
20
46.111607
11
2.761655
21
46.111607
0
LINE
8
hole
62
5
39
2
10
2.761655
20
46.111607
11
2.761655
21
46.168757
0
LINE
8
hole
62
5
39
2
10
2.761655
20
46.168757
11
2.704505
21
46.168757
0
LINE
8
hole
62
5
39
2
10
2.704505
20
46.168757
11
2.704505
21
46.111607
0
LINE
8
hole
62
5
39
2
10
11.558533
20
38.917653
11
11.615683
21
38.917653
0
LINE
8
hole
62
5
39
2
10
11.615683
20
38.917653
11
11.615683
21
38.974803
0
LINE
8
hole
62
5
39
2
10
11.615683
20
38.974803
11
11.558533
21
38.974803
0
LINE
8
hole
62
5
39
2
10
11.558533
20
38.974803
11
11.558533
21
38.917653
0
LINE
8
hole
62
5
39
2
10
18.937353
20
38.651944
11
18.900645
21
38.709562
0
LINE
8
hole
62
5
39
2
10
18.900645
20
38.709562
11
18.862105
21
38.802968
0
LINE
8
hole
62
5
39
2
10
18.862105
20
38.802968
11
18.849055
21
38.903165
0
LINE
8
hole
62
5
39
2
10
18.849055
20
38.903165
11
18.862381
21
39.003323
0
LINE
8
hole
62
5
39
2
10
18.862381
20
39.003323
11
18.901176
21
39.096619
0
LINE
8
hole
62
5
39
2
10
18.901176
20
39.096619
11
18.962794
21
39.176694
0
LINE
8
hole
62
5
39
2
10
18.962794
20
39.176694
11
19.043038
21
39.238093
0
LINE
8
hole
62
5
39
2
10
19.043038
20
39.238093
11
19.136436
21
39.276631
0
LINE
8
hole
62
5
39
2
10
19.136436
20
39.276631
11
19.236626
21
39.289685
0
LINE
8
hole
62
5
39
2
10
19.236626
20
39.289685
11
19.336780
21
39.276364
0
LINE
8
hole
62
5
39
2
10
19.336780
20
39.276364
11
19.430075
21
39.237576
0
LINE
8
hole
62
5
39
2
10
19.430075
20
39.237576
11
19.510153
21
39.175964
0
LINE
8
hole
62
5
39
2
10
19.510153
20
39.175964
11
19.571557
21
39.095726
0
LINE
8
hole
62
5
39
2
10
19.571557
20
39.095726
11
19.610103
21
39.002329
0
LINE
8
hole
62
5
39
2
10
19.610103
20
39.002329
11
19.623163
21
38.902136
0
LINE
8
hole
62
5
39
2
10
19.623163
20
38.902136
11
19.609847
21
38.801976
0
LINE
8
hole
62
5
39
2
10
19.609847
20
38.801976
11
19.571060
21
38.708674
0
LINE
8
hole
62
5
39
2
10
19.571060
20
38.708674
11
19.509445
21
38.628589
0
LINE
8
hole
62
5
39
2
10
19.509445
20
38.628589
11
19.429201
21
38.567181
0
LINE
8
hole
62
5
39
2
10
19.429201
20
38.567181
11
19.335796
21
38.528634
0
LINE
8
hole
62
5
39
2
10
19.335796
20
38.528634
11
19.235598
21
38.515576
0
LINE
8
hole
62
5
39
2
10
19.235598
20
38.515576
11
19.135433
21
38.528899
0
LINE
8
hole
62
5
39
2
10
19.135433
20
38.528899
11
19.042130
21
38.567693
0
LINE
8
hole
62
5
39
2
10
19.042130
20
38.567693
11
18.962048
21
38.629314
0
LINE
8
hole
62
5
39
2
10
18.962048
20
38.629314
11
18.937353
21
38.651944
0
LINE
8
hole
62
5
39
2
10
3.636558
20
53.079421
11
3.599399
21
53.137748
0
LINE
8
hole
62
5
39
2
10
3.599399
20
53.137748
11
3.561058
21
53.231246
0
LINE
8
hole
62
5
39
2
10
3.561058
20
53.231246
11
3.548223
21
53.331481
0
LINE
8
hole
62
5
39
2
10
3.548223
20
53.331481
11
3.561768
21
53.431621
0
LINE
8
hole
62
5
39
2
10
3.561768
20
53.431621
11
3.600769
21
53.524841
0
LINE
8
hole
62
5
39
2
10
3.600769
20
53.524841
11
3.662567
21
53.604791
0
LINE
8
hole
62
5
39
2
10
3.662567
20
53.604791
11
3.742951
21
53.666021
0
LINE
8
hole
62
5
39
2
10
3.742951
20
53.666021
11
3.836443
21
53.704361
0
LINE
8
hole
62
5
39
2
10
3.836443
20
53.704361
11
3.936671
21
53.717199
0
LINE
8
hole
62
5
39
2
10
3.936671
20
53.717199
11
4.036806
21
53.703660
0
LINE
8
hole
62
5
39
2
10
4.036806
20
53.703660
11
4.130026
21
53.664665
0
LINE
8
hole
62
5
39
2
10
4.130026
20
53.664665
11
4.209978
21
53.602874
0
LINE
8
hole
62
5
39
2
10
4.209978
20
53.602874
11
4.271214
21
53.522494
0
LINE
8
hole
62
5
39
2
10
4.271214
20
53.522494
11
4.309561
21
53.429005
0
LINE
8
hole
62
5
39
2
10
4.309561
20
53.429005
11
4.322406
21
53.328774
0
LINE
8
hole
62
5
39
2
10
4.322406
20
53.328774
11
4.308870
21
53.228633
0
LINE
8
hole
62
5
39
2
10
4.308870
20
53.228633
11
4.269877
21
53.135406
0
LINE
8
hole
62
5
39
2
10
4.269877
20
53.135406
11
4.208083
21
53.055447
0
LINE
8
hole
62
5
39
2
10
4.208083
20
53.055447
11
4.127698
21
52.994207
0
LINE
8
hole
62
5
39
2
10
4.127698
20
52.994207
11
4.034201
21
52.955859
0
LINE
8
hole
62
5
39
2
10
4.034201
20
52.955859
11
3.933963
21
52.943017
0
LINE
8
hole
62
5
39
2
10
3.933963
20
52.943017
11
3.833818
21
52.956558
0
LINE
8
hole
62
5
39
2
10
3.833818
20
52.956558
11
3.740590
21
52.995558
0
LINE
8
hole
62
5
39
2
10
3.740590
20
52.995558
11
3.660634
21
53.057359
0
LINE
8
hole
62
5
39
2
10
3.660634
20
53.057359
11
3.636558
21
53.079421
0
LINE
8
hole
62
5
39
2
10
2.500131
20
40.090014
11
2.462973
21
40.148341
0
LINE
8
hole
62
5
39
2
10
2.462973
20
40.148341
11
2.424632
21
40.241840
0
LINE
8
hole
62
5
39
2
10
2.424632
20
40.241840
11
2.411797
21
40.342074
0
LINE
8
hole
62
5
39
2
10
2.411797
20
40.342074
11
2.425343
21
40.442214
0
LINE
8
hole
62
5
39
2
10
2.425343
20
40.442214
11
2.464344
21
40.535435
0
LINE
8
hole
62
5
39
2
10
2.464344
20
40.535435
11
2.526142
21
40.615384
0
LINE
8
hole
62
5
39
2
10
2.526142
20
40.615384
11
2.606525
21
40.676614
0
LINE
8
hole
62
5
39
2
10
2.606525
20
40.676614
11
2.700016
21
40.714955
0
LINE
8
hole
62
5
39
2
10
2.700016
20
40.714955
11
2.800245
21
40.727792
0
LINE
8
hole
62
5
39
2
10
2.800245
20
40.727792
11
2.900380
21
40.714253
0
LINE
8
hole
62
5
39
2
10
2.900380
20
40.714253
11
2.993600
21
40.675259
0
LINE
8
hole
62
5
39
2
10
2.993600
20
40.675259
11
3.073551
21
40.613468
0
LINE
8
hole
62
5
39
2
10
3.073551
20
40.613468
11
3.134788
21
40.533088
0
LINE
8
hole
62
5
39
2
10
3.134788
20
40.533088
11
3.173136
21
40.439598
0
LINE
8
hole
62
5
39
2
10
3.173136
20
40.439598
11
3.185980
21
40.339368
0
LINE
8
hole
62
5
39
2
10
3.185980
20
40.339368
11
3.172445
21
40.239226
0
LINE
8
hole
62
5
39
2
10
3.172445
20
40.239226
11
3.133452
21
40.145999
0
LINE
8
hole
62
5
39
2
10
3.133452
20
40.145999
11
3.071657
21
40.066041
0
LINE
8
hole
62
5
39
2
10
3.071657
20
40.066041
11
2.991273
21
40.004800
0
LINE
8
hole
62
5
39
2
10
2.991273
20
40.004800
11
2.897775
21
39.966452
0
LINE
8
hole
62
5
39
2
10
2.897775
20
39.966452
11
2.797538
21
39.953610
0
LINE
8
hole
62
5
39
2
10
2.797538
20
39.953610
11
2.697392
21
39.967151
0
LINE
8
hole
62
5
39
2
10
2.697392
20
39.967151
11
2.604164
21
40.006151
0
LINE
8
hole
62
5
39
2
10
2.604164
20
40.006151
11
2.524208
21
40.067952
0
LINE
8
hole
62
5
39
2
10
2.524208
20
40.067952
11
2.500131
21
40.090014
0
LINE
8
hole
62
5
39
2
10
20.073778
20
51.641350
11
20.037071
21
51.698969
0
LINE
8
hole
62
5
39
2
10
20.037071
20
51.698969
11
19.998531
21
51.792375
0
LINE
8
hole
62
5
39
2
10
19.998531
20
51.792375
11
19.985481
21
51.892571
0
LINE
8
hole
62
5
39
2
10
19.985481
20
51.892571
11
19.998807
21
51.992730
0
LINE
8
hole
62
5
39
2
10
19.998807
20
51.992730
11
20.037602
21
52.086026
0
LINE
8
hole
62
5
39
2
10
20.037602
20
52.086026
11
20.099220
21
52.166101
0
LINE
8
hole
62
5
39
2
10
20.099220
20
52.166101
11
20.179463
21
52.227500
0
LINE
8
hole
62
5
39
2
10
20.179463
20
52.227500
11
20.272861
21
52.266039
0
LINE
8
hole
62
5
39
2
10
20.272861
20
52.266039
11
20.373052
21
52.279092
0
LINE
8
hole
62
5
39
2
10
20.373052
20
52.279092
11
20.473206
21
52.265771
0
LINE
8
hole
62
5
39
2
10
20.473206
20
52.265771
11
20.566501
21
52.226983
0
LINE
8
hole
62
5
39
2
10
20.566501
20
52.226983
11
20.646579
21
52.165371
0
LINE
8
hole
62
5
39
2
10
20.646579
20
52.165371
11
20.707983
21
52.085133
0
LINE
8
hole
62
5
39
2
10
20.707983
20
52.085133
11
20.746530
21
51.991735
0
LINE
8
hole
62
5
39
2
10
20.746530
20
51.991735
11
20.759589
21
51.891543
0
LINE
8
hole
62
5
39
2
10
20.759589
20
51.891543
11
20.746273
21
51.791383
0
LINE
8
hole
62
5
39
2
10
20.746273
20
51.791383
11
20.707486
21
51.698081
0
LINE
8
hole
62
5
39
2
10
20.707486
20
51.698081
11
20.645871
21
51.617996
0
LINE
8
hole
62
5
39
2
10
20.645871
20
51.617996
11
20.565627
21
51.556587
0
LINE
8
hole
62
5
39
2
10
20.565627
20
51.556587
11
20.472223
21
51.518040
0
LINE
8
hole
62
5
39
2
10
20.472223
20
51.518040
11
20.372023
21
51.504983
0
LINE
8
hole
62
5
39
2
10
20.372023
20
51.504983
11
20.271858
21
51.518305
0
LINE
8
hole
62
5
39
2
10
20.271858
20
51.518305
11
20.178556
21
51.557099
0
LINE
8
hole
62
5
39
2
10
20.178556
20
51.557099
11
20.098474
21
51.618721
0
LINE
8
hole
62
5
39
2
10
20.098474
20
51.618721
11
20.073778
21
51.641350
0
LINE
8
hole
62
5
39
2
10
4.099424
20
49.794531
11
5.121665
21
50.833099
0
LINE
8
hole
62
5
39
2
10
5.121665
20
50.833099
11
5.263395
21
50.936937
0
LINE
8
hole
62
5
39
2
10
5.263395
20
50.936937
11
6.130512
21
51.507057
0
LINE
8
hole
62
5
39
2
10
6.130512
20
51.507057
11
6.406443
21
51.626499
0
LINE
8
hole
62
5
39
2
10
6.406443
20
51.626499
11
7.051110
21
51.962482
0
LINE
8
hole
62
5
39
2
10
7.051110
20
51.962482
11
7.421404
21
52.108519
0
LINE
8
hole
62
5
39
2
10
7.421404
20
52.108519
11
7.813721
21
52.283869
0
LINE
8
hole
62
5
39
2
10
7.813721
20
52.283869
11
8.286316
21
52.475986
0
LINE
8
hole
62
5
39
2
10
8.286316
20
52.475986
11
8.461104
21
52.538450
0
LINE
8
hole
62
5
39
2
10
8.461104
20
52.538450
11
9.125291
21
52.759780
0
LINE
8
hole
62
5
39
2
10
9.125291
20
52.759780
11
9.234174
21
52.787942
0
LINE
8
hole
62
5
39
2
10
9.234174
20
52.787942
11
9.997892
21
52.968712
0
LINE
8
hole
62
5
39
2
10
9.997892
20
52.968712
11
10.128687
21
52.988440
0
LINE
8
hole
62
5
39
2
10
10.128687
20
52.988440
11
10.905361
21
53.104763
0
LINE
8
hole
62
5
39
2
10
10.905361
20
53.104763
11
11.069965
21
53.114959
0
LINE
8
hole
62
5
39
2
10
11.069965
20
53.114959
11
11.835950
21
53.173310
0
LINE
8
hole
62
5
39
2
10
11.835950
20
53.173310
11
12.057331
21
53.171711
0
LINE
8
hole
62
5
39
2
10
12.057331
20
53.171711
11
12.791406
21
53.169279
0
LINE
8
hole
62
5
39
2
10
12.791406
20
53.169279
11
13.077710
21
53.154811
0
LINE
8
hole
62
5
39
2
10
13.077710
20
53.154811
11
13.742952
21
53.110935
0
LINE
8
hole
62
5
39
2
10
13.742952
20
53.110935
11
14.118815
21
53.068514
0
LINE
8
hole
62
5
39
2
10
14.118815
20
53.068514
11
14.693304
21
52.999716
0
LINE
8
hole
62
5
39
2
10
14.693304
20
52.999716
11
15.331634
21
52.857320
0
LINE
8
hole
62
5
39
2
10
15.331634
20
52.857320
11
15.782189
21
52.763601
0
LINE
8
hole
62
5
39
2
10
15.782189
20
52.763601
11
16.967530
21
52.280904
0
LINE
8
hole
62
5
39
2
10
16.967530
20
52.280904
11
17.102476
21
52.225340
0
LINE
8
hole
62
5
39
2
10
17.102476
20
52.225340
11
17.148525
21
52.189086
0
LINE
8
hole
62
5
39
2
10
17.148525
20
52.189086
11
18.416616
21
51.223353
0
LINE
8
hole
62
5
39
2
10
18.416616
20
51.223353
11
18.686247
21
50.871031
0
LINE
8
hole
62
5
39
2
10
18.686247
20
50.871031
11
19.532523
21
49.672651
0
LINE
8
hole
62
5
39
2
10
19.532523
20
49.672651
11
19.801742
21
48.679541
0
LINE
8
hole
62
5
39
2
10
19.801742
20
48.679541
11
20.039490
21
47.311395
0
LINE
8
hole
62
5
39
2
10
20.039490
20
47.311395
11
19.552461
21
45.454999
0
LINE
8
hole
62
5
39
2
10
19.552461
20
45.454999
11
19.275108
21
44.651226
0
LINE
8
hole
62
5
39
2
10
19.275108
20
44.651226
11
18.138162
21
43.175737
0
LINE
8
hole
62
5
39
2
10
18.138162
20
43.175737
11
17.689768
21
42.666842
0
LINE
8
hole
62
5
39
2
10
17.689768
20
42.666842
11
16.422156
21
41.646281
0
LINE
8
hole
62
5
39
2
10
16.422156
20
41.646281
11
16.083845
21
41.400518
0
LINE
8
hole
62
5
39
2
10
16.083845
20
41.400518
11
14.618321
21
40.681799
0
LINE
8
hole
62
5
39
2
10
14.618321
20
40.681799
11
14.433749
21
40.598619
0
LINE
8
hole
62
5
39
2
10
14.433749
20
40.598619
11
12.968587
21
40.304710
0
LINE
8
hole
62
5
39
2
10
12.968587
20
40.304710
11
12.626743
21
40.226948
0
LINE
8
hole
62
5
39
2
10
12.626743
20
40.226948
11
11.256139
21
40.200084
0
LINE
8
hole
62
5
39
2
10
11.256139
20
40.200084
11
10.695770
21
40.142220
0
LINE
8
hole
62
5
39
2
10
10.695770
20
40.142220
11
9.484130
21
40.245297
0
LINE
8
hole
62
5
39
2
10
9.484130
20
40.245297
11
8.581641
21
40.264053
0
LINE
8
hole
62
5
39
2
10
8.581641
20
40.264053
11
7.535505
21
40.607960
0
LINE
8
hole
62
5
39
2
10
7.535505
20
40.607960
11
6.142380
21
41.011738
0
LINE
8
hole
62
5
39
2
10
6.142380
20
41.011738
11
5.436032
21
41.646894
0
LINE
8
hole
62
5
39
2
10
5.436032
20
41.646894
11
3.830531
21
43.014168
0
LINE
8
hole
62
5
39
2
10
3.830531
20
43.014168
11
3.638646
21
43.614234
0
LINE
8
hole
62
5
39
2
10
3.638646
20
43.614234
11
2.893957
21
45.821799
0
LINE
8
hole
62
5
39
2
10
2.893957
20
45.821799
11
2.934814
21
46.130154
0
LINE
8
hole
62
5
39
2
10
2.934814
20
46.130154
11
3.238443
21
48.158462
0
LINE
8
hole
62
5
39
2
10
3.238443
20
48.158462
11
3.259049
21
48.206214
0
LINE
8
hole
62
5
39
2
10
3.259049
20
48.206214
11
3.769672
21
49.168836
0
LINE
8
hole
62
5
39
2
10
3.769672
20
49.168836
11
4.099424
21
49.794531
0
LINE
8
boundary
62
5
39
2
10
10.482207
20
38.081973
11
21.090752
21
37.153846
0
LINE
8
boundary
62
5
39
2
10
21.090752
20
37.153846
11
21.770064
21
44.918412
0
LINE
8
boundary
62
5
39
2
10
21.770064
20
44.918412
11
22.502676
21
53.292200
0
LINE
8
boundary
62
5
39
2
10
22.502676
20
53.292200
11
12.688321
21
54.150844
0
LINE
8
boundary
62
5
39
2
10
12.688321
20
54.150844
11
2.080673
21
55.078893
0
LINE
8
boundary
62
5
39
2
10
2.080673
20
55.078893
11
1.402969
21
47.332708
0
LINE
8
boundary
62
5
39
2
10
1.402969
20
47.332708
11
0.668750
21
38.940539
0
LINE
8
boundary
62
5
39
2
10
0.668750
20
38.940539
11
10.482207
21
38.081973
0
LINE
8
annotation
62
1
39
211
10
11.610920
20
53.357703
11
11.610920
21
53.500578
0
LINE
8
annotation
62
1
39
211
10
11.610920
20
53.357703
11
11.610920
21
53.500578
0
LINE
8
annotation
62
1
39
211
10
11.610920
20
53.500578
11
11.610920
21
53.357703
0
LINE
8
annotation
62
1
39
211
10
11.610920
20
53.357703
11
11.610920
21
53.214828
0
LINE
8
annotation
62
1
39
211
10
11.587108
20
38.946228
11
11.729983
21
38.946228
0
LINE
8
annotation
62
1
39
211
10
11.587108
20
38.946228
11
11.729983
21
38.946228
0
LINE
8
annotation
62
1
39
211
10
11.729983
20
38.946228
11
11.587108
21
38.946228
0
LINE
8
annotation
62
1
39
211
10
11.587108
20
38.946228
11
11.587108
21
38.803353
0
LINE
8
annotation
62
1
39
211
10
20.319283
20
46.116369
11
20.319283
21
46.259244
0
LINE
8
annotation
62
1
39
211
10
2.733080
20
46.140182
11
2.875955
21
46.140182
0
LINE
8
annotation
62
1
39
211
10
18.068012
20
38.795814
11
18.592292
21
41.154114
0
LINE
8
annotation
62
1
39
211
10
18.592292
20
41.154114
11
17.543584
21
41.154114
0
LINE
8
annotation
62
1
39
211
10
18.592292
20
40.103926
11
18.068012
21
40.103926
0
LINE
8
hole
62
5
39
2
10
42.443529
20
46.087672
11
42.500679
21
46.087672
0
LINE
8
hole
62
5
39
2
10
42.500679
20
46.087672
11
42.500679
21
46.144822
0
LINE
8
hole
62
5
39
2
10
42.500679
20
46.144822
11
42.443529
21
46.144822
0
LINE
8
hole
62
5
39
2
10
42.443529
20
46.144822
11
42.443529
21
46.087672
0
LINE
8
hole
62
5
39
2
10
24.976388
20
46.087672
11
25.033538
21
46.087672
0
LINE
8
hole
62
5
39
2
10
25.033538
20
46.087672
11
25.033538
21
46.144822
0
LINE
8
hole
62
5
39
2
10
25.033538
20
46.144822
11
24.976388
21
46.144822
0
LINE
8
hole
62
5
39
2
10
24.976388
20
46.144822
11
24.976388
21
46.087672
0
LINE
8
hole
62
5
39
2
10
33.708564
20
53.257813
11
33.765714
21
53.257813
0
LINE
8
hole
62
5
39
2
10
33.765714
20
53.257813
11
33.765714
21
53.314963
0
LINE
8
hole
62
5
39
2
10
33.765714
20
53.314963
11
33.708564
21
53.314963
0
LINE
8
hole
62
5
39
2
10
33.708564
20
53.314963
11
33.708564
21
53.257813
0
LINE
8
hole
62
5
39
2
10
33.708564
20
38.917775
11
33.765714
21
38.917775
0
LINE
8
hole
62
5
39
2
10
33.765714
20
38.917775
11
33.765714
21
38.974925
0
LINE
8
hole
62
5
39
2
10
33.765714
20
38.974925
11
33.708564
21
38.974925
0
LINE
8
hole
62
5
39
2
10
33.708564
20
38.974925
11
33.708564
21
38.917775
0
LINE
8
hole
62
5
39
2
10
24.651558
20
40.090014
11
24.596855
21
40.175879
0
LINE
8
hole
62
5
39
2
10
24.596855
20
40.175879
11
24.566240
21
40.272978
0
LINE
8
hole
62
5
39
2
10
24.566240
20
40.272978
11
24.561799
21
40.374692
0
LINE
8
hole
62
5
39
2
10
24.561799
20
40.374692
11
24.583835
21
40.474089
0
LINE
8
hole
62
5
39
2
10
24.583835
20
40.474089
11
24.630846
21
40.564396
0
LINE
8
hole
62
5
39
2
10
24.630846
20
40.564396
11
24.699628
21
40.639458
0
LINE
8
hole
62
5
39
2
10
24.699628
20
40.639458
11
24.785494
21
40.694160
0
LINE
8
hole
62
5
39
2
10
24.785494
20
40.694160
11
24.882592
21
40.724776
0
LINE
8
hole
62
5
39
2
10
24.882592
20
40.724776
11
24.984306
21
40.729216
0
LINE
8
hole
62
5
39
2
10
24.984306
20
40.729216
11
25.083703
21
40.707181
0
LINE
8
hole
62
5
39
2
10
25.083703
20
40.707181
11
25.174011
21
40.660170
0
LINE
8
hole
62
5
39
2
10
25.174011
20
40.660170
11
25.249072
21
40.591389
0
LINE
8
hole
62
5
39
2
10
25.249072
20
40.591389
11
25.303775
21
40.505522
0
LINE
8
hole
62
5
39
2
10
25.303775
20
40.505522
11
25.334391
21
40.408424
0
LINE
8
hole
62
5
39
2
10
25.334391
20
40.408424
11
25.338831
21
40.306711
0
LINE
8
hole
62
5
39
2
10
25.338831
20
40.306711
11
25.316796
21
40.207313
0
LINE
8
hole
62
5
39
2
10
25.316796
20
40.207313
11
25.269785
21
40.117006
0
LINE
8
hole
62
5
39
2
10
25.269785
20
40.117006
11
25.201003
21
40.041944
0
LINE
8
hole
62
5
39
2
10
25.201003
20
40.041944
11
25.115137
21
39.987241
0
LINE
8
hole
62
5
39
2
10
25.115137
20
39.987241
11
25.018038
21
39.956626
0
LINE
8
hole
62
5
39
2
10
25.018038
20
39.956626
11
24.916325
21
39.952185
0
LINE
8
hole
62
5
39
2
10
24.916325
20
39.952185
11
24.816927
21
39.974221
0
LINE
8
hole
62
5
39
2
10
24.816927
20
39.974221
11
24.726620
21
40.021232
0
LINE
8
hole
62
5
39
2
10
24.726620
20
40.021232
11
24.651558
21
40.090014
0
LINE
8
hole
62
5
39
2
10
41.088778
20
38.651944
11
41.034076
21
38.737809
0
LINE
8
hole
62
5
39
2
10
41.034076
20
38.737809
11
41.003461
21
38.834908
0
LINE
8
hole
62
5
39
2
10
41.003461
20
38.834908
11
40.999019
21
38.936621
0
LINE
8
hole
62
5
39
2
10
40.999019
20
38.936621
11
41.021055
21
39.036018
0
LINE
8
hole
62
5
39
2
10
41.021055
20
39.036018
11
41.068066
21
39.126325
0
LINE
8
hole
62
5
39
2
10
41.068066
20
39.126325
11
41.136848
21
39.201388
0
LINE
8
hole
62
5
39
2
10
41.136848
20
39.201388
11
41.222715
21
39.256090
0
LINE
8
hole
62
5
39
2
10
41.222715
20
39.256090
11
41.319813
21
39.286706
0
LINE
8
hole
62
5
39
2
10
41.319813
20
39.286706
11
41.421526
21
39.291146
0
LINE
8
hole
62
5
39
2
10
41.421526
20
39.291146
11
41.520924
21
39.269111
0
LINE
8
hole
62
5
39
2
10
41.520924
20
39.269111
11
41.611231
21
39.222100
0
LINE
8
hole
62
5
39
2
10
41.611231
20
39.222100
11
41.686293
21
39.153317
0
LINE
8
hole
62
5
39
2
10
41.686293
20
39.153317
11
41.740996
21
39.067452
0
LINE
8
hole
62
5
39
2
10
41.740996
20
39.067452
11
41.771611
21
38.970353
0
LINE
8
hole
62
5
39
2
10
41.771611
20
38.970353
11
41.776052
21
38.868639
0
LINE
8
hole
62
5
39
2
10
41.776052
20
38.868639
11
41.754016
21
38.769243
0
LINE
8
hole
62
5
39
2
10
41.754016
20
38.769243
11
41.707005
21
38.678936
0
LINE
8
hole
62
5
39
2
10
41.707005
20
38.678936
11
41.638223
21
38.603873
0
LINE
8
hole
62
5
39
2
10
41.638223
20
38.603873
11
41.552357
21
38.549171
0
LINE
8
hole
62
5
39
2
10
41.552357
20
38.549171
11
41.455259
21
38.518555
0
LINE
8
hole
62
5
39
2
10
41.455259
20
38.518555
11
41.353545
21
38.514115
0
LINE
8
hole
62
5
39
2
10
41.353545
20
38.514115
11
41.254148
21
38.536150
0
LINE
8
hole
62
5
39
2
10
41.254148
20
38.536150
11
41.163841
21
38.583161
0
LINE
8
hole
62
5
39
2
10
41.163841
20
38.583161
11
41.088778
21
38.651944
0
LINE
8
hole
62
5
39
2
10
25.787983
20
53.079421
11
25.733282
21
53.165286
0
LINE
8
hole
62
5
39
2
10
25.733282
20
53.165286
11
25.702666
21
53.262384
0
LINE
8
hole
62
5
39
2
10
25.702666
20
53.262384
11
25.698225
21
53.364098
0
LINE
8
hole
62
5
39
2
10
25.698225
20
53.364098
11
25.720261
21
53.463496
0
LINE
8
hole
62
5
39
2
10
25.720261
20
53.463496
11
25.767272
21
53.553802
0
LINE
8
hole
62
5
39
2
10
25.767272
20
53.553802
11
25.836054
21
53.628865
0
LINE
8
hole
62
5
39
2
10
25.836054
20
53.628865
11
25.921920
21
53.683568
0
LINE
8
hole
62
5
39
2
10
25.921920
20
53.683568
11
26.019018
21
53.714183
0
LINE
8
hole
62
5
39
2
10
26.019018
20
53.714183
11
26.120732
21
53.718624
0
LINE
8
hole
62
5
39
2
10
26.120732
20
53.718624
11
26.220130
21
53.696588
0
LINE
8
hole
62
5
39
2
10
26.220130
20
53.696588
11
26.310436
21
53.649577
0
LINE
8
hole
62
5
39
2
10
26.310436
20
53.649577
11
26.385499
21
53.580795
0
LINE
8
hole
62
5
39
2
10
26.385499
20
53.580795
11
26.440201
21
53.494928
0
LINE
8
hole
62
5
39
2
10
26.440201
20
53.494928
11
26.470816
21
53.397831
0
LINE
8
hole
62
5
39
2
10
26.470816
20
53.397831
11
26.475258
21
53.296117
0
LINE
8
hole
62
5
39
2
10
26.475258
20
53.296117
11
26.453221
21
53.196720
0
LINE
8
hole
62
5
39
2
10
26.453221
20
53.196720
11
26.406210
21
53.106413
0
LINE
8
hole
62
5
39
2
10
26.406210
20
53.106413
11
26.337428
21
53.031351
0
LINE
8
hole
62
5
39
2
10
26.337428
20
53.031351
11
26.251563
21
52.976648
0
LINE
8
hole
62
5
39
2
10
26.251563
20
52.976648
11
26.154464
21
52.946033
0
LINE
8
hole
62
5
39
2
10
26.154464
20
52.946033
11
26.052750
21
52.941592
0
LINE
8
hole
62
5
39
2
10
26.052750
20
52.941592
11
25.953353
21
52.963628
0
LINE
8
hole
62
5
39
2
10
25.953353
20
52.963628
11
25.863046
21
53.010639
0
LINE
8
hole
62
5
39
2
10
25.863046
20
53.010639
11
25.787983
21
53.079421
0
LINE
8
hole
62
5
39
2
10
42.225204
20
51.641350
11
42.170501
21
51.727216
0
LINE
8
hole
62
5
39
2
10
42.170501
20
51.727216
11
42.139886
21
51.824314
0
LINE
8
hole
62
5
39
2
10
42.139886
20
51.824314
11
42.135446
21
51.926028
0
LINE
8
hole
62
5
39
2
10
42.135446
20
51.926028
11
42.157481
21
52.025425
0
LINE
8
hole
62
5
39
2
10
42.157481
20
52.025425
11
42.204492
21
52.115732
0
LINE
8
hole
62
5
39
2
10
42.204492
20
52.115732
11
42.273274
21
52.190794
0
LINE
8
hole
62
5
39
2
10
42.273274
20
52.190794
11
42.359141
21
52.245498
0
LINE
8
hole
62
5
39
2
10
42.359141
20
52.245498
11
42.456239
21
52.276112
0
LINE
8
hole
62
5
39
2
10
42.456239
20
52.276112
11
42.557953
21
52.280554
0
LINE
8
hole
62
5
39
2
10
42.557953
20
52.280554
11
42.657349
21
52.258517
0
LINE
8
hole
62
5
39
2
10
42.657349
20
52.258517
11
42.747657
21
52.211507
0
LINE
8
hole
62
5
39
2
10
42.747657
20
52.211507
11
42.822719
21
52.142724
0
LINE
8
hole
62
5
39
2
10
42.822719
20
52.142724
11
42.877422
21
52.056858
0
LINE
8
hole
62
5
39
2
10
42.877422
20
52.056858
11
42.908037
21
51.959760
0
LINE
8
hole
62
5
39
2
10
42.908037
20
51.959760
11
42.912478
21
51.858046
0
LINE
8
hole
62
5
39
2
10
42.912478
20
51.858046
11
42.890442
21
51.758649
0
LINE
8
hole
62
5
39
2
10
42.890442
20
51.758649
11
42.843431
21
51.668343
0
LINE
8
hole
62
5
39
2
10
42.843431
20
51.668343
11
42.774649
21
51.593280
0
LINE
8
hole
62
5
39
2
10
42.774649
20
51.593280
11
42.688782
21
51.538577
0
LINE
8
hole
62
5
39
2
10
42.688782
20
51.538577
11
42.591684
21
51.507962
0
LINE
8
hole
62
5
39
2
10
42.591684
20
51.507962
11
42.489971
21
51.503521
0
LINE
8
hole
62
5
39
2
10
42.489971
20
51.503521
11
42.390574
21
51.525557
0
LINE
8
hole
62
5
39
2
10
42.390574
20
51.525557
11
42.300267
21
51.572568
0
LINE
8
hole
62
5
39
2
10
42.300267
20
51.572568
11
42.225204
21
51.641350
0
LINE
8
hole
62
5
39
2
10
28.347175
20
41.785332
11
26.982449
21
42.934771
0
LINE
8
hole
62
5
39
2
10
26.982449
20
42.934771
11
26.314247
21
43.484682
0
LINE
8
hole
62
5
39
2
10
26.314247
20
43.484682
11
26.250131
21
43.658541
0
LINE
8
hole
62
5
39
2
10
26.250131
20
43.658541
11
25.630830
21
45.337856
0
LINE
8
hole
62
5
39
2
10
25.630830
20
45.337856
11
25.245287
21
46.178206
0
LINE
8
hole
62
5
39
2
10
25.245287
20
46.178206
11
25.266815
21
46.312790
0
LINE
8
hole
62
5
39
2
10
25.266815
20
46.312790
11
25.489363
21
47.704022
0
LINE
8
hole
62
5
39
2
10
25.489363
20
47.704022
11
25.630939
21
48.786443
0
LINE
8
hole
62
5
39
2
10
25.630939
20
48.786443
11
26.300511
21
49.686211
0
LINE
8
hole
62
5
39
2
10
26.300511
20
49.686211
11
26.411780
21
49.830372
0
LINE
8
hole
62
5
39
2
10
26.411780
20
49.830372
11
26.988161
21
50.577130
0
LINE
8
hole
62
5
39
2
10
26.988161
20
50.577130
11
27.648604
21
50.948488
0
LINE
8
hole
62
5
39
2
10
27.648604
20
50.948488
11
28.646927
21
51.454679
0
LINE
8
hole
62
5
39
2
10
28.646927
20
51.454679
11
29.104435
21
51.586211
0
LINE
8
hole
62
5
39
2
10
29.104435
20
51.586211
11
30.196452
21
51.835024
0
LINE
8
hole
62
5
39
2
10
30.196452
20
51.835024
11
30.755900
21
51.980224
0
LINE
8
hole
62
5
39
2
10
30.755900
20
51.980224
11
31.509060
21
52.169187
0
LINE
8
hole
62
5
39
2
10
31.509060
20
52.169187
11
32.320008
21
52.379542
0
LINE
8
hole
62
5
39
2
10
32.320008
20
52.379542
11
32.464469
21
52.418021
0
LINE
8
hole
62
5
39
2
10
32.464469
20
52.418021
11
32.630018
21
52.462116
0
LINE
8
hole
62
5
39
2
10
32.630018
20
52.462116
11
33.594736
21
52.626056
0
LINE
8
hole
62
5
39
2
10
33.594736
20
52.626056
11
33.698962
21
52.642591
0
LINE
8
hole
62
5
39
2
10
33.698962
20
52.642591
11
34.717702
21
52.696272
0
LINE
8
hole
62
5
39
2
10
34.717702
20
52.696272
11
34.784176
21
52.696772
0
LINE
8
hole
62
5
39
2
10
34.784176
20
52.696772
11
35.791993
21
52.627870
0
LINE
8
hole
62
5
39
2
10
35.791993
20
52.627870
11
35.905067
21
52.610149
0
LINE
8
hole
62
5
39
2
10
35.905067
20
52.610149
11
36.832818
21
52.445530
0
LINE
8
hole
62
5
39
2
10
36.832818
20
52.445530
11
37.110208
21
52.368988
0
LINE
8
hole
62
5
39
2
10
37.110208
20
52.368988
11
37.165598
21
52.350622
0
LINE
8
hole
62
5
39
2
10
37.165598
20
52.350622
11
37.963074
21
52.086202
0
LINE
8
hole
62
5
39
2
10
37.963074
20
52.086202
11
38.534335
21
51.825483
0
LINE
8
hole
62
5
39
2
10
38.534335
20
51.825483
11
38.649174
21
51.747890
0
LINE
8
hole
62
5
39
2
10
38.649174
20
51.747890
11
39.763774
21
50.994783
0
LINE
8
hole
62
5
39
2
10
39.763774
20
50.994783
11
40.114713
21
50.716585
0
LINE
8
hole
62
5
39
2
10
40.114713
20
50.716585
11
40.199827
21
50.550192
0
LINE
8
hole
62
5
39
2
10
40.199827
20
50.550192
11
40.903688
21
49.174179
0
LINE
8
hole
62
5
39
2
10
40.903688
20
49.174179
11
41.050793
21
48.880073
0
LINE
8
hole
62
5
39
2
10
41.050793
20
48.880073
11
41.054713
21
48.732833
0
LINE
8
hole
62
5
39
2
10
41.054713
20
48.732833
11
41.098011
21
47.106191
0
LINE
8
hole
62
5
39
2
10
41.098011
20
47.106191
11
41.106190
21
46.723032
0
LINE
8
hole
62
5
39
2
10
41.106190
20
46.723032
11
41.055540
21
46.607610
0
LINE
8
hole
62
5
39
2
10
41.055540
20
46.607610
11
40.381028
21
45.070509
0
LINE
8
hole
62
5
39
2
10
40.381028
20
45.070509
11
40.223629
21
44.726565
0
LINE
8
hole
62
5
39
2
10
40.223629
20
44.726565
11
40.160654
21
44.660978
0
LINE
8
hole
62
5
39
2
10
40.160654
20
44.660978
11
39.187979
21
43.647944
0
LINE
8
hole
62
5
39
2
10
39.187979
20
43.647944
11
38.802966
21
43.257025
0
LINE
8
hole
62
5
39
2
10
38.802966
20
43.257025
11
37.622148
21
42.505545
0
LINE
8
hole
62
5
39
2
10
37.622148
20
42.505545
11
37.294711
21
42.290812
0
LINE
8
hole
62
5
39
2
10
37.294711
20
42.290812
11
37.212513
21
42.258322
0
LINE
8
hole
62
5
39
2
10
37.212513
20
42.258322
11
35.985248
21
41.773212
0
LINE
8
hole
62
5
39
2
10
35.985248
20
41.773212
11
35.836023
21
41.708837
0
LINE
8
hole
62
5
39
2
10
35.836023
20
41.708837
11
35.774240
21
41.690834
0
LINE
8
hole
62
5
39
2
10
35.774240
20
41.690834
11
34.561800
21
41.337552
0
LINE
8
hole
62
5
39
2
10
34.561800
20
41.337552
11
34.339689
21
41.269978
0
LINE
8
hole
62
5
39
2
10
34.339689
20
41.269978
11
34.246327
21
41.251316
0
LINE
8
hole
62
5
39
2
10
34.246327
20
41.251316
11
33.023129
21
41.006804
0
LINE
8
hole
62
5
39
2
10
33.023129
20
41.006804
11
32.673581
21
40.944558
0
LINE
8
hole
62
5
39
2
10
32.673581
20
40.944558
11
32.561868
21
40.944432
0
LINE
8
hole
62
5
39
2
10
32.561868
20
40.944432
11
31.299752
21
40.943014
0
LINE
8
hole
62
5
39
2
10
31.299752
20
40.943014
11
30.722161
21
40.963264
0
LINE
8
hole
62
5
39
2
10
30.722161
20
40.963264
11
30.610888
21
40.997432
0
LINE
8
hole
62
5
39
2
10
30.610888
20
40.997432
11
29.206803
21
41.428568
0
LINE
8
hole
62
5
39
2
10
29.206803
20
41.428568
11
28.475630
21
41.677140
0
LINE
8
hole
62
5
39
2
10
28.475630
20
41.677140
11
28.347175
21
41.785332
0
LINE
8
boundary
62
5
39
2
10
40.584584
20
37.386355
11
43.242178
21
37.153846
0
LINE
8
boundary
62
5
39
2
10
43.242178
20
37.153846
11
44.470572
21
51.194440
0
LINE
8
boundary
62
5
39
2
10
44.470572
20
51.194440
11
44.654102
21
53.292199
0
LINE
8
boundary
62
5
39
2
10
44.654102
20
53.292199
11
26.906888
21
54.844879
0
LINE
8
boundary
62
5
39
2
10
26.906888
20
54.844879
11
24.232099
21
55.078893
0
LINE
8
boundary
62
5
39
2
10
24.232099
20
55.078893
11
23.005314
21
41.056676
0
LINE
8
boundary
62
5
39
2
10
23.005314
20
41.056676
11
22.820176
21
38.940539
0
LINE
8
boundary
62
5
39
2
10
22.820176
20
38.940539
11
40.584584
21
37.386355
0
LINE
8
annotation
62
1
39
211
10
42.472104
20
46.116247
11
42.472104
21
46.259122
0
LINE
8
annotation
62
1
39
211
10
25.004963
20
46.116247
11
25.147838
21
46.116247
0
LINE
8
annotation
62
1
39
211
10
33.737139
20
53.286388
11
33.737139
21
53.429263
0
LINE
8
annotation
62
1
39
211
10
33.737139
20
53.286388
11
33.737139
21
53.429263
0
LINE
8
annotation
62
1
39
211
10
33.737139
20
53.429263
11
33.737139
21
53.286388
0
LINE
8
annotation
62
1
39
211
10
33.737139
20
53.286388
11
33.880014
21
53.286388
0
LINE
8
annotation
62
1
39
211
10
33.737139
20
38.946350
11
33.737139
21
38.803475
0
LINE
8
annotation
62
1
39
211
10
42.282348
20
40.449873
11
40.885845
21
40.449873
0
LINE
8
annotation
62
1
39
211
10
40.885845
20
40.449873
11
42.176259
21
42.527275
0
LINE
8
annotation
62
1
39
211
10
42.176259
20
42.527275
11
42.176259
21
42.527275
0
LINE
8
annotation
62
1
39
211
10
42.176259
20
42.527275
11
42.177802
21
42.529184
0
LINE
8
annotation
62
1
39
211
10
42.177802
20
42.529184
11
42.179281
21
42.531109
0
LINE
8
annotation
62
1
39
211
10
42.179281
20
42.531109
11
42.180707
21
42.533067
0
LINE
8
annotation
62
1
39
211
10
42.180707
20
42.533067
11
42.182089
21
42.535073
0
LINE
8
annotation
62
1
39
211
10
42.182089
20
42.535073
11
42.183437
21
42.537144
0
LINE
8
annotation
62
1
39
211
10
42.183437
20
42.537144
11
42.184760
21
42.539296
0
LINE
8
annotation
62
1
39
211
10
42.184760
20
42.539296
11
42.186069
21
42.541546
0
LINE
8
annotation
62
1
39
211
10
42.186069
20
42.541546
11
42.187373
21
42.543909
0
LINE
8
annotation
62
1
39
211
10
42.187373
20
42.543909
11
42.188682
21
42.546403
0
LINE
8
annotation
62
1
39
211
10
42.188682
20
42.546403
11
42.188682
21
42.546403
0
LINE
8
annotation
62
1
39
211
10
42.188682
20
42.546403
11
42.241963
21
42.660801
0
LINE
8
annotation
62
1
39
211
10
42.241963
20
42.660801
11
42.273089
21
42.779385
0
LINE
8
annotation
62
1
39
211
10
42.273089
20
42.779385
11
42.282823
21
42.899476
0
LINE
8
annotation
62
1
39
211
10
42.282823
20
42.899476
11
42.271926
21
43.018393
0
LINE
8
annotation
62
1
39
211
10
42.271926
20
43.018393
11
42.241164
21
43.133457
0
LINE
8
annotation
62
1
39
211
10
42.241164
20
43.133457
11
42.191297
21
43.241988
0
LINE
8
annotation
62
1
39
211
10
42.191297
20
43.241988
11
42.123089
21
43.341308
0
LINE
8
annotation
62
1
39
211
10
42.123089
20
43.341308
11
42.037303
21
43.428736
0
LINE
8
annotation
62
1
39
211
10
42.037303
20
43.428736
11
41.934701
21
43.501593
0
LINE
8
annotation
62
1
39
211
10
41.934701
20
43.501593
11
41.934701
21
43.501593
0
LINE
8
annotation
62
1
39
211
10
41.934701
20
43.501593
11
41.819984
21
43.554117
0
LINE
8
annotation
62
1
39
211
10
41.819984
20
43.554117
11
41.701218
21
43.584763
0
LINE
8
annotation
62
1
39
211
10
41.701218
20
43.584763
11
41.581058
21
43.594222
0
LINE
8
annotation
62
1
39
211
10
41.581058
20
43.594222
11
41.462159
21
43.583182
0
LINE
8
annotation
62
1
39
211
10
41.462159
20
43.583182
11
41.347176
21
43.552334
0
LINE
8
annotation
62
1
39
211
10
41.347176
20
43.552334
11
41.238765
21
43.502368
0
LINE
8
annotation
62
1
39
211
10
41.238765
20
43.502368
11
41.139580
21
43.433972
0
LINE
8
annotation
62
1
39
211
10
41.139580
20
43.433972
11
41.052276
21
43.347838
0
LINE
8
annotation
62
1
39
211
10
41.052276
20
43.347838
11
40.979510
21
43.244654
0
LINE
8
annotation
62
1
39
211
10
40.979510
20
43.244654
11
40.887817
21
43.068760
0
LINE
8
hole
62
5
39
2
10
64.593560
20
46.087794
11
64.650710
21
46.087794
0
LINE
8
hole
62
5
39
2
10
64.650710
20
46.087794
11
64.650710
21
46.144944
0
LINE
8
hole
62
5
39
2
10
64.650710
20
46.144944
11
64.593560
21
46.144944
0
LINE
8
hole
62
5
39
2
10
64.593560
20
46.144944
11
64.593560
21
46.087794
0
LINE
8
hole
62
5
39
2
10
47.126419
20
46.087794
11
47.183569
21
46.087794
0
LINE
8
hole
62
5
39
2
10
47.183569
20
46.087794
11
47.183569
21
46.144944
0
LINE
8
hole
62
5
39
2
10
47.183569
20
46.144944
11
47.126419
21
46.144944
0
LINE
8
hole
62
5
39
2
10
47.126419
20
46.144944
11
47.126419
21
46.087794
0
LINE
8
hole
62
5
39
2
10
46.802984
20
40.090014
11
46.748281
21
40.175880
0
LINE
8
hole
62
5
39
2
10
46.748281
20
40.175880
11
46.717667
21
40.272978
0
LINE
8
hole
62
5
39
2
10
46.717667
20
40.272978
11
46.713226
21
40.374692
0
LINE
8
hole
62
5
39
2
10
46.713226
20
40.374692
11
46.735262
21
40.474089
0
LINE
8
hole
62
5
39
2
10
46.735262
20
40.474089
11
46.782272
21
40.564396
0
LINE
8
hole
62
5
39
2
10
46.782272
20
40.564396
11
46.851055
21
40.639458
0
LINE
8
hole
62
5
39
2
10
46.851055
20
40.639458
11
46.936920
21
40.694161
0
LINE
8
hole
62
5
39
2
10
46.936920
20
40.694161
11
47.034019
21
40.724776
0
LINE
8
hole
62
5
39
2
10
47.034019
20
40.724776
11
47.135732
21
40.729216
0
LINE
8
hole
62
5
39
2
10
47.135732
20
40.729216
11
47.235129
21
40.707180
0
LINE
8
hole
62
5
39
2
10
47.235129
20
40.707180
11
47.325437
21
40.660170
0
LINE
8
hole
62
5
39
2
10
47.325437
20
40.660170
11
47.400499
21
40.591388
0
LINE
8
hole
62
5
39
2
10
47.400499
20
40.591388
11
47.455202
21
40.505522
0
LINE
8
hole
62
5
39
2
10
47.455202
20
40.505522
11
47.485817
21
40.408424
0
LINE
8
hole
62
5
39
2
10
47.485817
20
40.408424
11
47.490257
21
40.306711
0
LINE
8
hole
62
5
39
2
10
47.490257
20
40.306711
11
47.468222
21
40.207313
0
LINE
8
hole
62
5
39
2
10
47.468222
20
40.207313
11
47.421211
21
40.117006
0
LINE
8
hole
62
5
39
2
10
47.421211
20
40.117006
11
47.352429
21
40.041944
0
LINE
8
hole
62
5
39
2
10
47.352429
20
40.041944
11
47.266563
21
39.987241
0
LINE
8
hole
62
5
39
2
10
47.266563
20
39.987241
11
47.169465
21
39.956626
0
LINE
8
hole
62
5
39
2
10
47.169465
20
39.956626
11
47.067751
21
39.952185
0
LINE
8
hole
62
5
39
2
10
47.067751
20
39.952185
11
46.968354
21
39.974221
0
LINE
8
hole
62
5
39
2
10
46.968354
20
39.974221
11
46.878046
21
40.021232
0
LINE
8
hole
62
5
39
2
10
46.878046
20
40.021232
11
46.802984
21
40.090014
0
LINE
8
hole
62
5
39
2
10
63.240205
20
38.651944
11
63.185503
21
38.737809
0
LINE
8
hole
62
5
39
2
10
63.185503
20
38.737809
11
63.154887
21
38.834908
0
LINE
8
hole
62
5
39
2
10
63.154887
20
38.834908
11
63.150446
21
38.936621
0
LINE
8
hole
62
5
39
2
10
63.150446
20
38.936621
11
63.172481
21
39.036018
0
LINE
8
hole
62
5
39
2
10
63.172481
20
39.036018
11
63.219492
21
39.126326
0
LINE
8
hole
62
5
39
2
10
63.219492
20
39.126326
11
63.288275
21
39.201388
0
LINE
8
hole
62
5
39
2
10
63.288275
20
39.201388
11
63.374141
21
39.256090
0
LINE
8
hole
62
5
39
2
10
63.374141
20
39.256090
11
63.471239
21
39.286706
0
LINE
8
hole
62
5
39
2
10
63.471239
20
39.286706
11
63.572953
21
39.291146
0
LINE
8
hole
62
5
39
2
10
63.572953
20
39.291146
11
63.672350
21
39.269111
0
LINE
8
hole
62
5
39
2
10
63.672350
20
39.269111
11
63.762657
21
39.222100
0
LINE
8
hole
62
5
39
2
10
63.762657
20
39.222100
11
63.837720
21
39.153317
0
LINE
8
hole
62
5
39
2
10
63.837720
20
39.153317
11
63.892422
21
39.067452
0
LINE
8
hole
62
5
39
2
10
63.892422
20
39.067452
11
63.923037
21
38.970353
0
LINE
8
hole
62
5
39
2
10
63.923037
20
38.970353
11
63.927479
21
38.868640
0
LINE
8
hole
62
5
39
2
10
63.927479
20
38.868640
11
63.905442
21
38.769243
0
LINE
8
hole
62
5
39
2
10
63.905442
20
38.769243
11
63.858431
21
38.678936
0
LINE
8
hole
62
5
39
2
10
63.858431
20
38.678936
11
63.789649
21
38.603873
0
LINE
8
hole
62
5
39
2
10
63.789649
20
38.603873
11
63.703784
21
38.549170
0
LINE
8
hole
62
5
39
2
10
63.703784
20
38.549170
11
63.606685
21
38.518555
0
LINE
8
hole
62
5
39
2
10
63.606685
20
38.518555
11
63.504971
21
38.514115
0
LINE
8
hole
62
5
39
2
10
63.504971
20
38.514115
11
63.405574
21
38.536150
0
LINE
8
hole
62
5
39
2
10
63.405574
20
38.536150
11
63.315267
21
38.583161
0
LINE
8
hole
62
5
39
2
10
63.315267
20
38.583161
11
63.240205
21
38.651944
0
LINE
8
hole
62
5
39
2
10
47.854093
20
53.262385
11
47.849651
21
53.364098
0
LINE
8
hole
62
5
39
2
10
47.849651
20
53.364098
11
47.871687
21
53.463496
0
LINE
8
hole
62
5
39
2
10
47.871687
20
53.463496
11
47.918698
21
53.553803
0
LINE
8
hole
62
5
39
2
10
47.918698
20
53.553803
11
47.987480
21
53.628865
0
LINE
8
hole
62
5
39
2
10
47.987480
20
53.628865
11
48.073346
21
53.683568
0
LINE
8
hole
62
5
39
2
10
48.073346
20
53.683568
11
48.170445
21
53.714182
0
LINE
8
hole
62
5
39
2
10
48.170445
20
53.714182
11
48.272158
21
53.718623
0
LINE
8
hole
62
5
39
2
10
48.272158
20
53.718623
11
48.371555
21
53.696588
0
LINE
8
hole
62
5
39
2
10
48.371555
20
53.696588
11
48.461862
21
53.649577
0
LINE
8
hole
62
5
39
2
10
48.461862
20
53.649577
11
48.536925
21
53.580795
0
LINE
8
hole
62
5
39
2
10
48.536925
20
53.580795
11
48.591627
21
53.494929
0
LINE
8
hole
62
5
39
2
10
48.591627
20
53.494929
11
48.622243
21
53.397831
0
LINE
8
hole
62
5
39
2
10
48.622243
20
53.397831
11
48.626684
21
53.296117
0
LINE
8
hole
62
5
39
2
10
48.626684
20
53.296117
11
48.604648
21
53.196720
0
LINE
8
hole
62
5
39
2
10
48.604648
20
53.196720
11
48.557637
21
53.106413
0
LINE
8
hole
62
5
39
2
10
48.557637
20
53.106413
11
48.488855
21
53.031350
0
LINE
8
hole
62
5
39
2
10
48.488855
20
53.031350
11
48.402989
21
52.976648
0
LINE
8
hole
62
5
39
2
10
48.402989
20
52.976648
11
48.305890
21
52.946033
0
LINE
8
hole
62
5
39
2
10
48.305890
20
52.946033
11
48.204176
21
52.941592
0
LINE
8
hole
62
5
39
2
10
48.204176
20
52.941592
11
48.104779
21
52.963628
0
LINE
8
hole
62
5
39
2
10
48.104779
20
52.963628
11
48.014472
21
53.010639
0
LINE
8
hole
62
5
39
2
10
48.014472
20
53.010639
11
47.939410
21
53.079420
0
LINE
8
hole
62
5
39
2
10
47.939410
20
53.079420
11
47.884707
21
53.165286
0
LINE
8
hole
62
5
39
2
10
47.884707
20
53.165286
11
47.854093
21
53.262385
0
LINE
8
hole
62
5
39
2
10
64.376630
20
51.641350
11
64.321928
21
51.727216
0
LINE
8
hole
62
5
39
2
10
64.321928
20
51.727216
11
64.291312
21
51.824314
0
LINE
8
hole
62
5
39
2
10
64.291312
20
51.824314
11
64.286872
21
51.926028
0
LINE
8
hole
62
5
39
2
10
64.286872
20
51.926028
11
64.308908
21
52.025425
0
LINE
8
hole
62
5
39
2
10
64.308908
20
52.025425
11
64.355919
21
52.115732
0
LINE
8
hole
62
5
39
2
10
64.355919
20
52.115732
11
64.424701
21
52.190794
0
LINE
8
hole
62
5
39
2
10
64.424701
20
52.190794
11
64.510566
21
52.245498
0
LINE
8
hole
62
5
39
2
10
64.510566
20
52.245498
11
64.607665
21
52.276112
0
LINE
8
hole
62
5
39
2
10
64.607665
20
52.276112
11
64.709379
21
52.280554
0
LINE
8
hole
62
5
39
2
10
64.709379
20
52.280554
11
64.808776
21
52.258517
0
LINE
8
hole
62
5
39
2
10
64.808776
20
52.258517
11
64.899083
21
52.211506
0
LINE
8
hole
62
5
39
2
10
64.899083
20
52.211506
11
64.974145
21
52.142725
0
LINE
8
hole
62
5
39
2
10
64.974145
20
52.142725
11
65.028849
21
52.056858
0
LINE
8
hole
62
5
39
2
10
65.028849
20
52.056858
11
65.059463
21
51.959760
0
LINE
8
hole
62
5
39
2
10
65.059463
20
51.959760
11
65.063904
21
51.858047
0
LINE
8
hole
62
5
39
2
10
65.063904
20
51.858047
11
65.041868
21
51.758650
0
LINE
8
hole
62
5
39
2
10
65.041868
20
51.758650
11
64.994857
21
51.668343
0
LINE
8
hole
62
5
39
2
10
64.994857
20
51.668343
11
64.926075
21
51.593280
0
LINE
8
hole
62
5
39
2
10
64.926075
20
51.593280
11
64.840209
21
51.538577
0
LINE
8
hole
62
5
39
2
10
64.840209
20
51.538577
11
64.743110
21
51.507962
0
LINE
8
hole
62
5
39
2
10
64.743110
20
51.507962
11
64.641397
21
51.503521
0
LINE
8
hole
62
5
39
2
10
64.641397
20
51.503521
11
64.542000
21
51.525557
0
LINE
8
hole
62
5
39
2
10
64.542000
20
51.525557
11
64.451693
21
51.572568
0
LINE
8
hole
62
5
39
2
10
64.451693
20
51.572568
11
64.376630
21
51.641350
0
LINE
8
hole
62
5
39
2
10
54.583482
20
44.993243
11
54.386367
21
45.100251
0
LINE
8
hole
62
5
39
2
10
54.386367
20
45.100251
11
54.212701
21
45.242185
0
LINE
8
hole
62
5
39
2
10
54.212701
20
45.242185
11
54.057348
21
45.423284
0
LINE
8
hole
62
5
39
2
10
54.057348
20
45.423284
11
53.938642
21
45.630286
0
LINE
8
hole
62
5
39
2
10
53.938642
20
45.630286
11
53.860788
21
45.855872
0
LINE
8
hole
62
5
39
2
10
53.860788
20
45.855872
11
53.826547
21
46.092063
0
LINE
8
hole
62
5
39
2
10
53.826547
20
46.092063
11
53.837139
21
46.330507
0
LINE
8
hole
62
5
39
2
10
53.837139
20
46.330507
11
53.892193
21
46.562766
0
LINE
8
hole
62
5
39
2
10
53.892193
20
46.562766
11
53.986013
21
46.774063
0
LINE
8
hole
62
5
39
2
10
53.986013
20
46.774063
11
54.116626
21
46.964852
0
LINE
8
hole
62
5
39
2
10
54.116626
20
46.964852
11
54.279703
21
47.128792
0
LINE
8
hole
62
5
39
2
10
54.279703
20
47.128792
11
54.469833
21
47.260433
0
LINE
8
hole
62
5
39
2
10
54.469833
20
47.260433
11
54.680708
21
47.355400
0
LINE
8
hole
62
5
39
2
10
54.680708
20
47.355400
11
54.905326
21
47.410533
0
LINE
8
hole
62
5
39
2
10
54.905326
20
47.410533
11
55.136230
21
47.423996
0
LINE
8
hole
62
5
39
2
10
55.136230
20
47.423996
11
55.365751
21
47.395340
0
LINE
8
hole
62
5
39
2
10
55.365751
20
47.395340
11
55.586269
21
47.325513
0
LINE
8
hole
62
5
39
2
10
55.586269
20
47.325513
11
55.799318
21
47.210976
0
LINE
8
hole
62
5
39
2
10
55.799318
20
47.210976
11
55.975527
21
47.067360
0
LINE
8
hole
62
5
39
2
10
55.975527
20
47.067360
11
56.132628
21
46.883753
0
LINE
8
hole
62
5
39
2
10
56.132628
20
46.883753
11
56.252076
21
46.673677
0
LINE
8
hole
62
5
39
2
10
56.252076
20
46.673677
11
56.329532
21
46.444750
0
LINE
8
hole
62
5
39
2
10
56.329532
20
46.444750
11
56.362180
21
46.205275
0
LINE
8
hole
62
5
39
2
10
56.362180
20
46.205275
11
56.348830
21
45.963940
0
LINE
8
hole
62
5
39
2
10
56.348830
20
45.963940
11
56.289962
21
45.729501
0
LINE
8
hole
62
5
39
2
10
56.289962
20
45.729501
11
56.258148
21
45.646821
0
LINE
8
hole
62
5
39
2
10
56.258148
20
45.646821
11
56.226361
21
45.579928
0
LINE
8
hole
62
5
39
2
10
56.226361
20
45.579928
11
56.183625
21
45.502278
0
LINE
8
hole
62
5
39
2
10
56.183625
20
45.502278
11
56.156054
21
45.458134
0
LINE
8
hole
62
5
39
2
10
56.156054
20
45.458134
11
56.006686
21
45.271474
0
LINE
8
hole
62
5
39
2
10
56.006686
20
45.271474
11
55.862728
21
45.144604
0
LINE
8
hole
62
5
39
2
10
55.862728
20
45.144604
11
55.689064
21
45.033153
0
LINE
8
hole
62
5
39
2
10
55.689064
20
45.033153
11
55.499556
21
44.951372
0
LINE
8
hole
62
5
39
2
10
55.499556
20
44.951372
11
55.299247
21
44.901454
0
LINE
8
hole
62
5
39
2
10
55.299247
20
44.901454
11
55.060971
21
44.885197
0
LINE
8
hole
62
5
39
2
10
55.060971
20
44.885197
11
54.823863
21
44.913846
0
LINE
8
hole
62
5
39
2
10
54.823863
20
44.913846
11
54.596312
21
44.986385
0
LINE
8
hole
62
5
39
2
10
54.596312
20
44.986385
11
54.583482
21
44.993243
0
LINE
8
boundary
62
5
39
2
10
64.326201
20
37.247231
11
65.393604
21
37.153846
0
LINE
8
boundary
62
5
39
2
10
65.393604
20
37.153846
11
66.731814
21
52.449645
0
LINE
8
boundary
62
5
39
2
10
66.731814
20
52.449645
11
66.805528
21
53.292199
0
LINE
8
boundary
62
5
39
2
10
66.805528
20
53.292199
11
47.471742
21
54.983686
0
LINE
8
boundary
62
5
39
2
10
47.471742
20
54.983686
11
46.383526
21
55.078893
0
LINE
8
boundary
62
5
39
2
10
46.383526
20
55.078893
11
45.046923
21
39.801470
0
LINE
8
boundary
62
5
39
2
10
45.046923
20
39.801470
11
44.971602
21
38.940539
0
LINE
8
boundary
62
5
39
2
10
44.971602
20
38.940539
11
64.326201
21
37.247231
0
LINE
8
annotation
62
1
39
211
10
50.625678
20
41.677270
11
50.497226
21
41.785458
0
LINE
8
annotation
62
1
39
211
10
50.497226
20
41.785458
11
49.132473
21
42.934910
0
LINE
8
annotation
62
1
39
211
10
49.132473
20
42.934910
11
48.464282
21
43.484818
0
LINE
8
annotation
62
1
39
211
10
48.464282
20
43.484818
11
48.400150
21
43.658643
0
LINE
8
annotation
62
1
39
211
10
48.400150
20
43.658643
11
47.780873
21
45.337993
0
LINE
8
annotation
62
1
39
211
10
47.780873
20
45.337993
11
47.395308
21
46.178343
0
LINE
8
annotation
62
1
39
211
10
47.395308
20
46.178343
11
47.416847
21
46.312932
0
LINE
8
annotation
62
1
39
211
10
47.416847
20
46.312932
11
47.639403
21
47.704141
0
LINE
8
annotation
62
1
39
211
10
47.639403
20
47.704141
11
47.780987
21
48.786562
0
LINE
8
annotation
62
1
39
211
10
47.780987
20
48.786562
11
47.787906
21
48.795862
0
LINE
8
annotation
62
1
39
211
10
47.787906
20
48.795862
11
48.450544
21
49.686319
0
LINE
8
annotation
62
1
39
211
10
48.450544
20
49.686319
11
48.561795
21
49.830506
0
LINE
8
annotation
62
1
39
211
10
48.561795
20
49.830506
11
49.138177
21
50.577241
0
LINE
8
annotation
62
1
39
211
10
49.138177
20
50.577241
11
49.798625
21
50.948624
0
LINE
8
annotation
62
1
39
211
10
49.798625
20
50.948624
11
50.796973
21
51.454823
0
LINE
8
annotation
62
1
39
211
10
50.796973
20
51.454823
11
51.254456
21
51.586327
0
LINE
8
annotation
62
1
39
211
10
51.254456
20
51.586327
11
52.346498
21
51.835137
0
LINE
8
annotation
62
1
39
211
10
52.346498
20
51.835137
11
52.905920
21
51.980325
0
LINE
8
annotation
62
1
39
211
10
52.905920
20
51.980325
11
53.659111
21
52.169297
0
LINE
8
annotation
62
1
39
211
10
53.659111
20
52.169297
11
54.470033
21
52.379682
0
LINE
8
annotation
62
1
39
211
10
54.470033
20
52.379682
11
54.614487
21
52.418158
0
LINE
8
annotation
62
1
39
211
10
54.614487
20
52.418158
11
54.780039
21
52.462258
0
LINE
8
annotation
62
1
39
211
10
54.780039
20
52.462258
11
54.815790
21
52.468323
0
LINE
8
annotation
62
1
39
211
10
54.815790
20
52.468323
11
55.744767
21
52.626199
0
LINE
8
annotation
62
1
39
211
10
55.744767
20
52.626199
11
55.848987
21
52.642694
0
LINE
8
annotation
62
1
39
211
10
55.848987
20
52.642694
11
55.875113
21
52.644102
0
LINE
8
annotation
62
1
39
211
10
55.875113
20
52.644102
11
56.867737
21
52.696399
0
LINE
8
annotation
62
1
39
211
10
56.867737
20
52.696399
11
56.934209
21
52.696905
0
LINE
8
annotation
62
1
39
211
10
56.934209
20
52.696905
11
56.955261
21
52.695465
0
LINE
8
annotation
62
1
39
211
10
56.955261
20
52.695465
11
57.942015
21
52.628000
0
LINE
8
annotation
62
1
39
211
10
57.942015
20
52.628000
11
58.055110
21
52.610267
0
LINE
8
annotation
62
1
39
211
10
58.055110
20
52.610267
11
58.088728
21
52.604309
0
LINE
8
annotation
62
1
39
211
10
58.088728
20
52.604309
11
58.982844
21
52.445640
0
LINE
8
annotation
62
1
39
211
10
58.982844
20
52.445640
11
59.260242
21
52.369112
0
LINE
8
annotation
62
1
39
211
10
59.260242
20
52.369112
11
59.315611
21
52.350741
0
LINE
8
annotation
62
1
39
211
10
59.315611
20
52.350741
11
60.113086
21
52.086318
0
LINE
8
annotation
62
1
39
211
10
60.113086
20
52.086318
11
60.684368
21
51.825610
0
LINE
8
annotation
62
1
39
211
10
60.684368
20
51.825610
11
60.799217
21
51.748006
0
LINE
8
annotation
62
1
39
211
10
60.799217
20
51.748006
11
61.913824
21
50.994926
0
LINE
8
annotation
62
1
39
211
10
61.913824
20
50.994926
11
62.264728
21
50.716692
0
LINE
8
annotation
62
1
39
211
10
62.264728
20
50.716692
11
62.349861
21
50.550310
0
LINE
8
annotation
62
1
39
211
10
62.349861
20
50.550310
11
63.053718
21
49.174296
0
LINE
8
annotation
62
1
39
211
10
63.053718
20
49.174296
11
63.200804
21
48.880205
0
LINE
8
annotation
62
1
39
211
10
63.200804
20
48.880205
11
63.204737
21
48.732951
0
LINE
8
annotation
62
1
39
211
10
63.204737
20
48.732951
11
63.248027
21
47.106332
0
LINE
8
annotation
62
1
39
211
10
63.248027
20
47.106332
11
63.256234
21
46.723152
0
LINE
8
annotation
62
1
39
211
10
63.256234
20
46.723152
11
63.205563
21
46.607748
0
LINE
8
annotation
62
1
39
211
10
63.205563
20
46.607748
11
62.531061
21
45.070637
0
LINE
8
annotation
62
1
39
211
10
62.531061
20
45.070637
11
62.373645
21
44.726671
0
LINE
8
annotation
62
1
39
211
10
62.373645
20
44.726671
11
62.310690
21
44.661099
0
LINE
8
annotation
62
1
39
211
10
62.310690
20
44.661099
11
61.338000
21
43.648059
0
LINE
8
annotation
62
1
39
211
10
61.338000
20
43.648059
11
60.953004
21
43.257148
0
LINE
8
annotation
62
1
39
211
10
60.953004
20
43.257148
11
60.920253
21
43.236312
0
LINE
8
annotation
62
1
39
211
10
60.920253
20
43.236312
11
59.772190
21
42.505689
0
LINE
8
annotation
62
1
39
211
10
59.772190
20
42.505689
11
59.444740
21
42.290945
0
LINE
8
annotation
62
1
39
211
10
59.444740
20
42.290945
11
59.362526
21
42.258462
0
LINE
8
annotation
62
1
39
211
10
59.362526
20
42.258462
11
58.135268
21
41.773334
0
LINE
8
annotation
62
1
39
211
10
58.135268
20
41.773334
11
57.986072
21
41.708962
0
LINE
8
annotation
62
1
39
211
10
57.986072
20
41.708962
11
57.924256
21
41.690957
0
LINE
8
annotation
62
1
39
211
10
57.924256
20
41.690957
11
56.711846
21
41.337673
0
LINE
8
annotation
62
1
39
211
10
56.711846
20
41.337673
11
56.489722
21
41.270103
0
LINE
8
annotation
62
1
39
211
10
56.489722
20
41.270103
11
56.396380
21
41.251436
0
LINE
8
annotation
62
1
39
211
10
56.396380
20
41.251436
11
55.173142
21
41.006942
0
LINE
8
annotation
62
1
39
211
10
55.173142
20
41.006942
11
54.823610
21
40.944685
0
LINE
8
annotation
62
1
39
211
10
54.823610
20
40.944685
11
54.711882
21
40.944555
0
LINE
8
annotation
62
1
39
211
10
54.711882
20
40.944555
11
53.449804
21
40.943158
0
LINE
8
annotation
62
1
39
211
10
53.449804
20
40.943158
11
52.872171
21
40.963366
0
LINE
8
annotation
62
1
39
211
10
52.872171
20
40.963366
11
52.760931
21
40.997575
0
LINE
8
annotation
62
1
39
211
10
52.760931
20
40.997575
11
51.356848
21
41.428685
0
LINE
8
annotation
62
1
39
211
10
51.356848
20
41.428685
11
50.625678
21
41.677270
0
LINE
8
annotation
62
1
39
211
10
64.622135
20
46.116369
11
64.622135
21
46.259244
0
LINE
8
annotation
62
1
39
211
10
47.154994
20
46.116369
11
47.297869
21
46.116369
0
LINE
8
annotation
62
1
39
211
10
59.919635
20
41.792819
11
59.919635
21
50.439919
0
LINE
8
annotation
62
1
39
211
10
59.919635
20
50.439919
11
57.997274
21
48.517016
0
LINE
8
frame
62
5
39
2
10
0.000000
20
0.000000
11
120.000000
21
0.000000
0
LINE
8
frame
62
5
39
2
10
120.000000
20
0.000000
11
120.000000
21
240.000000
0
LINE
8
frame
62
5
39
2
10
120.000000
20
240.000000
11
0.000000
21
240.000000
0
LINE
8
frame
62
5
39
2
10
0.000000
20
240.000000
11
0.000000
21
0.000000
0
ENDSEC
0
EOF
