0
SECTION
2
HEADER
9
$INSUNITS
70
4
9
$ACADVER
1
AC1014
9
$HANDSEED
5
FFFF
0
ENDSEC
0
SECTION
2
TABLES
0
TABLE
2
VPORT
5
8
100
AcDbSymbolTable
0
ENDTAB
0
TABLE
2
LTYPE
5
5
100
AcDbSymbolTable
0
LTYPE
5
14
100
AcDbSymbolTableRecord
100
AcDbLinetypeTableRecord
2
BYBLOCK
70
0
0
LTYPE
5
15
100
AcDbSymbolTableRecord
100
AcDbLinetypeTableRecord
2
BYLAYER
70
0
0
ENDTAB
0
TABLE
2
LAYER
5
2
100
AcDbSymbolTable
70
2
0
LAYER
5
50
100
AcDbSymbolTableRecord
100
AcDbLayerTableRecord
2
0
70
0
6
CONTINUOUS
0
ENDTAB
0
TABLE
2
STYLE
5
3
100
AcDbSymbolTable
70
1
0
STYLE
5
11
100
AcDbSymbolTableRecord
100
AcDbTextStyleTableRecord
2
STANDARD
70
0
0
ENDTAB
0
TABLE
2
VIEW
5
6
100
AcDbSymbolTable
70
0
0
ENDTAB
0
TABLE
2
UCS
5
7
100
AcDbSymbolTable
70
0
0
ENDTAB
0
TABLE
2
APPID
5
9
100
AcDbSymbolTable
70
2
0
APPID
5
12
100
AcDbSymbolTableRecord
100
AcDbRegAppTableRecord
2
ACAD
70
0
0
ENDTAB
0
TABLE
2
DIMSTYLE
5
A
100
AcDbSymbolTable
70
1
0
ENDTAB
0
TABLE
2
BLOCK_RECORD
5
1
100
AcDbSymbolTable
70
1
0
BLOCK_RECORD
5
1F
100
AcDbSymbolTableRecord
100
AcDbBlockTableRecord
2
*MODEL_SPACE
0
BLOCK_RECORD
5
1B
100
AcDbSymbolTableRecord
100
AcDbBlockTableRecord
2
*PAPER_SPACE
0
ENDTAB
0
ENDSEC
0
SECTION
2
BLOCKS
0
BLOCK
5
20
100
AcDbEntity
100
AcDbBlockBegin
2
*MODEL_SPACE
0
ENDBLK
5
21
100
AcDbEntity
100
AcDbBlockEnd
0
BLOCK
5
1C
100
AcDbEntity
100
AcDbBlockBegin
2
*PAPER_SPACE
0
ENDBLK
5
1D
100
AcDbEntity
100
AcDbBlockEnd
0
ENDSEC
0
SECTION
2
ENTITIES
0
LWPOLYLINE
5
100
100
AcDbEntity
8
0
100
AcDbPolyline
90
4
70
1
43
0.0
10
-5440
20
1220
10
-3000
20
1220
10
-3000
20
0
10
-5440
20
0
0
LWPOLYLINE
5
101
100
AcDbEntity
8
0
100
AcDbPolyline
90
4
70
1
43
0.0
10
-3525.8264042874916
20
196.75645591059862
10
-3540.8264042874916
20
196.75645591059862
10
-3540.8264042874916
20
140.92312257726519
10
-3525.8264042874916
20
140.92312257726519
0
LWPOLYLINE
5
102
100
AcDbEntity
8
0
100
AcDbPolyline
90
4
70
1
43
0.0
10
-3525.8264042874916
20
308.42312257726519
10
-3540.8264042874916
20
308.42312257726519
10
-3540.8264042874916
20
252.58978924393205
10
-3525.8264042874916
20
252.58978924393205
0
LWPOLYLINE
5
103
100
AcDbEntity
8
0
100
AcDbPolyline
90
62
70
1
43
0.0
10
-4083.3264042874916
20
85.089789243932046
10
-4083.3264042874916
20
29.256455910598618
10
-4156.2430709541586
20
29.256455910598618
10
-4156.2430709541586
20
14.256455910598618
10
-4244.1597376208256
20
14.256455910598618
10
-4244.1597376208256
20
29.256455910598618
10
-4332.0764042874916
20
29.256455910598618
10
-4332.0764042874916
20
14.256455910598618
10
-4419.9930709541586
20
14.256455910598618
10
-4419.9930709541586
20
29.256455910598618
10
-4507.9097376208256
20
29.256455910598618
10
-4507.9097376208256
20
14.256455910598618
10
-4595.8264042874916
20
14.256455910598618
10
-4595.8264042874916
20
85.089789243932046
10
-4610.8264042874916
20
85.089789243932046
10
-4610.8264042874916
20
140.92312257726519
10
-4595.8264042874916
20
140.92312257726519
10
-4595.8264042874916
20
196.75645591059862
10
-4610.8264042874916
20
196.75645591059862
10
-4610.8264042874916
20
252.58978924393205
10
-4595.8264042874916
20
252.58978924393205
10
-4595.8264042874916
20
308.42312257726519
10
-4610.8264042874916
20
308.42312257726519
10
-4610.8264042874916
20
364.25645591059862
10
-3010.8264042874916
20
364.25645591059862
10
-3010.8264042874916
20
308.42312257726519
10
-3025.8264042874916
20
308.42312257726519
10
-3025.8264042874916
20
252.58978924393205
10
-3010.8264042874916
20
252.58978924393205
10
-3010.8264042874916
20
196.75645591059862
10
-3025.8264042874916
20
196.75645591059862
10
-3025.8264042874916
20
140.92312257726519
10
-3010.8264042874916
20
140.92312257726519
10
-3010.8264042874916
20
85.089789243932046
10
-3025.8264042874916
20
85.089789243932046
10
-3025.8264042874916
20
29.256455910598618
10
-3109.1597376208251
20
29.256455910598618
10
-3109.1597376208256
20
14.256455910598618
10
-3192.4930709541586
20
14.256455910598618
10
-3192.4930709541586
20
29.256455910598618
10
-3275.8264042874916
20
29.256455910598618
10
-3275.8264042874916
20
14.256455910598618
10
-3359.1597376208251
20
14.256455910598618
10
-3359.1597376208256
20
29.256455910598618
10
-3442.4930709541586
20
29.256455910598618
10
-3442.4930709541586
20
14.256455910598618
10
-3525.8264042874916
20
14.256455910598618
10
-3525.8264042874916
20
85.089789243932046
10
-3540.8264042874916
20
85.089789243932046
10
-3540.8264042874916
20
29.256455910598618
10
-3628.7430709541586
20
29.256455910598618
10
-3628.7430709541582
20
14.256455910598618
10
-3716.6597376208251
20
14.256455910598618
10
-3716.6597376208251
20
29.256455910598618
10
-3804.5764042874916
20
29.256455910598618
10
-3804.5764042874916
20
14.256455910598618
10
-3892.4930709541586
20
14.256455910598618
10
-3892.4930709541582
20
29.256455910598618
10
-3980.4097376208251
20
29.256455910598618
10
-3980.4097376208251
20
14.256455910598618
10
-4068.3264042874916
20
14.256455910598618
10
-4068.3264042874916
20
85.089789243932046
0
LWPOLYLINE
5
104
100
AcDbEntity
8
0
100
AcDbPolyline
90
4
70
1
43
0.0
10
-4083.3264042874916
20
140.92312257726519
10
-4068.3264042874916
20
140.92312257726519
10
-4068.3264042874916
20
196.75645591059862
10
-4083.3264042874916
20
196.75645591059862
0
LWPOLYLINE
5
105
100
AcDbEntity
8
0
100
AcDbPolyline
90
4
70
1
43
0.0
10
-4083.3264042874916
20
252.58978924393205
10
-4068.3264042874916
20
252.58978924393205
10
-4068.3264042874916
20
308.42312257726519
10
-4083.3264042874916
20
308.42312257726519
0
LWPOLYLINE
5
106
100
AcDbEntity
8
0
100
AcDbPolyline
90
28
70
1
43
0.0
10
-4621.1802168754011
20
271.46888572562796
10
-4616.1802168754057
20
266.4688857256229
10
-4616.1802168754521
20
221.46888572562344
10
-4631.1802168754521
20
221.46888572563887
10
-4631.1802168755548
20
121.46888572563968
10
-4621.1802168755548
20
121.46888572562912
10
-4616.1802168755603
20
116.46888572562396
10
-4616.1802168756058
20
71.468885725624588
10
-4631.1802168756058
20
71.468885725640121
10
-4631.1802168756567
20
21.468885725640309
10
-4801.1802168756558
20
21.468885725814289
10
-4801.1802168756403
20
36.468885725814118
10
-4846.1802168756403
20
36.468885725860389
10
-4846.1802168756558
20
21.46888572586073
10
-4891.1802168756549
20
21.468885725906802
10
-4891.180216875583
20
92.302219059239704
10
-4876.180216875583
20
92.3022190592242
10
-4876.1802168755257
20
148.13555239255689
10
-4891.1802168755257
20
148.13555239257241
10
-4891.1802168754684
20
203.96888572590544
10
-4876.1802168754684
20
203.96888572588992
10
-4876.1802168754111
20
259.80221905922286
10
-4891.1802168754111
20
259.80221905923838
10
-4891.1802168753538
20
315.63555239257119
10
-4876.1802168753538
20
315.63555239255561
10
-4876.1802168752965
20
371.46888572588864
10
-4631.1802168752984
20
371.46888572563773
10
-4631.1802168754011
20
271.46888572563853
0
LWPOLYLINE
5
107
100
AcDbEntity
8
0
100
AcDbPolyline
90
42
70
1
43
0.0
10
-5247.6124268106023
20
21.571368149286631
10
-5247.6124268106023
20
36.571368149286627
10
-5330.9457601439362
20
36.57136814928662
10
-5330.9457601439362
20
21.571368149286613
10
-5414.2790934772702
20
21.571368149286656
10
-5414.2790934772702
20
92.404701482620055
10
-5429.2790934772702
20
92.404701482620069
10
-5429.2790934772702
20
148.23803481595348
10
-5414.2790934772702
20
148.23803481595351
10
-5414.2790934772702
20
204.07136814928663
10
-5429.2790934772702
20
204.07136814928663
10
-5429.2790934772702
20
259.90470148262006
10
-5414.2790934772702
20
259.90470148262006
10
-5414.2790934772702
20
315.7380348159532
10
-5429.2790934772702
20
315.7380348159532
10
-5429.2790934772693
20
371.57136814928663
10
-5400.8476359721935
20
371.57136814928691
42
-0.19891236737966159
10
-5372.5633647247305
20
359.85563939674847
10
-5355.9948222298081
20
343.28709690182495
42
0.19891236737965995
10
-5327.7105509823459
20
331.57136814928668
10
-5000.8476359721935
20
331.57136814928663
42
0.19891236737965934
10
-4972.5633647247305
20
343.28709690182478
10
-4955.9948222298081
20
359.85563939674842
42
-0.19891236737966597
10
-4927.7105509823459
20
371.57136814928663
10
-4899.2790934772693
20
371.57136814928663
10
-4899.2790934772693
20
315.7380348159532
10
-4914.2790934772693
20
315.7380348159532
10
-4914.2790934772693
20
259.90470148262006
10
-4899.2790934772702
20
259.90470148262006
10
-4899.2790934772702
20
204.07136814928663
10
-4914.2790934772702
20
204.07136814928663
10
-4914.2790934772702
20
148.2380348159532
10
-4899.2790934772702
20
148.23803481595317
10
-4899.2790934772702
20
92.404701482620055
10
-4914.2790934772702
20
92.404701482620041
10
-4914.2790934772702
20
36.571368149286613
10
-4997.6124268106032
20
36.57136814928662
10
-4997.6124268106032
20
21.571368149286613
10
-5080.9457601439362
20
21.571368149286631
10
-5080.9457601439372
20
36.571368149286613
10
-5164.2790934772702
20
36.57136814928662
10
-5164.2790934772693
20
21.571368149286613
0
LWPOLYLINE
5
108
100
AcDbEntity
8
0
100
AcDbPolyline
90
4
70
1
43
0.0
10
-3555.4089868508927
20
681.9311887808891
10
-3570.4089868508927
20
681.9311887808891
10
-3570.4089868508927
20
581.93118878088944
10
-3555.4089868508927
20
581.93118878088922
0
LWPOLYLINE
5
109
100
AcDbEntity
8
0
100
AcDbPolyline
90
4
70
1
43
0.0
10
-3555.4089868508927
20
531.93118878088944
10
-3570.4089868508927
20
531.93118878088944
10
-3570.4089868508927
20
431.93118878088939
10
-3555.4089868508927
20
431.93118878088944
0
LWPOLYLINE
5
110
100
AcDbEntity
8
0
100
AcDbPolyline
90
46
70
1
43
0.0
10
-3731.2423201842248
20
381.93118878088939
10
-3731.2423201842248
20
396.93118878088939
10
-3819.1589868508918
20
396.93118878088939
10
-3819.1589868508927
20
381.93118878088939
10
-3907.0756535175587
20
381.93118878088939
10
-3907.0756535175583
20
396.93118878088939
10
-3994.9923201842248
20
396.93118878088939
10
-3994.9923201842248
20
381.93118878088939
10
-4082.9089868508918
20
381.93118878088944
10
-4082.9089868508918
20
452.76452211422281
10
-4097.9089868508918
20
452.76452211422287
10
-4097.9089868508918
20
508.59785544755624
10
-4082.9089868508918
20
508.5978554475563
10
-4082.9089868508918
20
564.43118878088944
10
-4097.9089868508918
20
564.43118878088944
10
-4097.9089868508918
20
620.26452211422281
10
-4082.9089868508918
20
620.26452211422259
10
-4082.9089868508918
20
676.09785544755573
10
-4097.9089868508918
20
676.09785544755573
10
-4097.9089868508918
20
731.9311887808891
10
-3012.9089868508931
20
731.93118878088944
10
-3012.9089868508931
20
676.09785544755596
10
-3027.9089868508931
20
676.09785544755619
10
-3027.9089868508931
20
620.26452211422315
10
-3012.9089868508931
20
620.26452211422304
10
-3012.9089868508931
20
564.43118878088967
10
-3027.9089868508931
20
564.43118878088956
10
-3027.9089868508931
20
508.59785544755653
10
-3012.9089868508931
20
508.59785544755647
10
-3012.9089868508931
20
452.7645221142231
10
-3027.9089868508931
20
452.76452211422304
10
-3027.9089868508931
20
396.93118878088967
10
-3115.8256535175592
20
396.93118878088967
10
-3115.8256535175592
20
381.93118878088939
10
-3203.7423201842262
20
381.93118878088939
10
-3203.7423201842262
20
396.93118878088939
10
-3291.6589868508927
20
396.93118878088939
10
-3291.6589868508927
20
381.93118878088939
10
-3379.5756535175592
20
381.93118878088939
10
-3379.5756535175592
20
396.93118878088939
10
-3467.4923201842262
20
396.93118878088939
10
-3467.4923201842262
20
381.93118878088939
10
-3570.4089868508927
20
381.93118878088939
10
-3570.4089868508918
20
396.93118878088939
10
-3643.3256535175587
20
396.93118878088939
10
-3643.3256535175587
20
381.93118878088939
0
LWPOLYLINE
5
111
100
AcDbEntity
8
0
100
AcDbPolyline
90
4
70
1
43
0.0
10
-3572.8243582188552
20
797.38191992173142
10
-3557.8243582188552
20
797.38191992173142
10
-3557.8243582188552
20
897.38191992173142
10
-3572.8243582188552
20
897.38191992173142
0
LWPOLYLINE
5
112
100
AcDbEntity
8
0
100
AcDbPolyline
90
4
70
1
43
0.0
10
-3557.8243582188552
20
1047.3819199217314
10
-3572.8243582188552
20
1047.3819199217314
10
-3572.8243582188552
20
947.38191992173142
10
-3557.8243582188552
20
947.38191992173142
0
LWPOLYLINE
5
113
100
AcDbEntity
8
0
100
AcDbPolyline
90
46
70
1
43
0.0
10
-3381.9910248855217
20
747.38191992173142
10
-3381.9910248855217
20
762.38191992173142
10
-3469.9076915521887
20
762.38191992173142
10
-3469.9076915521887
20
747.38191992173142
10
-3572.8243582188552
20
747.38191992173142
10
-3572.8243582188552
20
762.38191992173142
10
-3645.7410248855217
20
762.38191992173142
10
-3645.7410248855217
20
747.38191992173142
10
-3733.6576915521882
20
747.38191992173142
10
-3733.6576915521882
20
762.38191992173142
10
-3821.5743582188552
20
762.38191992173142
10
-3821.5743582188552
20
747.38191992173142
10
-3909.4910248855217
20
747.38191992173142
10
-3909.4910248855213
20
762.38191992173142
10
-3997.4076915521882
20
762.38191992173142
10
-3997.4076915521882
20
747.38191992173142
10
-4085.3243582188552
20
747.38191992173142
10
-4085.3243582188552
20
818.21525325506491
10
-4100.3243582188552
20
818.21525325506491
10
-4100.3243582188552
20
874.04858658839828
10
-4085.3243582188552
20
874.04858658839828
10
-4085.3243582188552
20
929.88191992173142
10
-4100.3243582188552
20
929.88191992173142
10
-4100.3243582188552
20
985.71525325506491
10
-4085.3243582188552
20
985.71525325506491
10
-4085.3243582188552
20
1041.5485865883979
10
-4100.3243582188552
20
1041.5485865883979
10
-4100.3243582188552
20
1097.3819199217314
10
-3015.3243582188552
20
1097.3819199217314
10
-3015.3243582188552
20
1041.5485865883979
10
-3030.3243582188552
20
1041.5485865883979
10
-3030.3243582188552
20
985.71525325506491
10
-3015.3243582188552
20
985.71525325506491
10
-3015.3243582188552
20
929.88191992173142
10
-3030.3243582188552
20
929.88191992173142
10
-3030.3243582188552
20
874.04858658839828
10
-3015.3243582188552
20
874.04858658839828
10
-3015.3243582188552
20
818.21525325506491
10
-3030.3243582188552
20
818.21525325506491
10
-3030.3243582188552
20
762.38191992173142
10
-3118.2410248855217
20
762.38191992173142
10
-3118.2410248855217
20
747.38191992173142
10
-3206.1576915521887
20
747.38191992173142
10
-3206.1576915521891
20
762.38191992173142
10
-3294.0743582188552
20
762.38191992173142
10
-3294.0743582188552
20
747.38191992173142
0
LWPOLYLINE
5
114
100
AcDbEntity
8
0
100
AcDbPolyline
90
16
70
1
43
0.0
10
-4063.8258080876608
20
1116.1979404943579
10
-4063.8258080876608
20
1161.1979404943579
10
-4078.8258080876608
20
1161.1979404943579
10
-4078.8258080876608
20
1116.1979404943579
10
-4591.3258080876603
20
1116.1979404943579
10
-4591.3258080876603
20
1161.1979404943579
10
-4606.3258080876603
20
1161.1979404943579
10
-4606.3258080876603
20
1206.1979404943579
10
-3006.3258080876608
20
1206.1979404943579
10
-3006.3258080876608
20
1161.1979404943579
10
-3021.3258080876608
20
1161.1979404943579
10
-3021.3258080876608
20
1116.1979404943579
10
-3521.3258080876608
20
1116.1979404943579
10
-3521.3258080876608
20
1161.1979404943579
10
-3536.3258080876608
20
1161.1979404943579
10
-3536.3258080876608
20
1116.1979404943579
0
LWPOLYLINE
5
115
100
AcDbEntity
8
0
100
AcDbPolyline
90
46
70
1
43
0.0
10
-4622.2178642001336
20
756.45985624297259
10
-4622.2178642001336
20
771.45985624297259
10
-4667.2178642001336
20
771.45985624297225
10
-4667.2178642001336
20
756.45985624297214
10
-4882.2178642001336
20
756.45985624296998
10
-4882.2178642001336
20
771.45985624297009
10
-4927.2178642001336
20
771.45985624296964
10
-4927.2178642001336
20
756.45985624296952
10
-4972.2178642001336
20
756.45985624296918
10
-4972.2178642001345
20
827.29318957630267
10
-4957.2178642001345
20
827.29318957630289
10
-4957.2178642001345
20
883.12652290963581
10
-4972.2178642001345
20
883.1265229096357
10
-4972.2178642001354
20
938.95985624296929
10
-4957.2178642001354
20
938.95985624296941
10
-4957.2178642001363
20
994.79318957630267
10
-4972.2178642001354
20
994.79318957630255
10
-4972.2178642001363
20
1050.6265229096359
10
-4957.2178642001363
20
1050.6265229096359
10
-4957.2178642001372
20
1106.4598562429692
10
-4712.2178642001363
20
1106.4598562429717
10
-4712.2178642001363
20
1050.6265229096384
10
-4697.2178642001363
20
1050.6265229096384
10
-4697.2178642001372
20
1106.4598562429719
10
-4637.2178642001363
20
1106.4598562429726
10
-4637.2178642001363
20
1050.6265229096389
10
-4622.2178642001363
20
1050.6265229096391
10
-4622.2178642001363
20
1106.4598562429726
10
-4452.2178642001363
20
1106.4598562429742
10
-4452.2178642001363
20
1050.6265229096407
10
-4437.2178642001363
20
1050.6265229096407
10
-4437.2178642001363
20
1106.4598562429744
10
-4122.2178642001363
20
1106.4598562429774
10
-4122.2178642001327
20
756.45985624297725
10
-4167.2178642001336
20
756.4598562429768
10
-4167.2178642001336
20
771.45985624297691
10
-4212.2178642001327
20
771.45985624297646
10
-4212.2178642001327
20
756.45985624297646
10
-4362.2178642001336
20
756.45985624297509
10
-4362.2178642001336
20
771.45985624297498
10
-4407.2178642001327
20
771.45985624297452
10
-4407.2178642001327
20
756.45985624297464
10
-4547.2178642001336
20
756.45985624297339
10
-4547.2178642001336
20
771.45985624297327
10
-4584.7178642001327
20
771.45985624297282
10
-4584.7178642001336
20
756.45985624297293
0
LWPOLYLINE
5
116
100
AcDbEntity
8
0
100
AcDbPolyline
90
4
70
1
43
0.0
10
-4437.2178642001363
20
994.79318957630778
10
-4452.2178642001363
20
994.79318957630767
10
-4452.2178642001345
20
938.95985624297407
10
-4437.2178642001345
20
938.95985624297418
0
LWPOLYLINE
5
117
100
AcDbEntity
8
0
100
AcDbPolyline
90
4
70
1
43
0.0
10
-4452.2178642001345
20
883.12652290964081
10
-4452.2178642001345
20
827.29318957630767
10
-4437.2178642001345
20
827.29318957630767
10
-4437.2178642001345
20
883.12652290964093
0
LWPOLYLINE
5
118
100
AcDbEntity
8
0
100
AcDbPolyline
90
4
70
1
43
0.0
10
-4637.2178642001363
20
994.79318957630596
10
-4637.2178642001354
20
938.95985624297259
10
-4622.2178642001354
20
938.95985624297259
10
-4622.2178642001363
20
994.79318957630608
0
LWPOLYLINE
5
119
100
AcDbEntity
8
0
100
AcDbPolyline
90
4
70
1
43
0.0
10
-4622.2178642001345
20
883.12652290963922
10
-4637.2178642001345
20
883.12652290963911
10
-4637.2178642001345
20
827.29318957630585
10
-4622.2178642001345
20
827.29318957630596
0
LWPOLYLINE
5
120
100
AcDbEntity
8
0
100
AcDbPolyline
90
4
70
1
43
0.0
10
-4712.2178642001345
20
883.12652290963854
10
-4712.2178642001345
20
827.29318957630517
10
-4697.2178642001345
20
827.29318957630539
10
-4697.2178642001345
20
883.12652290963865
0
LWPOLYLINE
5
121
100
AcDbEntity
8
0
100
AcDbPolyline
90
4
70
1
43
0.0
10
-4712.2178642001363
20
994.79318957630517
10
-4712.2178642001354
20
938.95985624297168
10
-4697.2178642001354
20
938.95985624297191
10
-4697.2178642001363
20
994.79318957630528
0
LWPOLYLINE
5
122
100
AcDbEntity
8
0
100
AcDbPolyline
90
30
70
1
43
0.0
10
-4543.4897652837535
20
388.90568818246408
10
-4543.4897652837535
20
403.90568818246408
10
-4580.9897652837535
20
403.90568818246351
10
-4580.9897652837535
20
388.90568818246351
10
-4878.4897652837535
20
388.90568818246066
10
-4878.4897652837535
20
403.90568818246084
10
-4923.4897652837535
20
403.90568818246038
10
-4923.4897652837535
20
388.90568818246027
10
-4968.4897652837535
20
388.90568818245981
10
-4968.4897652837535
20
459.73902151579341
10
-4953.4897652837544
20
459.73902151579352
10
-4953.4897652837553
20
515.57235484912655
10
-4968.4897652837544
20
515.57235484912644
10
-4968.4897652837553
20
571.40568818245993
10
-4953.4897652837553
20
571.40568818246015
10
-4953.4897652837553
20
627.23902151579341
10
-4968.4897652837553
20
627.23902151579318
10
-4968.4897652837562
20
683.07235484912655
10
-4953.4897652837562
20
683.07235484912667
10
-4953.4897652837562
20
738.90568818245981
10
-4633.4897652837562
20
738.90568818246288
10
-4633.4897652837562
20
683.07235484912962
10
-4618.4897652837562
20
683.07235484912985
10
-4618.4897652837562
20
738.90568818246322
10
-4118.4897652837572
20
738.90568818246811
10
-4118.4897652837535
20
388.90568818246788
10
-4163.4897652837535
20
388.90568818246749
10
-4163.4897652837535
20
403.90568818246766
10
-4208.4897652837535
20
403.9056881824672
10
-4208.4897652837535
20
388.90568818246732
0
LWPOLYLINE
5
123
100
AcDbEntity
8
0
100
AcDbPolyline
90
4
70
1
43
0.0
10
-4633.4897652837553
20
627.23902151579637
10
-4633.4897652837553
20
571.40568818246288
10
-4618.4897652837553
20
571.40568818246322
10
-4618.4897652837553
20
627.23902151579648
0
LWPOLYLINE
5
124
100
AcDbEntity
8
0
100
AcDbPolyline
90
4
70
1
43
0.0
10
-4618.4897652837544
20
515.57235484912962
10
-4633.4897652837544
20
515.57235484912951
10
-4633.4897652837535
20
459.73902151579648
10
-4618.4897652837535
20
459.73902151579665
0
LWPOLYLINE
5
125
100
AcDbEntity
8
0
100
AcDbPolyline
90
38
70
1
43
0.0
10
-4996.42213032373
20
705.29077946989798
10
-5011.42213032373
20
705.29077946989332
10
-5011.4221303237164
20
660.29077946989378
10
-4996.4221303237164
20
660.29077946989844
10
-4996.4221303236491
20
445.29077946990014
10
-5011.42213032365
20
445.29077946989554
10
-5011.4221303236354
20
400.29077946989588
10
-4996.4221303236363
20
400.29077946990049
10
-4996.4221303236218
20
355.29077946990077
10
-5067.2554636569548
20
355.29077946987866
10
-5067.2554636569585
20
370.29077946987854
10
-5123.0887969902915
20
370.29077946986104
10
-5123.0887969902869
20
355.29077946986138
10
-5178.9221303236191
20
355.29077946984387
10
-5178.9221303236254
20
370.29077946984376
10
-5234.7554636569575
20
370.29077946982625
10
-5234.755463656953
20
355.29077946982636
10
-5290.588796990286
20
355.29077946980891
10
-5290.5887969902906
20
370.29077946980874
10
-5346.4221303236227
20
370.29077946979146
10
-5346.4221303236991
20
615.2907794697893
10
-5290.588796990367
20
615.29077946980681
10
-5290.5887969903724
20
630.29077946980669
10
-5346.4221303237046
20
630.2907794697893
10
-5346.4221303237809
20
875.29077946978714
10
-5290.5887969904488
20
875.29077946980465
10
-5290.5887969904525
20
890.29077946980453
10
-5346.4221303237855
20
890.29077946978703
10
-5346.4221303238828
20
1205.2907794697844
10
-4996.4221303238874
20
1205.2907794698938
10
-4996.4221303238728
20
1160.2907794698942
10
-5011.4221303238728
20
1160.2907794698895
10
-5011.4221303238592
20
1115.2907794698899
10
-4996.4221303238583
20
1115.2907794698947
10
-4996.4221303238119
20
965.29077946989582
10
-5011.4221303238119
20
965.29077946989128
10
-5011.4221303237982
20
920.2907794698915
10
-4996.4221303237982
20
920.29077946989617
0
LWPOLYLINE
5
126
100
AcDbEntity
8
0
100
AcDbPolyline
90
4
70
1
43
0.0
10
-5234.7554636571203
20
890.29077946982193
10
-5234.7554636571158
20
875.29077946982216
10
-5178.9221303237819
20
875.29077946983966
10
-5178.9221303237882
20
890.29077946983944
0
LWPOLYLINE
5
127
100
AcDbEntity
8
0
100
AcDbPolyline
90
4
70
1
43
0.0
10
-5123.0887969904497
20
875.29077946985694
10
-5067.2554636571167
20
875.29077946987445
10
-5067.2554636571213
20
890.29077946987445
10
-5123.0887969904543
20
890.29077946985683
0
LWPOLYLINE
5
128
100
AcDbEntity
8
0
100
AcDbPolyline
90
4
70
1
43
0.0
10
-5123.0887969903679
20
615.2907794698591
10
-5067.2554636570349
20
615.2907794698765
10
-5067.2554636570403
20
630.2907794698765
10
-5123.0887969903733
20
630.29077946985899
0
LWPOLYLINE
5
129
100
AcDbEntity
8
0
100
AcDbPolyline
90
4
70
1
43
0.0
10
-5234.7554636570339
20
615.2907794698242
10
-5178.9221303237009
20
615.29077946984171
10
-5178.9221303237064
20
630.2907794698416
10
-5234.7554636570385
20
630.29077946982409
0
LWPOLYLINE
5
130
100
AcDbEntity
8
0
100
AcDbPolyline
90
28
70
1
43
0.0
10
-5915.771544278331
20
482.71886001889095
10
-5920.7715442783319
20
487.71886001889015
10
-5920.7715442783392
20
532.71886001889038
10
-5905.7715442783392
20
532.71886001889266
10
-5905.7715442783547
20
632.71886001889231
10
-5915.7715442783547
20
632.71886001889061
10
-5920.7715442783556
20
637.71886001888993
10
-5920.7715442783629
20
682.71886001889004
10
-5905.7715442783629
20
682.71886001889254
10
-5905.7715442783701
20
732.71886001889231
10
-5735.7715442783701
20
732.71886001891914
10
-5735.7715442783683
20
717.71886001891914
10
-5690.7715442783683
20
717.71886001892631
10
-5690.7715442783701
20
732.71886001892642
10
-5660.7715442783701
20
732.71886001893097
10
-5660.7715442783547
20
632.7188600189312
10
-5650.7715442783556
20
632.71886001893256
10
-5645.7715442783547
20
627.71886001893358
10
-5645.7715442783465
20
582.7188600189337
10
-5660.7715442783483
20
582.7188600189312
10
-5660.7715442783319
20
482.71886001893154
10
-5650.7715442783319
20
482.71886001893284
10
-5645.771544278331
20
477.71886001893387
10
-5645.7715442783237
20
432.71886001893398
10
-5660.7715442783237
20
432.71886001893159
10
-5660.7715442783147
20
382.71886001893171
10
-5905.7715442783147
20
382.71886001889294
10
-5905.771544278331
20
482.71886001889254
0
LWPOLYLINE
5
131
100
AcDbEntity
8
0
100
AcDbPolyline
90
22
70
1
43
0.0
10
-5911.972246644691
20
756.81678259424655
10
-5916.972246644691
20
751.81678259424655
10
-5961.972246644691
20
751.81678259424655
10
-5961.972246644691
20
766.81678259424655
10
-6011.972246644691
20
766.81678259424655
10
-6011.972246644691
20
1081.816782594246
10
-5661.9722466446919
20
1081.816782594246
10
-5661.9722466446919
20
1036.816782594246
10
-5676.9722466446919
20
1036.816782594246
10
-5676.9722466446919
20
991.81678259424621
10
-5661.9722466446919
20
991.81678259424598
10
-5661.9722466446919
20
841.81678259424643
10
-5676.9722466446919
20
841.81678259424655
10
-5676.9722466446919
20
796.81678259424655
10
-5661.9722466446919
20
796.81678259424655
10
-5661.9722466446919
20
766.81678259424655
10
-5761.9722466446919
20
766.81678259424655
10
-5761.9722466446919
20
756.81678259424655
10
-5766.9722466446919
20
751.81678259424655
10
-5811.9722466446919
20
751.81678259424655
10
-5811.972246644691
20
766.81678259424655
10
-5911.972246644691
20
766.81678259424655
0
LWPOLYLINE
5
132
100
AcDbEntity
8
0
100
AcDbPolyline
90
46
70
1
43
0.0
10
-6703.1991182692627
20
1202.0681009294613
10
-6703.1991182692627
20
1157.0681009294613
10
-6688.1991182692627
20
1157.0681009294613
10
-6688.1991182692627
20
1187.0681009294613
10
-6600.2824516025967
20
1187.0681009294613
10
-6600.2824516025967
20
1202.0681009294613
10
-6512.3657849359297
20
1202.0681009294613
10
-6512.3657849359288
20
1187.0681009294613
10
-6424.4491182692627
20
1187.0681009294613
10
-6424.4491182692627
20
1202.0681009294613
10
-6336.5324516025967
20
1202.0681009294613
10
-6336.5324516025967
20
1187.068100929461
10
-6248.6157849359297
20
1187.068100929461
10
-6248.6157849359288
20
1202.068100929461
10
-6160.6991182692627
20
1202.068100929461
10
-6160.6991182692636
20
1157.068100929461
10
-6145.6991182692636
20
1157.068100929461
10
-6145.6991182692636
20
1187.068100929461
10
-6062.3657849359297
20
1187.068100929461
10
-6062.3657849359297
20
1202.068100929461
10
-5979.0324516025967
20
1202.068100929461
10
-5979.0324516025976
20
1187.068100929461
10
-5895.6991182692636
20
1187.068100929461
10
-5895.6991182692636
20
1202.068100929461
10
-5812.3657849359297
20
1202.068100929461
10
-5812.3657849359315
20
1187.068100929461
10
-5729.0324516025976
20
1187.068100929461
10
-5729.0324516025976
20
1202.068100929461
10
-5645.6991182692636
20
1202.068100929461
10
-5645.6991182692636
20
1157.068100929461
10
-5630.6991182692636
20
1157.068100929461
10
-5630.6991182692636
20
1112.068100929461
10
-7230.6991182692627
20
1112.0681009294613
10
-7230.6991182692627
20
1157.0681009294613
10
-7215.6991182692627
20
1157.0681009294613
10
-7215.6991182692618
20
1187.0681009294613
10
-7127.7824516025958
20
1187.0681009294613
10
-7127.7824516025958
20
1202.0681009294613
10
-7039.8657849359288
20
1202.0681009294613
10
-7039.8657849359288
20
1187.0681009294613
10
-6951.9491182692627
20
1187.0681009294613
10
-6951.9491182692627
20
1202.0681009294613
10
-6864.0324516025958
20
1202.0681009294613
10
-6864.0324516025958
20
1187.0681009294613
10
-6776.1157849359288
20
1187.0681009294613
10
-6776.1157849359288
20
1202.0681009294613
0
LWPOLYLINE
5
133
100
AcDbEntity
8
0
100
AcDbPolyline
90
4
70
1
43
0.0
10
-8040
20
1220
10
-5600
20
1220
10
-5600
20
0
10
-8040
20
0
0
LWPOLYLINE
5
134
100
AcDbEntity
8
0
100
AcDbPolyline
90
32
70
1
43
0.0
10
-6589.3908453635404
20
1085.2954082472504
10
-6589.3908453635404
20
1040.2954082472504
10
-6574.3908453635404
20
1040.2954082472504
10
-6574.3908453635404
20
1070.2954082472504
10
-6486.4741786968734
20
1070.2954082472504
10
-6486.4741786968734
20
1085.2954082472504
10
-6398.5575120302074
20
1085.2954082472504
10
-6398.5575120302074
20
1070.2954082472504
10
-6310.6408453635413
20
1070.2954082472504
10
-6310.6408453635404
20
1085.2954082472504
10
-6222.7241786968734
20
1085.2954082472504
10
-6222.7241786968734
20
1070.2954082472504
10
-6134.8075120302074
20
1070.2954082472504
10
-6134.8075120302074
20
1085.2954082472504
10
-6046.8908453635413
20
1085.2954082472504
10
-6046.8908453635413
20
1040.2954082472504
10
-6031.8908453635413
20
1040.2954082472506
10
-6031.8908453635413
20
995.29540824725063
10
-7116.8908453635395
20
995.29540824725041
10
-7116.8908453635395
20
1040.2954082472504
10
-7101.8908453635395
20
1040.2954082472504
10
-7101.8908453635377
20
1070.2954082472504
10
-7013.9741786968716
20
1070.2954082472504
10
-7013.9741786968716
20
1085.2954082472504
10
-6926.0575120302055
20
1085.2954082472504
10
-6926.0575120302065
20
1070.2954082472504
10
-6838.1408453635404
20
1070.2954082472504
10
-6838.1408453635404
20
1085.2954082472504
10
-6750.2241786968725
20
1085.2954082472504
10
-6750.2241786968734
20
1070.2954082472504
10
-6662.3075120302065
20
1070.2954082472504
10
-6662.3075120302065
20
1085.2954082472504
0
LWPOLYLINE
5
135
100
AcDbEntity
8
0
100
AcDbPolyline
90
32
70
1
43
0.0
10
-6579.5104848174096
20
924.94691407720757
10
-6579.5104848174096
20
954.94691407720734
10
-6491.5938181507427
20
954.94691407720757
10
-6491.5938181507427
20
969.94691407720734
10
-6403.6771514840766
20
969.94691407720757
10
-6403.6771514840766
20
954.94691407720768
10
-6315.7604848174105
20
954.94691407720779
10
-6315.7604848174105
20
969.94691407720768
10
-6227.8438181507445
20
969.94691407720779
10
-6227.8438181507445
20
954.94691407720779
10
-6139.9271514840784
20
954.94691407720791
10
-6139.9271514840766
20
969.94691407720791
10
-6052.0104848174105
20
969.94691407720802
10
-6052.0104848174105
20
924.94691407720802
10
-6037.0104848174105
20
924.94691407720825
10
-6037.0104848174105
20
879.94691407720836
10
-7122.0104848174087
20
879.94691407720688
10
-7122.0104848174087
20
924.94691407720677
10
-7107.0104848174087
20
924.94691407720677
10
-7107.0104848174087
20
954.94691407720666
10
-7019.0938181507418
20
954.94691407720677
10
-7019.0938181507418
20
969.94691407720677
10
-6931.1771514840757
20
969.94691407720688
10
-6931.1771514840748
20
954.94691407720677
10
-6843.2604848174087
20
954.94691407720688
10
-6843.2604848174087
20
969.94691407720711
10
-6755.3438181507418
20
969.94691407720723
10
-6755.3438181507427
20
954.94691407720711
10
-6667.4271514840757
20
954.94691407720723
10
-6667.4271514840757
20
969.94691407720723
10
-6594.5104848174096
20
969.94691407720734
10
-6594.5104848174096
20
924.94691407720757
0
LWPOLYLINE
5
136
100
AcDbEntity
8
0
100
AcDbPolyline
90
18
70
1
43
0.0
10
-6566.1246296462868
20
831.451363686984
10
-6482.7912963129529
20
831.451363686984
10
-6482.7912963129538
20
846.451363686984
10
-6399.4579629796208
20
846.451363686984
10
-6399.4579629796208
20
831.451363686984
10
-6316.1246296462868
20
831.451363686984
10
-6316.1246296462868
20
846.451363686984
10
-6232.7912963129529
20
846.451363686984
10
-6232.7912963129538
20
831.451363686984
10
-6149.4579629796208
20
831.451363686984
10
-6149.4579629796208
20
846.451363686984
10
-6066.1246296462868
20
846.451363686984
10
-6066.1246296462868
20
793.951363686984
10
-6051.1246296462868
20
793.951363686984
10
-6051.1246296462868
20
756.451363686984
10
-6581.1246296462868
20
756.451363686984
10
-6581.1246296462868
20
793.951363686984
10
-6566.1246296462868
20
793.951363686984
0
ENDSEC
0
SECTION
2
OBJECTS
0
DICTIONARY
5
C
100
AcDbDictionary
3
ACAD_GROUP
350
D
3
ACAD_MLINESTYLE
350
17
0
DICTIONARY
5
D
100
AcDbDictionary
0
DICTIONARY
5
1A
330
C
100
AcDbDictionary
0
DICTIONARY
5
17
100
AcDbDictionary
0
ENDSEC
0
EOF
