ISO-10303-21;
HEADER;
/* Generated by software containing ST-Developer
 * from STEP Tools, Inc. (www.steptools.com) 
 */

FILE_DESCRIPTION(
/* description */ (''),
/* implementation_level */ '2;1');

FILE_NAME(
/* name */ 
'c:\\worker\\convert-fusion-r04\\tmp\\job-1\\8\\output\\files\\fa9480e
c-4e61-4778-9093-c3ef875c9874\\ca7da56a-dd0a-4742-b310-bd1abc105d24.st
p',
/* time_stamp */ '2019-05-29T04:13:50+00:00',
/* author */ (''),
/* organization */ (''),
/* preprocessor_version */ 'ST-DEVELOPER v18',
/* originating_system */ 'Autodesk Translation Framework v8.2.0.1029',
/* authorisation */ '');

FILE_SCHEMA (('AUTOMOTIVE_DESIGN { 1 0 10303 214 3 1 1 }'));
ENDSEC;

DATA;
#10=MECHANICAL_DESIGN_GEOMETRIC_PRESENTATION_REPRESENTATION('',(#13),#595);
#11=SHAPE_REPRESENTATION_RELATIONSHIP('SRR','None',#602,#12);
#12=ADVANCED_BREP_SHAPE_REPRESENTATION('',(#14),#594);
#13=STYLED_ITEM('',(#611),#14);
#14=MANIFOLD_SOLID_BREP('Body1',#343);
#15=PLANE('',#360);
#16=PLANE('',#367);
#17=PLANE('',#368);
#18=PLANE('',#369);
#19=PLANE('',#376);
#20=PLANE('',#383);
#21=PLANE('',#384);
#22=PLANE('',#385);
#23=PLANE('',#389);
#24=PLANE('',#390);
#25=FACE_OUTER_BOUND('',#43,.T.);
#26=FACE_OUTER_BOUND('',#44,.T.);
#27=FACE_OUTER_BOUND('',#45,.T.);
#28=FACE_OUTER_BOUND('',#46,.T.);
#29=FACE_OUTER_BOUND('',#47,.T.);
#30=FACE_OUTER_BOUND('',#48,.T.);
#31=FACE_OUTER_BOUND('',#49,.T.);
#32=FACE_OUTER_BOUND('',#50,.T.);
#33=FACE_OUTER_BOUND('',#51,.T.);
#34=FACE_OUTER_BOUND('',#52,.T.);
#35=FACE_OUTER_BOUND('',#53,.T.);
#36=FACE_OUTER_BOUND('',#54,.T.);
#37=FACE_OUTER_BOUND('',#55,.T.);
#38=FACE_OUTER_BOUND('',#56,.T.);
#39=FACE_OUTER_BOUND('',#57,.T.);
#40=FACE_OUTER_BOUND('',#58,.T.);
#41=FACE_OUTER_BOUND('',#59,.T.);
#42=FACE_OUTER_BOUND('',#60,.T.);
#43=EDGE_LOOP('',(#221,#222,#223,#224));
#44=EDGE_LOOP('',(#225,#226,#227,#228));
#45=EDGE_LOOP('',(#229,#230,#231,#232));
#46=EDGE_LOOP('',(#233,#234,#235,#236));
#47=EDGE_LOOP('',(#237,#238,#239,#240));
#48=EDGE_LOOP('',(#241,#242,#243,#244));
#49=EDGE_LOOP('',(#245,#246,#247,#248));
#50=EDGE_LOOP('',(#249,#250,#251,#252));
#51=EDGE_LOOP('',(#253,#254,#255,#256));
#52=EDGE_LOOP('',(#257,#258,#259,#260));
#53=EDGE_LOOP('',(#261,#262,#263,#264));
#54=EDGE_LOOP('',(#265,#266,#267,#268));
#55=EDGE_LOOP('',(#269,#270,#271,#272));
#56=EDGE_LOOP('',(#273,#274,#275,#276));
#57=EDGE_LOOP('',(#277,#278,#279,#280));
#58=EDGE_LOOP('',(#281,#282,#283,#284));
#59=EDGE_LOOP('',(#285,#286,#287,#288,#289,#290,#291,#292,#293,#294,#295,
#296,#297,#298,#299,#300));
#60=EDGE_LOOP('',(#301,#302,#303,#304,#305,#306,#307,#308,#309,#310,#311,
#312,#313,#314,#315,#316));
#61=LINE('',#499,#93);
#62=LINE('',#502,#94);
#63=LINE('',#505,#95);
#64=LINE('',#507,#96);
#65=LINE('',#508,#97);
#66=LINE('',#514,#98);
#67=LINE('',#520,#99);
#68=LINE('',#523,#100);
#69=LINE('',#525,#101);
#70=LINE('',#526,#102);
#71=LINE('',#529,#103);
#72=LINE('',#531,#104);
#73=LINE('',#532,#105);
#74=LINE('',#535,#106);
#75=LINE('',#537,#107);
#76=LINE('',#538,#108);
#77=LINE('',#544,#109);
#78=LINE('',#550,#110);
#79=LINE('',#553,#111);
#80=LINE('',#555,#112);
#81=LINE('',#556,#113);
#82=LINE('',#562,#114);
#83=LINE('',#568,#115);
#84=LINE('',#571,#116);
#85=LINE('',#573,#117);
#86=LINE('',#574,#118);
#87=LINE('',#577,#119);
#88=LINE('',#579,#120);
#89=LINE('',#580,#121);
#90=LINE('',#583,#122);
#91=LINE('',#585,#123);
#92=LINE('',#586,#124);
#93=VECTOR('',#397,10.);
#94=VECTOR('',#400,10.);
#95=VECTOR('',#403,10.);
#96=VECTOR('',#404,10.);
#97=VECTOR('',#405,10.);
#98=VECTOR('',#412,10.);
#99=VECTOR('',#419,10.);
#100=VECTOR('',#422,10.);
#101=VECTOR('',#423,10.);
#102=VECTOR('',#424,10.);
#103=VECTOR('',#427,10.);
#104=VECTOR('',#428,10.);
#105=VECTOR('',#429,10.);
#106=VECTOR('',#432,10.);
#107=VECTOR('',#433,10.);
#108=VECTOR('',#434,10.);
#109=VECTOR('',#441,10.);
#110=VECTOR('',#448,10.);
#111=VECTOR('',#451,10.);
#112=VECTOR('',#452,10.);
#113=VECTOR('',#453,10.);
#114=VECTOR('',#460,10.);
#115=VECTOR('',#467,10.);
#116=VECTOR('',#470,10.);
#117=VECTOR('',#471,10.);
#118=VECTOR('',#472,10.);
#119=VECTOR('',#475,10.);
#120=VECTOR('',#476,10.);
#121=VECTOR('',#477,10.);
#122=VECTOR('',#480,10.);
#123=VECTOR('',#481,10.);
#124=VECTOR('',#482,10.);
#125=CIRCLE('',#358,14.);
#126=CIRCLE('',#359,14.);
#127=CIRCLE('',#362,14.);
#128=CIRCLE('',#363,14.);
#129=CIRCLE('',#365,25.);
#130=CIRCLE('',#366,25.);
#131=CIRCLE('',#371,25.);
#132=CIRCLE('',#372,25.);
#133=CIRCLE('',#374,14.);
#134=CIRCLE('',#375,14.);
#135=CIRCLE('',#378,14.);
#136=CIRCLE('',#379,14.);
#137=CIRCLE('',#381,25.);
#138=CIRCLE('',#382,25.);
#139=CIRCLE('',#387,25.);
#140=CIRCLE('',#388,25.);
#141=VERTEX_POINT('',#495);
#142=VERTEX_POINT('',#496);
#143=VERTEX_POINT('',#498);
#144=VERTEX_POINT('',#500);
#145=VERTEX_POINT('',#504);
#146=VERTEX_POINT('',#506);
#147=VERTEX_POINT('',#510);
#148=VERTEX_POINT('',#512);
#149=VERTEX_POINT('',#516);
#150=VERTEX_POINT('',#518);
#151=VERTEX_POINT('',#522);
#152=VERTEX_POINT('',#524);
#153=VERTEX_POINT('',#528);
#154=VERTEX_POINT('',#530);
#155=VERTEX_POINT('',#534);
#156=VERTEX_POINT('',#536);
#157=VERTEX_POINT('',#540);
#158=VERTEX_POINT('',#542);
#159=VERTEX_POINT('',#546);
#160=VERTEX_POINT('',#548);
#161=VERTEX_POINT('',#552);
#162=VERTEX_POINT('',#554);
#163=VERTEX_POINT('',#558);
#164=VERTEX_POINT('',#560);
#165=VERTEX_POINT('',#564);
#166=VERTEX_POINT('',#566);
#167=VERTEX_POINT('',#570);
#168=VERTEX_POINT('',#572);
#169=VERTEX_POINT('',#576);
#170=VERTEX_POINT('',#578);
#171=VERTEX_POINT('',#582);
#172=VERTEX_POINT('',#584);
#173=EDGE_CURVE('',#141,#142,#125,.T.);
#174=EDGE_CURVE('',#141,#143,#61,.T.);
#175=EDGE_CURVE('',#144,#143,#126,.T.);
#176=EDGE_CURVE('',#142,#144,#62,.T.);
#177=EDGE_CURVE('',#142,#145,#63,.T.);
#178=EDGE_CURVE('',#146,#144,#64,.T.);
#179=EDGE_CURVE('',#145,#146,#65,.T.);
#180=EDGE_CURVE('',#145,#147,#127,.T.);
#181=EDGE_CURVE('',#148,#146,#128,.T.);
#182=EDGE_CURVE('',#147,#148,#66,.T.);
#183=EDGE_CURVE('',#149,#147,#129,.T.);
#184=EDGE_CURVE('',#150,#148,#130,.T.);
#185=EDGE_CURVE('',#149,#150,#67,.T.);
#186=EDGE_CURVE('',#149,#151,#68,.T.);
#187=EDGE_CURVE('',#152,#150,#69,.T.);
#188=EDGE_CURVE('',#151,#152,#70,.T.);
#189=EDGE_CURVE('',#151,#153,#71,.T.);
#190=EDGE_CURVE('',#154,#152,#72,.T.);
#191=EDGE_CURVE('',#153,#154,#73,.T.);
#192=EDGE_CURVE('',#153,#155,#74,.T.);
#193=EDGE_CURVE('',#156,#154,#75,.T.);
#194=EDGE_CURVE('',#155,#156,#76,.T.);
#195=EDGE_CURVE('',#157,#155,#131,.T.);
#196=EDGE_CURVE('',#158,#156,#132,.T.);
#197=EDGE_CURVE('',#157,#158,#77,.T.);
#198=EDGE_CURVE('',#157,#159,#133,.T.);
#199=EDGE_CURVE('',#160,#158,#134,.T.);
#200=EDGE_CURVE('',#159,#160,#78,.T.);
#201=EDGE_CURVE('',#159,#161,#79,.T.);
#202=EDGE_CURVE('',#162,#160,#80,.T.);
#203=EDGE_CURVE('',#161,#162,#81,.T.);
#204=EDGE_CURVE('',#161,#163,#135,.T.);
#205=EDGE_CURVE('',#164,#162,#136,.T.);
#206=EDGE_CURVE('',#163,#164,#82,.T.);
#207=EDGE_CURVE('',#165,#163,#137,.T.);
#208=EDGE_CURVE('',#166,#164,#138,.T.);
#209=EDGE_CURVE('',#165,#166,#83,.T.);
#210=EDGE_CURVE('',#167,#165,#84,.T.);
#211=EDGE_CURVE('',#168,#166,#85,.T.);
#212=EDGE_CURVE('',#167,#168,#86,.T.);
#213=EDGE_CURVE('',#169,#167,#87,.T.);
#214=EDGE_CURVE('',#170,#168,#88,.T.);
#215=EDGE_CURVE('',#169,#170,#89,.T.);
#216=EDGE_CURVE('',#171,#169,#90,.T.);
#217=EDGE_CURVE('',#172,#170,#91,.T.);
#218=EDGE_CURVE('',#171,#172,#92,.T.);
#219=EDGE_CURVE('',#141,#171,#139,.T.);
#220=EDGE_CURVE('',#143,#172,#140,.T.);
#221=ORIENTED_EDGE('',*,*,#173,.F.);
#222=ORIENTED_EDGE('',*,*,#174,.T.);
#223=ORIENTED_EDGE('',*,*,#175,.F.);
#224=ORIENTED_EDGE('',*,*,#176,.F.);
#225=ORIENTED_EDGE('',*,*,#177,.F.);
#226=ORIENTED_EDGE('',*,*,#176,.T.);
#227=ORIENTED_EDGE('',*,*,#178,.F.);
#228=ORIENTED_EDGE('',*,*,#179,.F.);
#229=ORIENTED_EDGE('',*,*,#180,.F.);
#230=ORIENTED_EDGE('',*,*,#179,.T.);
#231=ORIENTED_EDGE('',*,*,#181,.F.);
#232=ORIENTED_EDGE('',*,*,#182,.F.);
#233=ORIENTED_EDGE('',*,*,#183,.T.);
#234=ORIENTED_EDGE('',*,*,#182,.T.);
#235=ORIENTED_EDGE('',*,*,#184,.F.);
#236=ORIENTED_EDGE('',*,*,#185,.F.);
#237=ORIENTED_EDGE('',*,*,#186,.F.);
#238=ORIENTED_EDGE('',*,*,#185,.T.);
#239=ORIENTED_EDGE('',*,*,#187,.F.);
#240=ORIENTED_EDGE('',*,*,#188,.F.);
#241=ORIENTED_EDGE('',*,*,#189,.F.);
#242=ORIENTED_EDGE('',*,*,#188,.T.);
#243=ORIENTED_EDGE('',*,*,#190,.F.);
#244=ORIENTED_EDGE('',*,*,#191,.F.);
#245=ORIENTED_EDGE('',*,*,#192,.F.);
#246=ORIENTED_EDGE('',*,*,#191,.T.);
#247=ORIENTED_EDGE('',*,*,#193,.F.);
#248=ORIENTED_EDGE('',*,*,#194,.F.);
#249=ORIENTED_EDGE('',*,*,#195,.T.);
#250=ORIENTED_EDGE('',*,*,#194,.T.);
#251=ORIENTED_EDGE('',*,*,#196,.F.);
#252=ORIENTED_EDGE('',*,*,#197,.F.);
#253=ORIENTED_EDGE('',*,*,#198,.F.);
#254=ORIENTED_EDGE('',*,*,#197,.T.);
#255=ORIENTED_EDGE('',*,*,#199,.F.);
#256=ORIENTED_EDGE('',*,*,#200,.F.);
#257=ORIENTED_EDGE('',*,*,#201,.F.);
#258=ORIENTED_EDGE('',*,*,#200,.T.);
#259=ORIENTED_EDGE('',*,*,#202,.F.);
#260=ORIENTED_EDGE('',*,*,#203,.F.);
#261=ORIENTED_EDGE('',*,*,#204,.F.);
#262=ORIENTED_EDGE('',*,*,#203,.T.);
#263=ORIENTED_EDGE('',*,*,#205,.F.);
#264=ORIENTED_EDGE('',*,*,#206,.F.);
#265=ORIENTED_EDGE('',*,*,#207,.T.);
#266=ORIENTED_EDGE('',*,*,#206,.T.);
#267=ORIENTED_EDGE('',*,*,#208,.F.);
#268=ORIENTED_EDGE('',*,*,#209,.F.);
#269=ORIENTED_EDGE('',*,*,#210,.T.);
#270=ORIENTED_EDGE('',*,*,#209,.T.);
#271=ORIENTED_EDGE('',*,*,#211,.F.);
#272=ORIENTED_EDGE('',*,*,#212,.F.);
#273=ORIENTED_EDGE('',*,*,#213,.T.);
#274=ORIENTED_EDGE('',*,*,#212,.T.);
#275=ORIENTED_EDGE('',*,*,#214,.F.);
#276=ORIENTED_EDGE('',*,*,#215,.F.);
#277=ORIENTED_EDGE('',*,*,#216,.T.);
#278=ORIENTED_EDGE('',*,*,#215,.T.);
#279=ORIENTED_EDGE('',*,*,#217,.F.);
#280=ORIENTED_EDGE('',*,*,#218,.F.);
#281=ORIENTED_EDGE('',*,*,#219,.T.);
#282=ORIENTED_EDGE('',*,*,#218,.T.);
#283=ORIENTED_EDGE('',*,*,#220,.F.);
#284=ORIENTED_EDGE('',*,*,#174,.F.);
#285=ORIENTED_EDGE('',*,*,#220,.T.);
#286=ORIENTED_EDGE('',*,*,#217,.T.);
#287=ORIENTED_EDGE('',*,*,#214,.T.);
#288=ORIENTED_EDGE('',*,*,#211,.T.);
#289=ORIENTED_EDGE('',*,*,#208,.T.);
#290=ORIENTED_EDGE('',*,*,#205,.T.);
#291=ORIENTED_EDGE('',*,*,#202,.T.);
#292=ORIENTED_EDGE('',*,*,#199,.T.);
#293=ORIENTED_EDGE('',*,*,#196,.T.);
#294=ORIENTED_EDGE('',*,*,#193,.T.);
#295=ORIENTED_EDGE('',*,*,#190,.T.);
#296=ORIENTED_EDGE('',*,*,#187,.T.);
#297=ORIENTED_EDGE('',*,*,#184,.T.);
#298=ORIENTED_EDGE('',*,*,#181,.T.);
#299=ORIENTED_EDGE('',*,*,#178,.T.);
#300=ORIENTED_EDGE('',*,*,#175,.T.);
#301=ORIENTED_EDGE('',*,*,#219,.F.);
#302=ORIENTED_EDGE('',*,*,#173,.T.);
#303=ORIENTED_EDGE('',*,*,#177,.T.);
#304=ORIENTED_EDGE('',*,*,#180,.T.);
#305=ORIENTED_EDGE('',*,*,#183,.F.);
#306=ORIENTED_EDGE('',*,*,#186,.T.);
#307=ORIENTED_EDGE('',*,*,#189,.T.);
#308=ORIENTED_EDGE('',*,*,#192,.T.);
#309=ORIENTED_EDGE('',*,*,#195,.F.);
#310=ORIENTED_EDGE('',*,*,#198,.T.);
#311=ORIENTED_EDGE('',*,*,#201,.T.);
#312=ORIENTED_EDGE('',*,*,#204,.T.);
#313=ORIENTED_EDGE('',*,*,#207,.F.);
#314=ORIENTED_EDGE('',*,*,#210,.F.);
#315=ORIENTED_EDGE('',*,*,#213,.F.);
#316=ORIENTED_EDGE('',*,*,#216,.F.);
#317=CYLINDRICAL_SURFACE('',#357,14.);
#318=CYLINDRICAL_SURFACE('',#361,14.);
#319=CYLINDRICAL_SURFACE('',#364,25.);
#320=CYLINDRICAL_SURFACE('',#370,25.);
#321=CYLINDRICAL_SURFACE('',#373,14.);
#322=CYLINDRICAL_SURFACE('',#377,14.);
#323=CYLINDRICAL_SURFACE('',#380,25.);
#324=CYLINDRICAL_SURFACE('',#386,25.);
#325=ADVANCED_FACE('',(#25),#317,.F.);
#326=ADVANCED_FACE('',(#26),#15,.T.);
#327=ADVANCED_FACE('',(#27),#318,.F.);
#328=ADVANCED_FACE('',(#28),#319,.T.);
#329=ADVANCED_FACE('',(#29),#16,.T.);
#330=ADVANCED_FACE('',(#30),#17,.T.);
#331=ADVANCED_FACE('',(#31),#18,.T.);
#332=ADVANCED_FACE('',(#32),#320,.T.);
#333=ADVANCED_FACE('',(#33),#321,.F.);
#334=ADVANCED_FACE('',(#34),#19,.T.);
#335=ADVANCED_FACE('',(#35),#322,.F.);
#336=ADVANCED_FACE('',(#36),#323,.T.);
#337=ADVANCED_FACE('',(#37),#20,.T.);
#338=ADVANCED_FACE('',(#38),#21,.T.);
#339=ADVANCED_FACE('',(#39),#22,.T.);
#340=ADVANCED_FACE('',(#40),#324,.T.);
#341=ADVANCED_FACE('',(#41),#23,.T.);
#342=ADVANCED_FACE('',(#42),#24,.F.);
#343=CLOSED_SHELL('',(#325,#326,#327,#328,#329,#330,#331,#332,#333,#334,
#335,#336,#337,#338,#339,#340,#341,#342));
#344=DERIVED_UNIT_ELEMENT(#346,1.);
#345=DERIVED_UNIT_ELEMENT(#597,3.);
#346=(
MASS_UNIT()
NAMED_UNIT(*)
SI_UNIT(.KILO.,.GRAM.)
);
#347=DERIVED_UNIT((#344,#345));
#348=MEASURE_REPRESENTATION_ITEM('density measure',
POSITIVE_RATIO_MEASURE(7850.),#347);
#349=PROPERTY_DEFINITION_REPRESENTATION(#354,#351);
#350=PROPERTY_DEFINITION_REPRESENTATION(#355,#352);
#351=REPRESENTATION('material name',(#353),#594);
#352=REPRESENTATION('density',(#348),#594);
#353=DESCRIPTIVE_REPRESENTATION_ITEM('Steel','Steel');
#354=PROPERTY_DEFINITION('material property','material name',#604);
#355=PROPERTY_DEFINITION('material property','density of part',#604);
#356=AXIS2_PLACEMENT_3D('placement',#493,#391,#392);
#357=AXIS2_PLACEMENT_3D('',#494,#393,#394);
#358=AXIS2_PLACEMENT_3D('',#497,#395,#396);
#359=AXIS2_PLACEMENT_3D('',#501,#398,#399);
#360=AXIS2_PLACEMENT_3D('',#503,#401,#402);
#361=AXIS2_PLACEMENT_3D('',#509,#406,#407);
#362=AXIS2_PLACEMENT_3D('',#511,#408,#409);
#363=AXIS2_PLACEMENT_3D('',#513,#410,#411);
#364=AXIS2_PLACEMENT_3D('',#515,#413,#414);
#365=AXIS2_PLACEMENT_3D('',#517,#415,#416);
#366=AXIS2_PLACEMENT_3D('',#519,#417,#418);
#367=AXIS2_PLACEMENT_3D('',#521,#420,#421);
#368=AXIS2_PLACEMENT_3D('',#527,#425,#426);
#369=AXIS2_PLACEMENT_3D('',#533,#430,#431);
#370=AXIS2_PLACEMENT_3D('',#539,#435,#436);
#371=AXIS2_PLACEMENT_3D('',#541,#437,#438);
#372=AXIS2_PLACEMENT_3D('',#543,#439,#440);
#373=AXIS2_PLACEMENT_3D('',#545,#442,#443);
#374=AXIS2_PLACEMENT_3D('',#547,#444,#445);
#375=AXIS2_PLACEMENT_3D('',#549,#446,#447);
#376=AXIS2_PLACEMENT_3D('',#551,#449,#450);
#377=AXIS2_PLACEMENT_3D('',#557,#454,#455);
#378=AXIS2_PLACEMENT_3D('',#559,#456,#457);
#379=AXIS2_PLACEMENT_3D('',#561,#458,#459);
#380=AXIS2_PLACEMENT_3D('',#563,#461,#462);
#381=AXIS2_PLACEMENT_3D('',#565,#463,#464);
#382=AXIS2_PLACEMENT_3D('',#567,#465,#466);
#383=AXIS2_PLACEMENT_3D('',#569,#468,#469);
#384=AXIS2_PLACEMENT_3D('',#575,#473,#474);
#385=AXIS2_PLACEMENT_3D('',#581,#478,#479);
#386=AXIS2_PLACEMENT_3D('',#587,#483,#484);
#387=AXIS2_PLACEMENT_3D('',#588,#485,#486);
#388=AXIS2_PLACEMENT_3D('',#589,#487,#488);
#389=AXIS2_PLACEMENT_3D('',#590,#489,#490);
#390=AXIS2_PLACEMENT_3D('',#591,#491,#492);
#391=DIRECTION('axis',(0.,0.,1.));
#392=DIRECTION('refdir',(1.,0.,0.));
#393=DIRECTION('center_axis',(0.,1.,0.));
#394=DIRECTION('ref_axis',(0.807692307692308,0.,0.589604219875226));
#395=DIRECTION('center_axis',(0.,1.,0.));
#396=DIRECTION('ref_axis',(0.807692307692308,0.,0.589604219875226));
#397=DIRECTION('',(0.,1.,0.));
#398=DIRECTION('center_axis',(0.,-1.,0.));
#399=DIRECTION('ref_axis',(0.807692307692308,0.,0.589604219875226));
#400=DIRECTION('',(0.,1.,0.));
#401=DIRECTION('center_axis',(-1.,0.,2.22044604925031E-16));
#402=DIRECTION('ref_axis',(2.22044604925031E-16,0.,1.));
#403=DIRECTION('',(-2.22044604925031E-16,0.,-1.));
#404=DIRECTION('',(2.22044604925031E-16,0.,1.));
#405=DIRECTION('',(0.,1.,0.));
#406=DIRECTION('center_axis',(0.,1.,0.));
#407=DIRECTION('ref_axis',(0.998101543974187,0.,0.0615898361448069));
#408=DIRECTION('center_axis',(0.,1.,0.));
#409=DIRECTION('ref_axis',(0.998101543974187,0.,0.0615898361448069));
#410=DIRECTION('center_axis',(0.,-1.,0.));
#411=DIRECTION('ref_axis',(0.998101543974187,0.,0.0615898361448069));
#412=DIRECTION('',(0.,1.,0.));
#413=DIRECTION('center_axis',(0.,1.,0.));
#414=DIRECTION('ref_axis',(-1.,0.,0.));
#415=DIRECTION('center_axis',(0.,1.,0.));
#416=DIRECTION('ref_axis',(-1.,0.,0.));
#417=DIRECTION('center_axis',(0.,1.,0.));
#418=DIRECTION('ref_axis',(-1.,0.,0.));
#419=DIRECTION('',(0.,1.,0.));
#420=DIRECTION('center_axis',(-1.,0.,0.));
#421=DIRECTION('ref_axis',(0.,0.,1.));
#422=DIRECTION('',(0.,0.,-1.));
#423=DIRECTION('',(0.,0.,1.));
#424=DIRECTION('',(0.,1.,0.));
#425=DIRECTION('center_axis',(0.,0.,-1.));
#426=DIRECTION('ref_axis',(-1.,0.,0.));
#427=DIRECTION('',(1.,0.,0.));
#428=DIRECTION('',(-1.,0.,0.));
#429=DIRECTION('',(0.,1.,0.));
#430=DIRECTION('center_axis',(1.,0.,1.479627165976E-15));
#431=DIRECTION('ref_axis',(1.479627165976E-15,0.,-1.));
#432=DIRECTION('',(-1.479627165976E-15,0.,1.));
#433=DIRECTION('',(1.479627165976E-15,0.,-1.));
#434=DIRECTION('',(0.,1.,0.));
#435=DIRECTION('center_axis',(0.,1.,0.));
#436=DIRECTION('ref_axis',(0.807692307692308,0.,0.589604219875226));
#437=DIRECTION('center_axis',(0.,1.,0.));
#438=DIRECTION('ref_axis',(0.807692307692308,0.,0.589604219875226));
#439=DIRECTION('center_axis',(0.,1.,0.));
#440=DIRECTION('ref_axis',(0.807692307692308,0.,0.589604219875226));
#441=DIRECTION('',(0.,1.,0.));
#442=DIRECTION('center_axis',(0.,1.,0.));
#443=DIRECTION('ref_axis',(-0.807692307692308,0.,-0.589604219875227));
#444=DIRECTION('center_axis',(0.,1.,0.));
#445=DIRECTION('ref_axis',(-0.807692307692308,0.,-0.589604219875227));
#446=DIRECTION('center_axis',(0.,-1.,0.));
#447=DIRECTION('ref_axis',(-0.807692307692308,0.,-0.589604219875227));
#448=DIRECTION('',(0.,1.,0.));
#449=DIRECTION('center_axis',(1.,0.,0.));
#450=DIRECTION('ref_axis',(0.,0.,-1.));
#451=DIRECTION('',(0.,0.,1.));
#452=DIRECTION('',(0.,0.,-1.));
#453=DIRECTION('',(0.,1.,0.));
#454=DIRECTION('center_axis',(0.,1.,0.));
#455=DIRECTION('ref_axis',(-0.998101543974187,0.,-0.0615898361448051));
#456=DIRECTION('center_axis',(0.,1.,0.));
#457=DIRECTION('ref_axis',(-0.998101543974187,0.,-0.0615898361448051));
#458=DIRECTION('center_axis',(0.,-1.,0.));
#459=DIRECTION('ref_axis',(-0.998101543974187,0.,-0.0615898361448051));
#460=DIRECTION('',(0.,1.,0.));
#461=DIRECTION('center_axis',(0.,1.,0.));
#462=DIRECTION('ref_axis',(1.,0.,0.));
#463=DIRECTION('center_axis',(0.,1.,0.));
#464=DIRECTION('ref_axis',(1.,0.,0.));
#465=DIRECTION('center_axis',(0.,1.,0.));
#466=DIRECTION('ref_axis',(1.,0.,0.));
#467=DIRECTION('',(0.,1.,0.));
#468=DIRECTION('center_axis',(1.,0.,-1.479627165976E-15));
#469=DIRECTION('ref_axis',(-1.479627165976E-15,0.,-1.));
#470=DIRECTION('',(-1.479627165976E-15,0.,-1.));
#471=DIRECTION('',(-1.479627165976E-15,0.,-1.));
#472=DIRECTION('',(0.,1.,0.));
#473=DIRECTION('center_axis',(0.,0.,1.));
#474=DIRECTION('ref_axis',(1.,0.,0.));
#475=DIRECTION('',(1.,0.,0.));
#476=DIRECTION('',(1.,0.,0.));
#477=DIRECTION('',(0.,1.,0.));
#478=DIRECTION('center_axis',(-1.,0.,1.4426364868266E-14));
#479=DIRECTION('ref_axis',(1.4426364868266E-14,0.,1.));
#480=DIRECTION('',(1.4426364868266E-14,0.,1.));
#481=DIRECTION('',(1.4426364868266E-14,0.,1.));
#482=DIRECTION('',(0.,1.,0.));
#483=DIRECTION('center_axis',(0.,1.,0.));
#484=DIRECTION('ref_axis',(-0.807692307692308,0.,-0.589604219875226));
#485=DIRECTION('center_axis',(0.,1.,0.));
#486=DIRECTION('ref_axis',(-0.807692307692308,0.,-0.589604219875226));
#487=DIRECTION('center_axis',(0.,1.,0.));
#488=DIRECTION('ref_axis',(-0.807692307692308,0.,-0.589604219875226));
#489=DIRECTION('center_axis',(0.,1.,0.));
#490=DIRECTION('ref_axis',(1.,0.,0.));
#491=DIRECTION('center_axis',(0.,1.,0.));
#492=DIRECTION('ref_axis',(1.,0.,0.));
#493=CARTESIAN_POINT('',(0.,0.,0.));
#494=CARTESIAN_POINT('Origin',(32.3283957289404,0.,86.195913556146));
#495=CARTESIAN_POINT('',(43.6360880366328,0.,94.4503726343992));
#496=CARTESIAN_POINT('',(46.3283957289405,0.,86.195913556146));
#497=CARTESIAN_POINT('Origin',(32.3283957289404,0.,86.195913556146));
#498=CARTESIAN_POINT('',(43.6360880366328,4.,94.4503726343992));
#499=CARTESIAN_POINT('',(43.6360880366328,0.,94.4503726343992));
#500=CARTESIAN_POINT('',(46.3283957289405,4.,86.195913556146));
#501=CARTESIAN_POINT('Origin',(32.3283957289404,4.,86.195913556146));
#502=CARTESIAN_POINT('',(46.3283957289405,0.,86.195913556146));
#503=CARTESIAN_POINT('Origin',(46.3283957289404,0.,6.19591355614596));
#504=CARTESIAN_POINT('',(46.3283957289404,0.,6.19591355614596));
#505=CARTESIAN_POINT('',(46.3283957289405,0.,86.1959135561459));
#506=CARTESIAN_POINT('',(46.3283957289404,4.,6.19591355614597));
#507=CARTESIAN_POINT('',(46.3283957289405,4.,86.1959135561459));
#508=CARTESIAN_POINT('',(46.3283957289404,0.,6.19591355614596));
#509=CARTESIAN_POINT('Origin',(32.3283957289404,0.,6.19591355614592));
#510=CARTESIAN_POINT('',(43.6360880366328,0.,-2.05854552210725));
#511=CARTESIAN_POINT('Origin',(32.3283957289404,0.,6.19591355614592));
#512=CARTESIAN_POINT('',(43.6360880366328,4.,-2.05854552210726));
#513=CARTESIAN_POINT('Origin',(32.3283957289404,4.,6.19591355614592));
#514=CARTESIAN_POINT('',(43.6360880366328,0.,-2.05854552210725));
#515=CARTESIAN_POINT('Origin',(63.8283957289404,0.,-16.7986510189879));
#516=CARTESIAN_POINT('',(38.8283957289405,0.,-16.7986510189879));
#517=CARTESIAN_POINT('Origin',(63.8283957289404,0.,-16.7986510189879));
#518=CARTESIAN_POINT('',(38.8283957289405,4.,-16.7986510189879));
#519=CARTESIAN_POINT('Origin',(63.8283957289404,4.,-16.7986510189879));
#520=CARTESIAN_POINT('',(38.8283957289405,0.,-16.7986510189879));
#521=CARTESIAN_POINT('Origin',(38.8283957289405,0.,-28.804086443854));
#522=CARTESIAN_POINT('',(38.8283957289405,0.,-28.804086443854));
#523=CARTESIAN_POINT('',(38.8283957289405,0.,-16.7986510189879));
#524=CARTESIAN_POINT('',(38.8283957289405,4.,-28.804086443854));
#525=CARTESIAN_POINT('',(38.8283957289405,4.,-16.7986510189879));
#526=CARTESIAN_POINT('',(38.8283957289405,0.,-28.804086443854));
#527=CARTESIAN_POINT('Origin',(63.8283957289405,0.,-28.804086443854));
#528=CARTESIAN_POINT('',(63.8283957289405,0.,-28.804086443854));
#529=CARTESIAN_POINT('',(38.8283957289405,0.,-28.804086443854));
#530=CARTESIAN_POINT('',(63.8283957289405,4.,-28.804086443854));
#531=CARTESIAN_POINT('',(38.8283957289405,4.,-28.804086443854));
#532=CARTESIAN_POINT('',(63.8283957289405,0.,-28.804086443854));
#533=CARTESIAN_POINT('Origin',(63.8283957289404,0.,-16.7986510189879));
#534=CARTESIAN_POINT('',(63.8283957289405,0.,-16.7986510189879));
#535=CARTESIAN_POINT('',(63.8283957289405,0.,-28.804086443854));
#536=CARTESIAN_POINT('',(63.8283957289405,4.,-16.7986510189879));
#537=CARTESIAN_POINT('',(63.8283957289405,4.,-28.804086443854));
#538=CARTESIAN_POINT('',(63.8283957289405,0.,-16.7986510189879));
#539=CARTESIAN_POINT('Origin',(38.8283957289405,0.,-16.7986510189879));
#540=CARTESIAN_POINT('',(59.0207034212482,0.,-2.05854552210726));
#541=CARTESIAN_POINT('Origin',(38.8283957289405,0.,-16.7986510189879));
#542=CARTESIAN_POINT('',(59.0207034212482,4.,-2.05854552210726));
#543=CARTESIAN_POINT('Origin',(38.8283957289405,4.,-16.7986510189879));
#544=CARTESIAN_POINT('',(59.0207034212482,0.,-2.05854552210726));
#545=CARTESIAN_POINT('Origin',(70.3283957289405,0.,6.19591355614592));
#546=CARTESIAN_POINT('',(56.3283957289405,0.,6.19591355614596));
#547=CARTESIAN_POINT('Origin',(70.3283957289405,0.,6.19591355614592));
#548=CARTESIAN_POINT('',(56.3283957289405,4.,6.19591355614597));
#549=CARTESIAN_POINT('Origin',(70.3283957289405,4.,6.19591355614592));
#550=CARTESIAN_POINT('',(56.3283957289405,0.,6.19591355614596));
#551=CARTESIAN_POINT('Origin',(56.3283957289405,0.,86.195913556146));
#552=CARTESIAN_POINT('',(56.3283957289405,0.,86.195913556146));
#553=CARTESIAN_POINT('',(56.3283957289405,0.,6.19591355614596));
#554=CARTESIAN_POINT('',(56.3283957289405,4.,86.195913556146));
#555=CARTESIAN_POINT('',(56.3283957289405,4.,6.19591355614596));
#556=CARTESIAN_POINT('',(56.3283957289405,0.,86.195913556146));
#557=CARTESIAN_POINT('Origin',(70.3283957289405,0.,86.195913556146));
#558=CARTESIAN_POINT('',(59.0207034212481,0.,94.4503726343992));
#559=CARTESIAN_POINT('Origin',(70.3283957289405,0.,86.195913556146));
#560=CARTESIAN_POINT('',(59.0207034212481,4.,94.4503726343992));
#561=CARTESIAN_POINT('Origin',(70.3283957289405,4.,86.195913556146));
#562=CARTESIAN_POINT('',(59.0207034212481,0.,94.4503726343992));
#563=CARTESIAN_POINT('Origin',(38.8283957289405,0.,109.19047813128));
#564=CARTESIAN_POINT('',(63.8283957289404,0.,109.19047813128));
#565=CARTESIAN_POINT('Origin',(38.8283957289405,0.,109.19047813128));
#566=CARTESIAN_POINT('',(63.8283957289404,4.,109.19047813128));
#567=CARTESIAN_POINT('Origin',(38.8283957289405,4.,109.19047813128));
#568=CARTESIAN_POINT('',(63.8283957289404,0.,109.19047813128));
#569=CARTESIAN_POINT('Origin',(63.8283957289405,0.,121.195913556146));
#570=CARTESIAN_POINT('',(63.8283957289405,0.,121.195913556146));
#571=CARTESIAN_POINT('',(63.8283957289405,0.,121.195913556146));
#572=CARTESIAN_POINT('',(63.8283957289405,4.,121.195913556146));
#573=CARTESIAN_POINT('',(63.8283957289405,4.,121.195913556146));
#574=CARTESIAN_POINT('',(63.8283957289405,0.,121.195913556146));
#575=CARTESIAN_POINT('Origin',(38.8283957289406,0.,121.195913556146));
#576=CARTESIAN_POINT('',(38.8283957289406,0.,121.195913556146));
#577=CARTESIAN_POINT('',(38.8283957289406,0.,121.195913556146));
#578=CARTESIAN_POINT('',(38.8283957289406,4.,121.195913556146));
#579=CARTESIAN_POINT('',(38.8283957289406,4.,121.195913556146));
#580=CARTESIAN_POINT('',(38.8283957289406,0.,121.195913556146));
#581=CARTESIAN_POINT('Origin',(38.8283957289405,0.,109.19047813128));
#582=CARTESIAN_POINT('',(38.8283957289405,0.,109.19047813128));
#583=CARTESIAN_POINT('',(38.8283957289405,0.,109.19047813128));
#584=CARTESIAN_POINT('',(38.8283957289405,4.,109.19047813128));
#585=CARTESIAN_POINT('',(38.8283957289405,4.,109.19047813128));
#586=CARTESIAN_POINT('',(38.8283957289405,0.,109.19047813128));
#587=CARTESIAN_POINT('Origin',(63.8283957289404,0.,109.19047813128));
#588=CARTESIAN_POINT('Origin',(63.8283957289404,0.,109.19047813128));
#589=CARTESIAN_POINT('Origin',(63.8283957289404,4.,109.19047813128));
#590=CARTESIAN_POINT('Origin',(51.3283957289405,4.,46.195913556146));
#591=CARTESIAN_POINT('Origin',(51.3283957289405,0.,46.195913556146));
#592=UNCERTAINTY_MEASURE_WITH_UNIT(LENGTH_MEASURE(0.01),#596,
'DISTANCE_ACCURACY_VALUE',
'Maximum model space distance between geometric entities at asserted c
onnectivities');
#593=UNCERTAINTY_MEASURE_WITH_UNIT(LENGTH_MEASURE(0.01),#596,
'DISTANCE_ACCURACY_VALUE',
'Maximum model space distance between geometric entities at asserted c
onnectivities');
#594=(
GEOMETRIC_REPRESENTATION_CONTEXT(3)
GLOBAL_UNCERTAINTY_ASSIGNED_CONTEXT((#592))
GLOBAL_UNIT_ASSIGNED_CONTEXT((#596,#598,#599))
REPRESENTATION_CONTEXT('','3D')
);
#595=(
GEOMETRIC_REPRESENTATION_CONTEXT(3)
GLOBAL_UNCERTAINTY_ASSIGNED_CONTEXT((#593))
GLOBAL_UNIT_ASSIGNED_CONTEXT((#596,#598,#599))
REPRESENTATION_CONTEXT('','3D')
);
#596=(
LENGTH_UNIT()
NAMED_UNIT(*)
SI_UNIT(.MILLI.,.METRE.)
);
#597=(
LENGTH_UNIT()
NAMED_UNIT(*)
SI_UNIT($,.METRE.)
);
#598=(
NAMED_UNIT(*)
PLANE_ANGLE_UNIT()
SI_UNIT($,.RADIAN.)
);
#599=(
NAMED_UNIT(*)
SI_UNIT($,.STERADIAN.)
SOLID_ANGLE_UNIT()
);
#600=SHAPE_DEFINITION_REPRESENTATION(#601,#602);
#601=PRODUCT_DEFINITION_SHAPE('',$,#604);
#602=SHAPE_REPRESENTATION('',(#356),#594);
#603=PRODUCT_DEFINITION_CONTEXT('part definition',#608,'design');
#604=PRODUCT_DEFINITION('Untitled','Untitled v5',#605,#603);
#605=PRODUCT_DEFINITION_FORMATION('',$,#610);
#606=PRODUCT_RELATED_PRODUCT_CATEGORY('Untitled v5','Untitled v5',(#610));
#607=APPLICATION_PROTOCOL_DEFINITION('international standard',
'automotive_design',2009,#608);
#608=APPLICATION_CONTEXT(
'Core Data for Automotive Mechanical Design Process');
#609=PRODUCT_CONTEXT('part definition',#608,'mechanical');
#610=PRODUCT('Untitled','Untitled v5',$,(#609));
#611=PRESENTATION_STYLE_ASSIGNMENT((#612));
#612=SURFACE_STYLE_USAGE(.BOTH.,#613);
#613=SURFACE_SIDE_STYLE('',(#614));
#614=SURFACE_STYLE_FILL_AREA(#615);
#615=FILL_AREA_STYLE('Steel - Satin',(#616));
#616=FILL_AREA_STYLE_COLOUR('Steel - Satin',#617);
#617=COLOUR_RGB('Steel - Satin',0.627450980392157,0.627450980392157,0.627450980392157);
ENDSEC;
END-ISO-10303-21;
