0
SECTION
2
HEADER
9
$INSUNITS
70
4
9
$ACADVER
1
AC1014
9
$HANDSEED
5
FFFF
0
ENDSEC
0
SECTION
2
TABLES
0
TABLE
2
VPORT
5
8
100
AcDbSymbolTable
0
ENDTAB
0
TABLE
2
LTYPE
5
5
100
AcDbSymbolTable
0
LTYPE
5
14
100
AcDbSymbolTableRecord
100
AcDbLinetypeTableRecord
2
BYBLOCK
70
0
0
LTYPE
5
15
100
AcDbSymbolTableRecord
100
AcDbLinetypeTableRecord
2
BYLAYER
70
0
0
ENDTAB
0
TABLE
2
LAYER
5
2
100
AcDbSymbolTable
70
2
0
LAYER
5
50
100
AcDbSymbolTableRecord
100
AcDbLayerTableRecord
2
0
70
0
6
CONTINUOUS
0
ENDTAB
0
TABLE
2
STYLE
5
3
100
AcDbSymbolTable
70
1
0
STYLE
5
11
100
AcDbSymbolTableRecord
100
AcDbTextStyleTableRecord
2
STANDARD
70
0
0
ENDTAB
0
TABLE
2
VIEW
5
6
100
AcDbSymbolTable
70
0
0
ENDTAB
0
TABLE
2
UCS
5
7
100
AcDbSymbolTable
70
0
0
ENDTAB
0
TABLE
2
APPID
5
9
100
AcDbSymbolTable
70
2
0
APPID
5
12
100
AcDbSymbolTableRecord
100
AcDbRegAppTableRecord
2
ACAD
70
0
0
ENDTAB
0
TABLE
2
DIMSTYLE
5
A
100
AcDbSymbolTable
70
1
0
ENDTAB
0
TABLE
2
BLOCK_RECORD
5
1
100
AcDbSymbolTable
70
1
0
BLOCK_RECORD
5
1F
100
AcDbSymbolTableRecord
100
AcDbBlockTableRecord
2
*MODEL_SPACE
0
BLOCK_RECORD
5
1B
100
AcDbSymbolTableRecord
100
AcDbBlockTableRecord
2
*PAPER_SPACE
0
ENDTAB
0
ENDSEC
0
SECTION
2
BLOCKS
0
BLOCK
5
20
100
AcDbEntity
100
AcDbBlockBegin
2
*MODEL_SPACE
0
ENDBLK
5
21
100
AcDbEntity
100
AcDbBlockEnd
0
BLOCK
5
1C
100
AcDbEntity
100
AcDbBlockBegin
2
*PAPER_SPACE
0
ENDBLK
5
1D
100
AcDbEntity
100
AcDbBlockEnd
0
ENDSEC
0
SECTION
2
ENTITIES
0
LINE
5
100
100
AcDbEntity
8
0
100
AcDbLine
10
-1942.4311464436673
20
-129.24939924072936
30
0
11
-1942.3670800720461
21
-129.24939924072936
31
0
0
LINE
5
101
100
AcDbEntity
8
0
100
AcDbLine
10
-1942.3670800720461
20
-129.24939924072936
30
0
11
-1914.0193646055034
21
-129.24939924072936
31
0
0
LINE
5
102
100
AcDbEntity
8
0
100
AcDbLine
10
-1914.0193646055034
20
-157.19239924072937
30
0
11
-1914.0193646055034
21
-129.24939924072936
31
0
0
LINE
5
103
100
AcDbEntity
8
0
100
AcDbLine
10
-1902.0193646055041
20
-157.19239924072937
30
0
11
-1914.0193646055034
21
-157.19239924072937
31
0
0
LINE
5
104
100
AcDbEntity
8
0
100
AcDbLine
10
-1902.0193646055041
20
-129.24939924072936
30
0
11
-1902.0193646055041
21
-157.19239924072937
31
0
0
LINE
5
105
100
AcDbEntity
8
0
100
AcDbLine
10
-1902.0193646055041
20
-129.24939924072936
30
0
11
-1873.6075827673401
21
-129.24939924072936
31
0
0
LINE
5
106
100
AcDbEntity
8
0
100
AcDbLine
10
-1873.6716491389611
20
-129.24939924072936
30
0
11
-1873.6075827673401
21
-129.24939924072936
31
0
0
ARC
5
107
100
AcDbEntity
8
0
100
AcDbCircle
10
-1908.0193646055036
20
77.922593176753168
30
0
40
210
100
AcDbArc
50
-80.586375913939577
51
0
0
LINE
5
108
100
AcDbEntity
8
0
100
AcDbLine
10
-1698.0193646055036
20
77.922593176753168
30
0
11
-1658.0193646055036
21
77.922593176753168
31
0
0
LINE
5
109
100
AcDbEntity
8
0
100
AcDbLine
10
-1658.0193646055036
20
77.922593176753168
30
0
11
-1695.6336401092515
21
-34.018131551935618
31
0
0
ARC
5
110
100
AcDbEntity
8
0
100
AcDbCircle
10
-1316.4669888360595
20
-161.42555112502555
30
0
40
399.99999999999966
100
AcDbArc
50
161.42664335873002
51
201.80168115156624
0
LINE
5
111
100
AcDbEntity
8
0
100
AcDbLine
10
-1687.8569608134953
20
-309.9835825962316
30
0
11
-1683.0193646055036
21
-322.07740682324675
31
0
0
LINE
5
112
100
AcDbEntity
8
0
100
AcDbLine
10
-1683.0193646055036
20
-334.0774068232468
30
0
11
-1683.0193646055036
21
-322.07740682324675
31
0
0
LINE
5
113
100
AcDbEntity
8
0
100
AcDbLine
10
-1723.0193646055036
20
-334.0774068232468
30
0
11
-1683.0193646055036
21
-334.0774068232468
31
0
0
LINE
5
114
100
AcDbEntity
8
0
100
AcDbLine
10
-1723.0193646055036
20
-322.07740682324675
30
0
11
-1723.0193646055036
21
-334.0774068232468
31
0
0
ARC
5
115
100
AcDbEntity
8
0
100
AcDbCircle
10
-1908.0193646055036
20
-374.24458261504367
30
0
40
192.21450057186698
100
AcDbArc
50
15.747641656715075
51
79.686850037182012
0
LINE
5
116
100
AcDbEntity
8
0
100
AcDbLine
10
-1873.6075827673401
20
-185.1355043009265
30
0
11
-1942.4311464436673
21
-185.1355043009265
31
0
0
ARC
5
117
100
AcDbEntity
8
0
100
AcDbCircle
10
-1908.0193646055036
20
-374.24458261504367
30
0
40
192.21450057186703
100
AcDbArc
50
100.31314996281806
51
164.2523583432849
0
LINE
5
118
100
AcDbEntity
8
0
100
AcDbLine
10
-2093.0193646055036
20
-322.07740682324675
30
0
11
-2093.0193646055036
21
-334.0774068232468
31
0
0
LINE
5
119
100
AcDbEntity
8
0
100
AcDbLine
10
-2093.0193646055036
20
-334.0774068232468
30
0
11
-2133.0193646055036
21
-334.0774068232468
31
0
0
LINE
5
120
100
AcDbEntity
8
0
100
AcDbLine
10
-2133.0193646055036
20
-334.0774068232468
30
0
11
-2133.0193646055036
21
-322.07740682324675
31
0
0
LINE
5
121
100
AcDbEntity
8
0
100
AcDbLine
10
-2133.0193646055036
20
-322.07740682324675
30
0
11
-2128.1817683975119
21
-309.98358259623194
31
0
0
ARC
5
122
100
AcDbEntity
8
0
100
AcDbCircle
10
-2499.5717403749491
20
-161.42555112502487
30
0
40
400.00000000000222
100
AcDbArc
50
-21.801681151566331
51
18.573356641269683
0
LINE
5
123
100
AcDbEntity
8
0
100
AcDbLine
10
-2120.4050891017541
20
-34.01813155193615
30
0
11
-2158.0193646055031
21
77.922593176753168
31
0
0
LINE
5
124
100
AcDbEntity
8
0
100
AcDbLine
10
-2158.0193646055031
20
77.922593176753168
30
0
11
-2118.0193646055036
21
77.922593176753168
31
0
0
ARC
5
125
100
AcDbEntity
8
0
100
AcDbCircle
10
-1908.0193646055036
20
77.922593176753168
30
0
40
210
100
AcDbArc
50
180
51
260.58637591393961
0
LWPOLYLINE
5
126
100
AcDbEntity
8
0
100
AcDbPolyline
90
24
70
1
43
0.0
10
-2232.5558476551219
20
-40.801428847619405
10
-2194.9415721513742
20
71.139295881069415
10
-2234.9415721513742
20
71.139295881069444
42
-0.36687043082895615
10
-2410.5938566848317
20
-136.03269653641314
10
-2479.2892876179162
20
-136.03269653641317
42
-0.36687043082895648
10
-2654.9415721513742
20
71.139295881069415
10
-2694.9415721513742
20
71.139295881069344
10
-2657.3272966476247
20
-40.801428847619903
42
-0.17801475827901911
10
-2665.1039759433825
20
-316.76687989191572
10
-2669.9415721513742
20
-328.86070411893053
10
-2669.9415721513742
20
-340.86070411893053
10
-2629.9415721513742
20
-340.86070411893053
10
-2629.9415721513742
20
-328.86070411893053
42
-0.28645834419025945
10
-2479.3533539895379
20
-191.91880159661025
10
-2450.9415721513737
20
-191.91880159661025
10
-2450.9415721513737
20
-163.97580159661027
10
-2438.9415721513747
20
-163.97580159661027
10
-2438.9415721513747
20
-191.91880159661025
10
-2410.5297903132105
20
-191.91880159661031
42
-0.28645834419025945
10
-2259.9415721513742
20
-328.86070411893053
10
-2259.9415721513742
20
-340.86070411893053
10
-2219.9415721513742
20
-340.86070411893053
10
-2219.9415721513742
20
-328.86070411893053
10
-2224.779168359365
20
-316.76687989191493
42
-0.17801475827902025
0
LWPOLYLINE
5
127
100
AcDbEntity
8
0
100
AcDbPolyline
90
16
70
1
43
0.0
10
-2084.3314297943025
20
-603.74432052211421
10
-2084.3314297943025
20
-591.74432052211432
10
-2124.3314297943011
20
-591.74432052211432
42
-0.39867564148226808
10
-1905.4114440215633
20
-372.82433474941462
10
-1905.4114440215633
20
-412.82433474941462
10
-1893.4114440215635
20
-412.82433474941462
10
-1893.4114440215635
20
-372.82433474941558
42
-0.39867564148226808
10
-1674.4914582488636
20
-591.74432052215354
10
-1714.4914582488636
20
-591.74432052215354
10
-1714.4914582488636
20
-603.74432052215343
10
-1674.4914582488645
20
-603.74432052215332
42
-0.39867564148226842
10
-1893.4114440216026
20
-822.66430629485342
10
-1893.4114440216026
20
-782.66430629485342
10
-1905.4114440216026
20
-782.66430629485342
10
-1905.4114440216026
20
-822.66430629485239
42
-0.39867564148226842
10
-2124.3314297943025
20
-603.74432052211421
0
LWPOLYLINE
5
128
100
AcDbEntity
8
0
100
AcDbPolyline
90
12
70
1
43
0.0
10
-2189.7357682322909
20
-437.91056908919404
10
-2220.7745642968948
20
-437.91056908919404
10
-2220.7745642968948
20
-425.91056908919415
10
-2189.7357682322909
20
-425.91056908919415
10
-2189.7357682322909
20
-394.87177302458969
10
-2177.7357682322909
20
-394.87177302458969
10
-2177.7357682322909
20
-425.91056908919415
10
-2146.6969721676869
20
-425.91056908919415
10
-2146.6969721676869
20
-437.91056908919404
10
-2177.7357682322909
20
-437.91056908919404
10
-2177.7357682322909
20
-468.94936515379817
10
-2189.7357682322909
20
-468.94936515379817
0
CIRCLE
5
129
100
AcDbEntity
8
0
100
AcDbCircle
10
-2183.7357682322909
20
-431.91056908919393
30
0
40
32.499999999999986
0
ENDSEC
0
SECTION
2
OBJECTS
0
DICTIONARY
5
C
100
AcDbDictionary
3
ACAD_GROUP
350
D
3
ACAD_MLINESTYLE
350
17
0
DICTIONARY
5
D
100
AcDbDictionary
0
DICTIONARY
5
1A
330
C
100
AcDbDictionary
0
DICTIONARY
5
17
100
AcDbDictionary
0
ENDSEC
0
EOF
