0
SECTION
2
HEADER
9
$INSUNITS
70
4
9
$ACADVER
1
AC1014
9
$HANDSEED
5
FFFF
0
ENDSEC
0
SECTION
2
TABLES
0
TABLE
2
VPORT
5
8
100
AcDbSymbolTable
0
ENDTAB
0
TABLE
2
LTYPE
5
5
100
AcDbSymbolTable
0
LTYPE
5
14
100
AcDbSymbolTableRecord
100
AcDbLinetypeTableRecord
2
BYBLOCK
70
0
0
LTYPE
5
15
100
AcDbSymbolTableRecord
100
AcDbLinetypeTableRecord
2
BYLAYER
70
0
0
ENDTAB
0
TABLE
2
LAYER
5
2
100
AcDbSymbolTable
70
2
0
LAYER
5
50
100
AcDbSymbolTableRecord
100
AcDbLayerTableRecord
2
0
70
0
6
CONTINUOUS
0
ENDTAB
0
TABLE
2
STYLE
5
3
100
AcDbSymbolTable
70
1
0
STYLE
5
11
100
AcDbSymbolTableRecord
100
AcDbTextStyleTableRecord
2
STANDARD
70
0
0
ENDTAB
0
TABLE
2
VIEW
5
6
100
AcDbSymbolTable
70
0
0
ENDTAB
0
TABLE
2
UCS
5
7
100
AcDbSymbolTable
70
0
0
ENDTAB
0
TABLE
2
APPID
5
9
100
AcDbSymbolTable
70
2
0
APPID
5
12
100
AcDbSymbolTableRecord
100
AcDbRegAppTableRecord
2
ACAD
70
0
0
ENDTAB
0
TABLE
2
DIMSTYLE
5
A
100
AcDbSymbolTable
70
1
0
ENDTAB
0
TABLE
2
BLOCK_RECORD
5
1
100
AcDbSymbolTable
70
1
0
BLOCK_RECORD
5
1F
100
AcDbSymbolTableRecord
100
AcDbBlockTableRecord
2
*MODEL_SPACE
0
BLOCK_RECORD
5
1B
100
AcDbSymbolTableRecord
100
AcDbBlockTableRecord
2
*PAPER_SPACE
0
ENDTAB
0
ENDSEC
0
SECTION
2
BLOCKS
0
BLOCK
5
20
100
AcDbEntity
100
AcDbBlockBegin
2
*MODEL_SPACE
0
ENDBLK
5
21
100
AcDbEntity
100
AcDbBlockEnd
0
BLOCK
5
1C
100
AcDbEntity
100
AcDbBlockBegin
2
*PAPER_SPACE
0
ENDBLK
5
1D
100
AcDbEntity
100
AcDbBlockEnd
0
ENDSEC
0
SECTION
2
ENTITIES
0
LWPOLYLINE
5
100
100
AcDbEntity
8
0
100
AcDbPolyline
90
4
70
1
43
0.0
10
421.70090432988417
20
-357.26638908684754
10
121.70090432988417
20
-357.26638908684748
10
121.70090432988417
20
-649.26638908684754
10
421.70090432988417
20
-649.26638908684754
0
LWPOLYLINE
5
101
100
AcDbEntity
8
0
100
AcDbPolyline
90
14
70
1
43
0.0
10
1629.440455881183
20
-645.62984472434346
10
1629.440455881183
20
-365.62984472434334
10
1629.440455881183
20
-353.62984472434334
10
1599.440455881183
20
-353.62984472434334
10
1599.440455881183
20
-365.62984472434334
10
1064.4404558811825
20
-365.62984472434334
10
1064.4404558811827
20
-353.62984472434334
10
1034.4404558811827
20
-353.62984472434334
10
1034.4404558811827
20
-365.62984472434334
10
499.44045588118257
20
-365.62984472434334
10
499.44045588118257
20
-353.62984472434334
10
469.44045588118257
20
-353.62984472434334
10
469.44045588118263
20
-365.62984472434334
10
469.44045588118257
20
-645.62984472434346
0
LWPOLYLINE
5
102
100
AcDbEntity
8
0
100
AcDbPolyline
90
14
70
1
43
0.0
10
370.77381158731941
20
182.05540897475618
42
-0.41421351392626821
10
440.77380000877241
20
112.05540897475728
10
440.7738000087727
20
-247.94459102524272
10
428.7738000087727
20
-247.94459102524272
10
428.7738000087727
20
-277.94459102524274
10
152.77380000877315
20
-277.94459102524274
10
152.77380000877315
20
-247.94459102524272
10
140.77380000877312
20
-247.94459102524272
10
140.77380000877315
20
112.05543544000705
42
-0.41421361081992319
10
210.77381158732004
20
182.05543544000619
10
275.77381158731981
20
182.05542468849836
10
275.77381158731981
20
170.05542220738121
10
305.77381158731981
20
170.05542220738121
10
305.77381158731981
20
182.05541972626401
0
CIRCLE
5
103
100
AcDbEntity
8
0
100
AcDbCircle
10
289.90808663401538
20
-100.88888523393396
30
0
40
55
0
LWPOLYLINE
5
104
100
AcDbEntity
8
0
100
AcDbPolyline
90
12
70
1
43
0.0
10
469.34008098816975
20
-260.05422976173475
10
469.34008098816952
20
117.88445327796303
42
-0.41421356237309176
10
527.34008098816867
20
175.88445327796273
10
687.34008098816787
20
175.88445327796217
42
-0.41421356237309104
10
745.34008098816662
20
117.8844532779631
10
745.34008098816685
20
-260.05422976173486
10
725.34008098816673
20
-260.05422976173486
10
725.34008098816673
20
117.8844532779631
42
0.41421356237309337
10
687.3400809881673
20
155.88445327796285
10
527.34008098816867
20
155.88445327796279
42
0.41421356237309004
10
489.34008098816935
20
117.88445327796303
10
489.34008098816935
20
-260.0542297617348
0
LWPOLYLINE
5
105
100
AcDbEntity
8
0
100
AcDbPolyline
90
4
70
1
43
0.0
10
409.20090432988417
20
-361.76638908684754
10
134.20090432988417
20
-361.76638908684754
10
134.20090432988417
20
-636.76638908684754
10
409.20090432988417
20
-636.76638908684754
0
LWPOLYLINE
5
106
100
AcDbEntity
8
0
100
AcDbPolyline
90
9
70
1
43
0.0
10
547.31599464872579
20
-120.84022964081765
42
-0.41421361081992353
10
605.31600424237888
20
-62.840229640818791
10
634.78190956457627
20
-62.840234514709664
42
-0.33017364669308685
10
619.25708153028745
20
-80.902633454180062
10
587.00579395931152
20
-88.216249847512643
42
0.31923670915036917
10
571.55365199890036
20
-105.49054563708644
10
568.1831213361769
20
-135.5244897110727
42
-0.38184700509119057
10
548.30788643509391
20
-153.29401047405042
10
547.31599464872579
20
-153.29401047405042
0
LWPOLYLINE
5
107
100
AcDbEntity
8
0
100
AcDbPolyline
90
9
70
1
43
0.0
10
670.05745721488097
20
-84.621820586275732
10
666.68692655215727
20
-114.65576466026204
42
-0.31923670915036956
10
651.23478459174657
20
-131.93006044983591
10
618.98349702077087
20
-139.24367684316834
42
0.33017364669308569
10
603.45866898648171
20
-157.30607578263871
10
632.92457430867933
20
-157.3060806565297
42
0.41421361081992375
10
690.92458390233219
20
-99.306080656530867
10
690.92458390233219
20
-66.852299823298097
10
689.93269211596441
20
-66.852299823298097
42
0.38184700509119129
0
LINE
5
108
100
AcDbEntity
8
0
100
AcDbLine
10
1640.3799288627658
20
162.69856001866992
30
0
11
1640.4439952343869
21
162.69856001866992
31
0
0
LINE
5
109
100
AcDbEntity
8
0
100
AcDbLine
10
929.37858132590588
20
-334.36960150903758
30
0
11
929.37858132590588
21
-675.87358488641576
31
0
0
LINE
5
110
100
AcDbEntity
8
0
100
AcDbLine
10
899.37858132590588
20
-334.36960150903758
30
0
11
899.37858132590588
21
-675.87358488641576
31
0
0
LINE
5
111
100
AcDbEntity
8
0
100
AcDbLine
10
919.37858132590588
20
-334.36960150903758
30
0
11
919.37858132590588
21
-675.87358488641576
31
0
0
LINE
5
112
100
AcDbEntity
8
0
100
AcDbLine
10
939.37858132590588
20
-334.36960150903758
30
0
11
939.37858132590588
21
-675.87358488641576
31
0
0
LINE
5
113
100
AcDbEntity
8
0
100
AcDbLine
10
959.37858132590588
20
-334.36960150903758
30
0
11
959.37858132590588
21
-675.87358488641576
31
0
0
LINE
5
114
100
AcDbEntity
8
0
100
AcDbLine
10
859.37858132590588
20
-334.36960150903758
30
0
11
859.37858132590588
21
-675.87358488641576
31
0
0
LINE
5
115
100
AcDbEntity
8
0
100
AcDbLine
10
869.37858132590588
20
-334.36960150903758
30
0
11
869.37858132590588
21
-675.87358488641576
31
0
0
LINE
5
116
100
AcDbEntity
8
0
100
AcDbLine
10
949.37858132590588
20
-334.36960150903758
30
0
11
949.37858132590588
21
-675.87358488641576
31
0
0
LINE
5
117
100
AcDbEntity
8
0
100
AcDbLine
10
969.37858132590588
20
-334.36960150903758
30
0
11
969.37858132590588
21
-675.87358488641576
31
0
0
LINE
5
118
100
AcDbEntity
8
0
100
AcDbLine
10
879.37858132590588
20
-334.36960150903758
30
0
11
879.37858132590588
21
-675.87358488641576
31
0
0
LINE
5
119
100
AcDbEntity
8
0
100
AcDbLine
10
909.37858132590588
20
-334.36960150903758
30
0
11
909.37858132590588
21
-675.87358488641576
31
0
0
LINE
5
120
100
AcDbEntity
8
0
100
AcDbLine
10
889.37858132590588
20
-334.36960150903758
30
0
11
889.37858132590588
21
-675.87358488641576
31
0
0
LINE
5
121
100
AcDbEntity
8
0
100
AcDbLine
10
1139.378581325906
20
-334.36960150903758
30
0
11
1139.378581325906
21
-675.87358488641576
31
0
0
LINE
5
122
100
AcDbEntity
8
0
100
AcDbLine
10
1159.378581325906
20
-334.36960150903758
30
0
11
1159.378581325906
21
-675.87358488641576
31
0
0
LINE
5
123
100
AcDbEntity
8
0
100
AcDbLine
10
1149.378581325906
20
-334.36960150903758
30
0
11
1149.378581325906
21
-675.87358488641576
31
0
0
LINE
5
124
100
AcDbEntity
8
0
100
AcDbLine
10
1209.378581325906
20
-334.36960150903758
30
0
11
1209.378581325906
21
-675.87358488641576
31
0
0
LINE
5
125
100
AcDbEntity
8
0
100
AcDbLine
10
1219.378581325906
20
-334.36960150903758
30
0
11
1219.378581325906
21
-675.87358488641576
31
0
0
LINE
5
126
100
AcDbEntity
8
0
100
AcDbLine
10
1229.378581325906
20
-334.36960150903758
30
0
11
1229.378581325906
21
-675.87358488641576
31
0
0
LINE
5
127
100
AcDbEntity
8
0
100
AcDbLine
10
1129.378581325906
20
-334.36960150903758
30
0
11
1129.378581325906
21
-675.87358488641576
31
0
0
LINE
5
128
100
AcDbEntity
8
0
100
AcDbLine
10
1239.378581325906
20
-334.36960150903758
30
0
11
1239.378581325906
21
-675.87358488641576
31
0
0
LINE
5
129
100
AcDbEntity
8
0
100
AcDbLine
10
1169.378581325906
20
-334.36960150903758
30
0
11
1169.378581325906
21
-675.87358488641576
31
0
0
LINE
5
130
100
AcDbEntity
8
0
100
AcDbLine
10
1179.378581325906
20
-334.36960150903758
30
0
11
1179.378581325906
21
-675.87358488641576
31
0
0
LINE
5
131
100
AcDbEntity
8
0
100
AcDbLine
10
1199.378581325906
20
-334.36960150903758
30
0
11
1199.378581325906
21
-675.87358488641576
31
0
0
LINE
5
132
100
AcDbEntity
8
0
100
AcDbLine
10
1189.378581325906
20
-334.36960150903758
30
0
11
1189.378581325906
21
-675.87358488641576
31
0
0
ENDSEC
0
SECTION
2
OBJECTS
0
DICTIONARY
5
C
100
AcDbDictionary
3
ACAD_GROUP
350
D
3
ACAD_MLINESTYLE
350
17
0
DICTIONARY
5
D
100
AcDbDictionary
0
DICTIONARY
5
1A
330
C
100
AcDbDictionary
0
DICTIONARY
5
17
100
AcDbDictionary
0
ENDSEC
0
EOF
