0
SECTION
2
HEADER
9
$INSUNITS
70
4
9
$ACADVER
1
AC1014
9
$HANDSEED
5
FFFF
0
ENDSEC
0
SECTION
2
TABLES
0
TABLE
2
VPORT
5
8
100
AcDbSymbolTable
0
ENDTAB
0
TABLE
2
LTYPE
5
5
100
AcDbSymbolTable
0
LTYPE
5
14
100
AcDbSymbolTableRecord
100
AcDbLinetypeTableRecord
2
BYBLOCK
70
0
0
LTYPE
5
15
100
AcDbSymbolTableRecord
100
AcDbLinetypeTableRecord
2
BYLAYER
70
0
0
ENDTAB
0
TABLE
2
LAYER
5
2
100
AcDbSymbolTable
70
2
0
LAYER
5
50
100
AcDbSymbolTableRecord
100
AcDbLayerTableRecord
2
0
70
0
6
CONTINUOUS
0
ENDTAB
0
TABLE
2
STYLE
5
3
100
AcDbSymbolTable
70
1
0
STYLE
5
11
100
AcDbSymbolTableRecord
100
AcDbTextStyleTableRecord
2
STANDARD
70
0
0
ENDTAB
0
TABLE
2
VIEW
5
6
100
AcDbSymbolTable
70
0
0
ENDTAB
0
TABLE
2
UCS
5
7
100
AcDbSymbolTable
70
0
0
ENDTAB
0
TABLE
2
APPID
5
9
100
AcDbSymbolTable
70
2
0
APPID
5
12
100
AcDbSymbolTableRecord
100
AcDbRegAppTableRecord
2
ACAD
70
0
0
ENDTAB
0
TABLE
2
DIMSTYLE
5
A
100
AcDbSymbolTable
70
1
0
ENDTAB
0
TABLE
2
BLOCK_RECORD
5
1
100
AcDbSymbolTable
70
1
0
BLOCK_RECORD
5
1F
100
AcDbSymbolTableRecord
100
AcDbBlockTableRecord
2
*MODEL_SPACE
0
BLOCK_RECORD
5
1B
100
AcDbSymbolTableRecord
100
AcDbBlockTableRecord
2
*PAPER_SPACE
0
ENDTAB
0
ENDSEC
0
SECTION
2
BLOCKS
0
BLOCK
5
20
100
AcDbEntity
100
AcDbBlockBegin
2
*MODEL_SPACE
0
ENDBLK
5
21
100
AcDbEntity
100
AcDbBlockEnd
0
BLOCK
5
1C
100
AcDbEntity
100
AcDbBlockBegin
2
*PAPER_SPACE
0
ENDBLK
5
1D
100
AcDbEntity
100
AcDbBlockEnd
0
ENDSEC
0
SECTION
2
ENTITIES
0
LWPOLYLINE
5
100
100
AcDbEntity
8
0
100
AcDbPolyline
90
22
70
1
43
0.0
10
-73.144715202265516
20
7.7981629563016677
10
-75.567030944610408
20
10.595015909960129
42
-0.41421356237308754
10
-75.435436789284054
20
12.428777884231542
10
-73.078766289239638
20
14.469857678687772
42
0.18886422953399215
10
-56.52706528583284
20
6.1980473920293191
42
-0.38805732683494532
10
-55.344064413005889
20
4.9033230181795266
10
-55.344064413005889
20
1.1189654710987107
10
-53.144064413005893
20
1.1189654710987107
10
-53.144064413005893
20
4.9033230181795098
42
-0.38805732683494881
10
-51.96106354017892
20
6.1980473920293067
42
0.15349429971568462
10
-37.915018971236954
20
12.049598902321662
10
-36.204211293504343
20
10.050262176449547
42
-0.41421356237309248
10
-36.34675490960192
20
8.2173188283043395
10
-39.186023612545675
20
5.7877917590092611
10
-37.755685377736107
20
4.1162258661884286
10
-34.944415467082905
20
6.521794715640854
42
-0.41421356237309565
10
-33.111472118937691
20
6.3792510995432838
10
-31.181403712904277
20
4.1236751526651938
42
-0.40960050240087953
10
-81.215144655413837
20
7.9709182341303997
10
-79.334912425968355
20
9.5993614179927231
42
-0.41421356237310564
10
-77.501150451696802
20
9.4677672626663067
10
-74.807708850386746
20
6.3578671095019947
0
LWPOLYLINE
5
101
100
AcDbEntity
8
0
100
AcDbPolyline
90
16
70
1
43
0.0
10
-1.1999186628198277
20
-0.64633689592914934
10
-1.1999186628198277
20
62.636890629879503
10
-4.0015922982796468
20
62.629673984987022
42
0.41345932094655424
10
-5.2982437257983772
20
61.329678297662511
10
-5.2982437257983639
20
57.62040372120326
10
-7.4982357329374789
20
57.620403721203246
10
-7.498235732937486
20
61.320403721203256
42
0.41421356237309509
10
-8.798235732937485
20
62.620403721203246
10
-11.599918662819828
20
62.620403721203246
10
-11.599918662819828
20
-0.6628238046054058
10
-8.8006219519830253
20
-0.66584907863564524
42
0.4145301351382164
10
-7.4992170084029688
20
0.63415016218473674
10
-7.4992170084029697
20
4.3327444586041164
10
-5.2992170084029668
20
4.3327444586041164
10
-5.2992170084029668
20
0.65366310407085848
42
0.41421356237308693
10
-3.9992170084030025
20
-0.64633689592915822
0
LINE
5
102
100
AcDbEntity
8
0
100
AcDbLine
10
-53.098521580024169
20
44.43867299634482
30
0
11
-53.098521580024155
21
40.154514955216776
31
0
0
LINE
5
103
100
AcDbEntity
8
0
100
AcDbLine
10
-53.098521580024155
20
40.154514955216776
30
0
11
-55.298502942798002
21
40.154514955216776
31
0
0
LINE
5
104
100
AcDbEntity
8
0
100
AcDbLine
10
-55.298502942798002
20
40.154514955216776
30
0
11
-55.29850294279796
21
44.423408361355186
31
0
0
ARC
5
105
100
AcDbEntity
8
0
100
AcDbCircle
10
-55.948502942797958
20
44.423408361355186
30
0
40
0.65000000000000391
100
AcDbArc
50
0
51
98.396172884556378
0
ARC
5
106
100
AcDbEntity
8
0
100
AcDbCircle
10
-52.448521584264654
20
44.43867299634482
30
0
40
0.64999999619097959
100
AcDbArc
50
82.103597633021977
51
180
0
ARC
5
107
100
AcDbEntity
8
0
100
AcDbCircle
10
-61.595430743446457
20
42.055468305012347
30
0
40
0.65000000000001434
100
AcDbArc
50
127.10359758279291
51
224.99999923705872
0
ARC
5
108
100
AcDbEntity
8
0
100
AcDbCircle
10
-64.059497579416401
20
39.569814027455607
30
0
40
0.65000000000000746
100
AcDbArc
50
44.999999999999112
51
143.39617279280085
0
LINE
5
109
100
AcDbEntity
8
0
100
AcDbLine
10
-60.581314696822872
20
37.010869954129163
30
0
11
-63.59987817164513
21
40.029433435226863
31
0
0
LINE
5
110
100
AcDbEntity
8
0
100
AcDbLine
10
-59.025692956721471
20
38.566491694230571
30
0
11
-60.581314696822872
21
37.010869954129163
31
0
0
LINE
5
111
100
AcDbEntity
8
0
100
AcDbLine
10
-62.055050158457313
20
41.595848902241926
30
0
11
-59.025692956721471
21
38.566491694230571
31
0
0
ARC
5
112
100
AcDbEntity
8
0
100
AcDbCircle
10
-66.378092049583614
20
33.902446610029024
30
0
40
0.64999999999999791
100
AcDbArc
50
172.10359758279361
51
269.99999930238084
0
ARC
5
113
100
AcDbEntity
8
0
100
AcDbCircle
10
-66.362827422508047
20
30.402465251106015
30
0
40
0.64999999999999947
100
AcDbArc
50
89.999999999996234
51
188.39617325678765
0
LINE
5
114
100
AcDbEntity
8
0
100
AcDbLine
10
-62.093934013913611
20
31.052465241213941
30
0
11
-66.362827422508005
21
31.052465251106014
31
0
0
LINE
5
115
100
AcDbEntity
8
0
100
AcDbLine
10
-62.093934013913625
20
33.252446603987785
30
0
11
-62.093934013913611
21
31.052465241213941
31
0
0
LINE
5
116
100
AcDbEntity
8
0
100
AcDbLine
10
-66.378092057497852
20
33.252446613879869
30
0
11
-62.093934013913625
21
33.252446603987785
31
0
0
ARC
5
117
100
AcDbEntity
8
0
100
AcDbCircle
10
-63.994887363587949
20
24.755537440657207
30
0
40
0.65000000000000013
100
AcDbArc
50
217.10359758279452
51
314.99999968727491
0
ARC
5
118
100
AcDbEntity
8
0
100
AcDbCircle
10
-61.509233088608497
20
22.291470614487579
30
0
40
0.64999999999999492
100
AcDbArc
50
134.99999999999383
51
233.39617348760905
0
LINE
5
119
100
AcDbEntity
8
0
100
AcDbLine
10
-58.950289012826012
20
25.769653487189071
30
0
11
-61.968852496379697
21
22.751090022258879
31
0
0
LINE
5
120
100
AcDbEntity
8
0
100
AcDbLine
10
-60.50591075292742
20
27.325275227290476
30
0
11
-58.950289012826012
21
25.769653487189071
31
0
0
LINE
5
121
100
AcDbEntity
8
0
100
AcDbLine
10
-63.535267963394766
20
24.295918035446743
30
0
11
-60.50591075292742
21
27.325275227290476
31
0
0
ARC
5
122
100
AcDbEntity
8
0
100
AcDbCircle
10
-55.841865668604676
20
19.972876134520082
30
0
40
0.6500000000000018
100
AcDbArc
50
-97.896402417205721
51
0
0
ARC
5
123
100
AcDbEntity
8
0
100
AcDbCircle
10
-52.341884312258841
20
19.988140771396012
30
0
40
0.65000000000000391
100
AcDbArc
50
180
51
278.39617335003879
0
LINE
5
124
100
AcDbEntity
8
0
100
AcDbLine
10
-52.99188429991078
20
24.257034170098322
30
0
11
-52.991884312258847
21
19.988140771396008
31
0
0
LINE
5
125
100
AcDbEntity
8
0
100
AcDbLine
10
-55.191865662684627
20
24.257034170098322
30
0
11
-52.99188429991078
21
24.257034170098322
31
0
0
LINE
5
126
100
AcDbEntity
8
0
100
AcDbLine
10
-55.19186567503283
20
19.972876136406189
30
0
11
-55.191865662684627
21
24.257034170098322
31
0
0
ARC
5
127
100
AcDbEntity
8
0
100
AcDbCircle
10
-46.694956499232909
20
22.356080820515665
30
0
40
0.65000000000000058
100
AcDbArc
50
-52.896402417195894
51
45.000000458764212
0
ARC
5
128
100
AcDbEntity
8
0
100
AcDbCircle
10
-44.230889675640405
20
24.841735105295534
30
0
40
0.64999999999999181
100
AcDbArc
50
224.99999999999909
51
323.39617292467898
0
LINE
5
129
100
AcDbEntity
8
0
100
AcDbLine
10
-47.709072545885917
20
27.400679171185935
30
0
11
-44.690509083411662
21
24.382115697524291
31
0
0
LINE
5
130
100
AcDbEntity
8
0
100
AcDbLine
10
-49.264694285987318
20
25.845057431084527
30
0
11
-47.709072545885917
21
27.400679171185935
31
0
0
LINE
5
131
100
AcDbEntity
8
0
100
AcDbLine
10
-46.235337096599636
20
22.815700230509233
30
0
11
-49.264694285987318
21
25.845057431084527
31
0
0
ARC
5
132
100
AcDbEntity
8
0
100
AcDbCircle
10
-41.912295193095723
20
30.509102515498931
30
0
40
0.64999999999999514
100
AcDbArc
50
-7.8964024171987921
51
90.000000393441468
0
ARC
5
133
100
AcDbEntity
8
0
100
AcDbCircle
10
-41.927559832548802
20
34.009083881645104
30
0
40
0.64999999999999947
100
AcDbArc
50
-90
51
8.3961724606938652
0
LINE
5
134
100
AcDbEntity
8
0
100
AcDbLine
10
-46.196453228795171
20
33.35908388410116
30
0
11
-41.927559832548802
21
33.359083881645105
31
0
0
LINE
5
135
100
AcDbEntity
8
0
100
AcDbLine
10
-46.196453228795164
20
31.159102521327316
30
0
11
-46.196453228795171
21
33.35908388410116
31
0
0
LINE
5
136
100
AcDbEntity
8
0
100
AcDbLine
10
-41.912295197559175
20
31.159102518871158
30
0
11
-46.196453228795164
21
31.159102521327316
31
0
0
ARC
5
137
100
AcDbEntity
8
0
100
AcDbCircle
10
-44.29549987909126
20
39.656011684870805
30
0
40
0.64999999999998104
100
AcDbArc
50
37.103597582802799
51
135.00000000856218
0
ARC
5
138
100
AcDbEntity
8
0
100
AcDbCircle
10
-46.781154166448417
20
42.120078518263568
30
0
40
0.65000000000000746
100
AcDbArc
50
-44.999999999998217
51
53.396172229869507
0
LINE
5
139
100
AcDbEntity
8
0
100
AcDbLine
10
-49.34009822988277
20
38.64189563812603
30
0
11
-46.321534758677139
21
41.660459110492319
31
0
0
LINE
5
140
100
AcDbEntity
8
0
100
AcDbLine
10
-47.784476489781369
20
37.086273898024622
30
0
11
-49.34009822988277
21
38.64189563812603
31
0
0
LINE
5
141
100
AcDbEntity
8
0
100
AcDbLine
10
-44.755119291662197
20
40.115631097304373
30
0
11
-47.784476489781369
21
37.086273898024622
31
0
0
LWPOLYLINE
5
142
100
AcDbEntity
8
0
100
AcDbPolyline
90
16
70
1
43
0.0
10
11.250778848470119
20
30.500889293684381
42
-0.41421356237309509
10
9.9507788484701223
20
31.800889293684378
10
9.9507788484701152
20
36.626254253221411
10
7.7507788484701141
20
36.626254253221411
10
7.7507788484701168
20
31.850521214356114
42
-0.41421356237309509
10
6.4507788484701178
20
30.550521214356117
10
3.6507788484701162
20
30.55052121435612
10
3.6507788484701162
20
62.442224585823602
10
6.4507788484701303
20
62.442224585823595
42
-0.41421356237309476
10
7.7507788484701257
20
61.142224585823598
10
7.7507788484701257
20
56.228598686956701
10
9.9507788484701258
20
56.228598686956701
10
9.9507788484701081
20
61.092592665151884
42
-0.41421356237309509
10
11.250778848470107
20
62.392592665151881
10
14.050778848470118
20
62.392592665151895
10
14.050778848470122
20
30.500889293684384
0
ARC
5
143
100
AcDbEntity
8
0
100
AcDbCircle
10
-54.145193621354395
20
32.205774562657552
30
0
40
12.999999999709466
100
AcDbArc
50
53.396172858910766
51
82.103597633022289
0
ARC
5
144
100
AcDbEntity
8
0
100
AcDbCircle
10
-54.145193621354395
20
32.205774562657552
30
0
40
12.9999999998489
100
AcDbArc
50
98.396172884556123
51
127.10359758245906
0
ARC
5
145
100
AcDbEntity
8
0
100
AcDbCircle
10
-54.145193621354395
20
32.205774562657552
30
0
40
12.99999999969714
100
AcDbArc
50
143.39617285851224
51
172.10359758232036
0
ARC
5
146
100
AcDbEntity
8
0
100
AcDbCircle
10
-54.145193621354395
20
32.205774562657552
30
0
40
12.99999999964939
100
AcDbArc
50
188.39617285845657
51
217.10359758245906
0
ARC
5
147
100
AcDbEntity
8
0
100
AcDbCircle
10
-54.145193621354395
20
32.205774562657552
30
0
40
12.9999999996067
100
AcDbArc
50
233.39617285856633
51
262.1035975827939
0
ARC
5
148
100
AcDbEntity
8
0
100
AcDbCircle
10
-54.145193621354395
20
32.205774562657552
30
0
40
12.999999999594113
100
AcDbArc
50
278.39617285877688
51
307.10359758312916
0
ARC
5
149
100
AcDbEntity
8
0
100
AcDbCircle
10
-54.145193621354395
20
32.205774562657552
30
0
40
12.99999999961898
100
AcDbArc
50
323.39617285896497
51
352.10359758326786
0
ARC
5
150
100
AcDbEntity
8
0
100
AcDbCircle
10
-54.145193621354395
20
32.205774562657552
30
0
40
12.999999999666777
100
AcDbArc
50
8.3961728590204725
51
37.103597583129236
0
LWPOLYLINE
5
151
100
AcDbEntity
8
0
100
AcDbPolyline
90
22
70
1
43
0.0
10
-26.063094211362014
20
55.169564471107677
10
-28.318670158240138
20
53.239496065074263
42
0.41421356237309048
10
-28.461213774337708
20
51.406552716929028
10
-26.055644924885272
20
48.595282806275826
10
-27.727210817706105
20
47.164944571466243
10
-30.156737887001199
20
50.004213274410027
42
0.41421356237308871
10
-31.989681235146389
20
50.146756890507589
10
-33.989017961018476
20
48.435949212775
42
-0.15349429971568423
10
-28.137466450726155
20
34.389904643833042
42
0.38805732683495936
10
-26.842742076876331
20
33.206903771006054
10
-23.058384529795546
20
33.206903771006061
10
-23.058384529795553
20
31.006903771006066
10
-26.84274207687637
20
31.006903771006058
42
0.38805732683494398
10
-28.137466450726144
20
29.823902898179124
42
-0.18886422953399237
10
-36.409276737384609
20
13.272201894772312
10
-34.368196942928392
20
10.915531394727871
42
0.41421356237309881
10
-32.534434968656932
20
10.783937239401546
10
-29.737582014998516
20
13.206252981746422
10
-28.297286168198838
20
11.543259333625198
10
-31.407186321363206
20
8.8498177323151026
42
0.41421356237309387
10
-31.538780476689556
20
7.0160557580435885
10
-29.910337292827258
20
5.1358235285980802
42
0.4096005024008797
0
LWPOLYLINE
5
152
100
AcDbEntity
8
0
100
AcDbPolyline
90
22
70
1
43
0.0
10
-77.10898352980449
20
60.287873972649933
10
-75.178915123771105
20
58.032298025771816
42
0.41421356237308898
10
-73.34597177562587
20
57.889754409674225
10
-70.534701864972661
20
60.295323259126661
10
-69.104363630163107
20
58.623757366305838
10
-71.943632333106891
20
56.194230297010762
42
0.41421356237308726
10
-72.086175949204417
20
54.361286948865562
10
-70.375368271471842
20
52.361950222993514
42
-0.15349429971568401
10
-56.329323702529891
20
58.21350173328581
42
0.38805732683497118
10
-55.146322829702896
20
59.508226107135627
10
-55.14632282970291
20
63.292583654216415
10
-52.9463228297029
20
63.292583654216401
10
-52.9463228297029
20
59.508226107135577
42
0.38805732683494421
10
-51.763321956875984
20
58.21350173328581
42
-0.18886422953399273
10
-35.211620953469144
20
49.941691446627331
10
-32.854950453424699
20
51.982771241083547
42
0.41421356237309687
10
-32.723356298098388
20
53.816533215355015
10
-35.145672040443266
20
56.613386169013431
10
-33.482678392322029
20
58.053682015813102
10
-30.789236791011941
20
54.94378186264872
42
0.41421356237308599
10
-28.955474816740427
20
54.812187707322373
10
-27.075242587294952
20
56.440630891184675
42
0.40960050240087947
0
LWPOLYLINE
5
153
100
AcDbEntity
8
0
100
AcDbPolyline
90
22
70
1
43
0.0
10
-82.227293031346761
20
9.2419846542074513
10
-79.971717084468665
20
11.172053060240842
42
0.41421356237309753
10
-79.829173468371096
20
13.004996408386059
10
-82.234742317823503
20
15.816266319039272
10
-80.563176425002666
20
17.24660455384883
10
-78.133649355707618
20
14.407335850905072
42
0.41421356237309526
10
-76.300706007562397
20
14.264792234807524
10
-74.301369281690327
20
15.975599912540092
42
-0.15349429971568435
10
-80.152920791982666
20
30.021644481482067
42
0.38805732683496197
10
-81.447645165832455
20
31.204645354309065
10
-85.232002712913243
20
31.204645354309047
10
-85.232002712913228
20
33.404645354309054
10
-81.447645165832427
20
33.404645354309054
42
0.3880573268349411
10
-80.152920791982623
20
34.587646227135977
42
-0.18886422953399259
10
-71.881110505324145
20
51.139347230542789
10
-73.922190299780382
20
53.496017730587241
42
0.41421356237309481
10
-75.75595227405185
20
53.627611885913559
10
-78.552805227710266
20
51.205296143568681
10
-79.993101074509937
20
52.868289791689918
10
-76.883200921345576
20
55.561731392999995
42
0.41421356237307944
10
-76.751606766019208
20
57.395493367271499
10
-78.380049949881538
20
59.275725596716995
42
0.40960050240087925
0
LWPOLYLINE
5
154
100
AcDbEntity
8
0
100
AcDbPolyline
90
16
70
1
43
0.0
10
11.250778848470095
20
-3.1281083997465577
42
-0.41421356237309553
10
9.9507788484700956
20
-1.8281083997465597
10
9.9507788484700868
20
2.997256559790471
10
7.7507788484700866
20
2.997256559790471
10
7.7507788484700875
20
-1.8297793850248636
42
-0.41421356237309481
10
6.4507788484700903
20
-3.1297793850248623
10
3.6507788484700887
20
-3.1297793850248601
10
3.6507788484700887
20
28.844342382107548
10
6.4507788484701036
20
28.844342382107556
42
-0.41421356237309476
10
7.750778848470099
20
27.544342382107558
10
7.7507788484700981
20
22.599600993525762
10
9.9507788484700974
20
22.599600993525762
10
9.9507788484700743
20
27.546013367385864
42
-0.41421356237309598
10
11.250778848470077
20
28.846013367385872
10
14.050778848470094
20
28.846013367385858
10
14.050778848470095
20
-3.1281083997465542
0
LINE
5
155
100
AcDbEntity
8
0
100
AcDbLine
10
-44.755119291662197
20
40.115631097304373
30
0
11
-47.784476489781369
21
37.086273898024622
31
0
0
LINE
5
156
100
AcDbEntity
8
0
100
AcDbLine
10
-47.784476489781369
20
37.086273898024622
30
0
11
-49.34009822988277
21
38.64189563812603
31
0
0
LINE
5
157
100
AcDbEntity
8
0
100
AcDbLine
10
-49.34009822988277
20
38.64189563812603
30
0
11
-46.321534758677139
21
41.660459110492319
31
0
0
ARC
5
158
100
AcDbEntity
8
0
100
AcDbCircle
10
-46.781154166448417
20
42.120078518263568
30
0
40
0.65000000000000746
100
AcDbArc
50
-44.999999999998217
51
53.396172229869507
0
ARC
5
159
100
AcDbEntity
8
0
100
AcDbCircle
10
-54.145193621354395
20
32.205774562657552
30
0
40
12.999999999709466
100
AcDbArc
50
53.396172858910766
51
82.103597633022289
0
ARC
5
160
100
AcDbEntity
8
0
100
AcDbCircle
10
-52.448521584264654
20
44.43867299634482
30
0
40
0.64999999619097959
100
AcDbArc
50
82.103597633021977
51
180
0
LINE
5
161
100
AcDbEntity
8
0
100
AcDbLine
10
-53.098521580024169
20
44.43867299634482
30
0
11
-53.098521580024155
21
40.154514955216776
31
0
0
LINE
5
162
100
AcDbEntity
8
0
100
AcDbLine
10
-53.098521580024155
20
40.154514955216776
30
0
11
-55.298502942798002
21
40.154514955216776
31
0
0
LINE
5
163
100
AcDbEntity
8
0
100
AcDbLine
10
-55.298502942798002
20
40.154514955216776
30
0
11
-55.29850294279796
21
44.423408361355186
31
0
0
ARC
5
164
100
AcDbEntity
8
0
100
AcDbCircle
10
-55.948502942797958
20
44.423408361355186
30
0
40
0.65000000000000391
100
AcDbArc
50
0
51
98.396172884556378
0
ARC
5
165
100
AcDbEntity
8
0
100
AcDbCircle
10
-54.145193621354395
20
32.205774562657552
30
0
40
12.9999999998489
100
AcDbArc
50
98.396172884556123
51
127.10359758245906
0
ARC
5
166
100
AcDbEntity
8
0
100
AcDbCircle
10
-61.595430743446457
20
42.055468305012347
30
0
40
0.65000000000001434
100
AcDbArc
50
127.10359758279291
51
224.99999923705872
0
LINE
5
167
100
AcDbEntity
8
0
100
AcDbLine
10
-62.055050158457313
20
41.595848902241926
30
0
11
-59.025692956721471
21
38.566491694230571
31
0
0
LINE
5
168
100
AcDbEntity
8
0
100
AcDbLine
10
-59.025692956721471
20
38.566491694230571
30
0
11
-60.581314696822872
21
37.010869954129163
31
0
0
LINE
5
169
100
AcDbEntity
8
0
100
AcDbLine
10
-60.581314696822872
20
37.010869954129163
30
0
11
-63.59987817164513
21
40.029433435226863
31
0
0
ARC
5
170
100
AcDbEntity
8
0
100
AcDbCircle
10
-64.059497579416401
20
39.569814027455607
30
0
40
0.65000000000000746
100
AcDbArc
50
44.999999999999112
51
143.39617279280085
0
ARC
5
171
100
AcDbEntity
8
0
100
AcDbCircle
10
-54.145193621354395
20
32.205774562657552
30
0
40
12.99999999969714
100
AcDbArc
50
143.39617285851224
51
172.10359758232036
0
ARC
5
172
100
AcDbEntity
8
0
100
AcDbCircle
10
-66.378092049583614
20
33.902446610029024
30
0
40
0.64999999999999791
100
AcDbArc
50
172.10359758279361
51
269.99999930238084
0
LINE
5
173
100
AcDbEntity
8
0
100
AcDbLine
10
-66.378092057497852
20
33.252446613879869
30
0
11
-62.093934013913625
21
33.252446603987785
31
0
0
LINE
5
174
100
AcDbEntity
8
0
100
AcDbLine
10
-62.093934013913625
20
33.252446603987785
30
0
11
-62.093934013913611
21
31.052465241213941
31
0
0
LINE
5
175
100
AcDbEntity
8
0
100
AcDbLine
10
-62.093934013913611
20
31.052465241213941
30
0
11
-66.362827422508005
21
31.052465251106014
31
0
0
ARC
5
176
100
AcDbEntity
8
0
100
AcDbCircle
10
-66.362827422508047
20
30.402465251106015
30
0
40
0.64999999999999947
100
AcDbArc
50
89.999999999996234
51
188.39617325678765
0
ARC
5
177
100
AcDbEntity
8
0
100
AcDbCircle
10
-54.145193621354395
20
32.205774562657552
30
0
40
12.99999999964939
100
AcDbArc
50
188.39617285845657
51
217.10359758245906
0
ARC
5
178
100
AcDbEntity
8
0
100
AcDbCircle
10
-63.994887363587949
20
24.755537440657207
30
0
40
0.65000000000000013
100
AcDbArc
50
217.10359758279452
51
314.99999968727491
0
LINE
5
179
100
AcDbEntity
8
0
100
AcDbLine
10
-63.535267963394766
20
24.295918035446743
30
0
11
-60.50591075292742
21
27.325275227290476
31
0
0
LINE
5
180
100
AcDbEntity
8
0
100
AcDbLine
10
-60.50591075292742
20
27.325275227290476
30
0
11
-58.950289012826012
21
25.769653487189071
31
0
0
LINE
5
181
100
AcDbEntity
8
0
100
AcDbLine
10
-58.950289012826012
20
25.769653487189071
30
0
11
-61.968852496379697
21
22.751090022258879
31
0
0
ARC
5
182
100
AcDbEntity
8
0
100
AcDbCircle
10
-61.509233088608497
20
22.291470614487579
30
0
40
0.64999999999999492
100
AcDbArc
50
134.99999999999383
51
233.39617348760905
0
ARC
5
183
100
AcDbEntity
8
0
100
AcDbCircle
10
-54.145193621354395
20
32.205774562657552
30
0
40
12.9999999996067
100
AcDbArc
50
233.39617285856633
51
262.1035975827939
0
ARC
5
184
100
AcDbEntity
8
0
100
AcDbCircle
10
-55.841865668604676
20
19.972876134520082
30
0
40
0.6500000000000018
100
AcDbArc
50
-97.896402417205721
51
0
0
LINE
5
185
100
AcDbEntity
8
0
100
AcDbLine
10
-55.19186567503283
20
19.972876136406189
30
0
11
-55.191865662684627
21
24.257034170098322
31
0
0
LINE
5
186
100
AcDbEntity
8
0
100
AcDbLine
10
-55.191865662684627
20
24.257034170098322
30
0
11
-52.99188429991078
21
24.257034170098322
31
0
0
LINE
5
187
100
AcDbEntity
8
0
100
AcDbLine
10
-52.99188429991078
20
24.257034170098322
30
0
11
-52.991884312258847
21
19.988140771396008
31
0
0
ARC
5
188
100
AcDbEntity
8
0
100
AcDbCircle
10
-52.341884312258841
20
19.988140771396012
30
0
40
0.65000000000000391
100
AcDbArc
50
180
51
278.39617335003879
0
ARC
5
189
100
AcDbEntity
8
0
100
AcDbCircle
10
-54.145193621354395
20
32.205774562657552
30
0
40
12.999999999594113
100
AcDbArc
50
278.39617285877688
51
307.10359758312916
0
ARC
5
190
100
AcDbEntity
8
0
100
AcDbCircle
10
-46.694956499232909
20
22.356080820515665
30
0
40
0.65000000000000058
100
AcDbArc
50
-52.896402417195894
51
45.000000458764212
0
LINE
5
191
100
AcDbEntity
8
0
100
AcDbLine
10
-46.235337096599636
20
22.815700230509233
30
0
11
-49.264694285987318
21
25.845057431084527
31
0
0
LINE
5
192
100
AcDbEntity
8
0
100
AcDbLine
10
-49.264694285987318
20
25.845057431084527
30
0
11
-47.709072545885917
21
27.400679171185935
31
0
0
LINE
5
193
100
AcDbEntity
8
0
100
AcDbLine
10
-47.709072545885917
20
27.400679171185935
30
0
11
-44.690509083411662
21
24.382115697524291
31
0
0
ARC
5
194
100
AcDbEntity
8
0
100
AcDbCircle
10
-44.230889675640405
20
24.841735105295534
30
0
40
0.64999999999999181
100
AcDbArc
50
224.99999999999909
51
323.39617292467898
0
ARC
5
195
100
AcDbEntity
8
0
100
AcDbCircle
10
-54.145193621354395
20
32.205774562657552
30
0
40
12.99999999961898
100
AcDbArc
50
323.39617285896497
51
352.10359758326786
0
ARC
5
196
100
AcDbEntity
8
0
100
AcDbCircle
10
-41.912295193095723
20
30.509102515498931
30
0
40
0.64999999999999514
100
AcDbArc
50
-7.8964024171987921
51
90.000000393441468
0
LINE
5
197
100
AcDbEntity
8
0
100
AcDbLine
10
-41.912295197559175
20
31.159102518871158
30
0
11
-46.196453228795164
21
31.159102521327316
31
0
0
LINE
5
198
100
AcDbEntity
8
0
100
AcDbLine
10
-46.196453228795164
20
31.159102521327316
30
0
11
-46.196453228795171
21
33.35908388410116
31
0
0
LINE
5
199
100
AcDbEntity
8
0
100
AcDbLine
10
-46.196453228795171
20
33.35908388410116
30
0
11
-41.927559832548802
21
33.359083881645105
31
0
0
ARC
5
200
100
AcDbEntity
8
0
100
AcDbCircle
10
-41.927559832548802
20
34.009083881645104
30
0
40
0.64999999999999947
100
AcDbArc
50
-90
51
8.3961724606938652
0
ARC
5
201
100
AcDbEntity
8
0
100
AcDbCircle
10
-54.145193621354395
20
32.205774562657552
30
0
40
12.999999999666777
100
AcDbArc
50
8.3961728590204725
51
37.103597583129236
0
ARC
5
202
100
AcDbEntity
8
0
100
AcDbCircle
10
-44.29549987909126
20
39.656011684870805
30
0
40
0.64999999999998104
100
AcDbArc
50
37.103597582802799
51
135.00000000856218
0
ENDSEC
0
SECTION
2
OBJECTS
0
DICTIONARY
5
C
100
AcDbDictionary
3
ACAD_GROUP
350
D
3
ACAD_MLINESTYLE
350
17
0
DICTIONARY
5
D
100
AcDbDictionary
0
DICTIONARY
5
1A
330
C
100
AcDbDictionary
0
DICTIONARY
5
17
100
AcDbDictionary
0
ENDSEC
0
EOF
