0
SECTION
2
HEADER
9
$INSUNITS
70
4
9
$ACADVER
1
AC1014
9
$HANDSEED
5
FFFF
0
ENDSEC
0
SECTION
2
TABLES
0
TABLE
2
VPORT
5
8
100
AcDbSymbolTable
0
ENDTAB
0
TABLE
2
LTYPE
5
5
100
AcDbSymbolTable
0
LTYPE
5
14
100
AcDbSymbolTableRecord
100
AcDbLinetypeTableRecord
2
BYBLOCK
70
0
0
LTYPE
5
15
100
AcDbSymbolTableRecord
100
AcDbLinetypeTableRecord
2
BYLAYER
70
0
0
ENDTAB
0
TABLE
2
LAYER
5
2
100
AcDbSymbolTable
70
2
0
LAYER
5
50
100
AcDbSymbolTableRecord
100
AcDbLayerTableRecord
2
0
70
0
6
CONTINUOUS
0
ENDTAB
0
TABLE
2
STYLE
5
3
100
AcDbSymbolTable
70
1
0
STYLE
5
11
100
AcDbSymbolTableRecord
100
AcDbTextStyleTableRecord
2
STANDARD
70
0
0
ENDTAB
0
TABLE
2
VIEW
5
6
100
AcDbSymbolTable
70
0
0
ENDTAB
0
TABLE
2
UCS
5
7
100
AcDbSymbolTable
70
0
0
ENDTAB
0
TABLE
2
APPID
5
9
100
AcDbSymbolTable
70
2
0
APPID
5
12
100
AcDbSymbolTableRecord
100
AcDbRegAppTableRecord
2
ACAD
70
0
0
ENDTAB
0
TABLE
2
DIMSTYLE
5
A
100
AcDbSymbolTable
70
1
0
ENDTAB
0
TABLE
2
BLOCK_RECORD
5
1
100
AcDbSymbolTable
70
1
0
BLOCK_RECORD
5
1F
100
AcDbSymbolTableRecord
100
AcDbBlockTableRecord
2
*MODEL_SPACE
0
BLOCK_RECORD
5
1B
100
AcDbSymbolTableRecord
100
AcDbBlockTableRecord
2
*PAPER_SPACE
0
ENDTAB
0
ENDSEC
0
SECTION
2
BLOCKS
0
BLOCK
5
20
100
AcDbEntity
100
AcDbBlockBegin
2
*MODEL_SPACE
0
ENDBLK
5
21
100
AcDbEntity
100
AcDbBlockEnd
0
BLOCK
5
1C
100
AcDbEntity
100
AcDbBlockBegin
2
*PAPER_SPACE
0
ENDBLK
5
1D
100
AcDbEntity
100
AcDbBlockEnd
0
ENDSEC
0
SECTION
2
ENTITIES
0
LINE
5
100
100
AcDbEntity
8
0
100
AcDbLine
10
1.0700000000000003
20
14.060000000000004
30
0
11
-1.0700000000000003
21
14.060000000000004
31
0
0
ARC
5
101
100
AcDbEntity
8
0
100
AcDbCircle
10
-2.0140863012675156
20
16.862462562556463
30
0
40
0.94408630126751492
100
AcDbArc
50
0
51
103.62002112958656
0
LINE
5
102
100
AcDbEntity
8
0
100
AcDbLine
10
-1.0700000000000003
20
16.862462562556463
30
0
11
-1.0700000000000003
21
14.060000000000004
31
0
0
ARC
5
103
100
AcDbEntity
8
0
100
AcDbCircle
10
2.0140863012675156
20
16.862462562556463
30
0
40
0.9440863012675148
100
AcDbArc
50
76.379978870413439
51
180
0
LINE
5
104
100
AcDbEntity
8
0
100
AcDbLine
10
1.0700000000000003
20
16.862462562556463
30
0
11
1.0700000000000003
21
14.060000000000004
31
0
0
ARC
5
105
100
AcDbEntity
8
0
100
AcDbCircle
10
7.0534292032667532
20
-15.553429203266756
30
0
40
2.2265707967332449
100
AcDbArc
50
270
51
360
0
LINE
5
106
100
AcDbEntity
8
0
100
AcDbLine
10
9.2799999999999976
20
17.780000000000005
30
0
11
9.2799999999999976
21
-15.553429203266758
31
0
0
LINE
5
107
100
AcDbEntity
8
0
100
AcDbLine
10
-9.2799999999999976
20
17.780000000000005
30
0
11
-2.2364013820212003
21
17.780000000000005
31
0
0
LINE
5
108
100
AcDbEntity
8
0
100
AcDbLine
10
2.2364013820212003
20
17.780000000000005
30
0
11
9.2799999999999976
21
17.780000000000005
31
0
0
LINE
5
109
100
AcDbEntity
8
0
100
AcDbLine
10
-9.2799999999999976
20
17.780000000000005
30
0
11
-9.2799999999999976
21
0.77999999999998071
31
0
0
ARC
5
110
100
AcDbEntity
8
0
100
AcDbCircle
10
-23.054194545309429
20
-8.5000000000000142
30
0
40
9.279999999999994
100
AcDbArc
50
90
51
270
0
LINE
5
111
100
AcDbEntity
8
0
100
AcDbLine
10
-23.054194545309429
20
0.77999999999998071
30
0
11
-9.2799999999999976
21
0.77999999999998071
31
0
0
LINE
5
112
100
AcDbEntity
8
0
100
AcDbLine
10
1.0700000000000021
20
-14.060000000000004
30
0
11
-1.0699999999999998
21
-14.060000000000004
31
0
0
LINE
5
113
100
AcDbEntity
8
0
100
AcDbLine
10
-1.0699999999999998
20
-16.862462562556463
30
0
11
-1.0699999999999998
21
-14.060000000000004
31
0
0
ARC
5
114
100
AcDbEntity
8
0
100
AcDbCircle
10
-2.0140863012675148
20
-16.862462562556463
30
0
40
0.94408630126751503
100
AcDbArc
50
-103.6200211295866
51
0
0
LINE
5
115
100
AcDbEntity
8
0
100
AcDbLine
10
1.0700000000000021
20
-16.862462562556463
30
0
11
1.0700000000000021
21
-14.060000000000004
31
0
0
ARC
5
116
100
AcDbEntity
8
0
100
AcDbCircle
10
2.0140863012675148
20
-16.862462562556463
30
0
40
0.9440863012675127
100
AcDbArc
50
180
51
283.62002112958663
0
LINE
5
117
100
AcDbEntity
8
0
100
AcDbLine
10
2.2364013820212003
20
-17.780000000000005
30
0
11
7.053429203266754
21
-17.780000000000001
31
0
0
LINE
5
118
100
AcDbEntity
8
0
100
AcDbLine
10
1.0700000000000021
20
-16.862462562556463
30
0
11
1.0700000000000021
21
-14.060000000000004
31
0
0
LINE
5
119
100
AcDbEntity
8
0
100
AcDbLine
10
-1.0699999999999998
20
-16.862462562556463
30
0
11
-1.0699999999999998
21
-14.060000000000004
31
0
0
LINE
5
120
100
AcDbEntity
8
0
100
AcDbLine
10
1.0700000000000021
20
-14.060000000000004
30
0
11
-1.0699999999999998
21
-14.060000000000004
31
0
0
ARC
5
121
100
AcDbEntity
8
0
100
AcDbCircle
10
-2.0140863012675148
20
-16.862462562556463
30
0
40
0.94408630126751503
100
AcDbArc
50
-103.6200211295866
51
0
0
ARC
5
122
100
AcDbEntity
8
0
100
AcDbCircle
10
2.0140863012675148
20
-16.862462562556463
30
0
40
0.9440863012675127
100
AcDbArc
50
180
51
283.62002112958663
0
LINE
5
123
100
AcDbEntity
8
0
100
AcDbLine
10
1.0700000000000021
20
-16.862462562556463
30
0
11
1.0700000000000021
21
-14.060000000000004
31
0
0
LINE
5
124
100
AcDbEntity
8
0
100
AcDbLine
10
-1.0699999999999998
20
-16.862462562556463
30
0
11
-1.0699999999999998
21
-14.060000000000004
31
0
0
LINE
5
125
100
AcDbEntity
8
0
100
AcDbLine
10
1.0700000000000021
20
-14.060000000000004
30
0
11
-1.0699999999999998
21
-14.060000000000004
31
0
0
ARC
5
126
100
AcDbEntity
8
0
100
AcDbCircle
10
-2.0140863012675148
20
-16.862462562556463
30
0
40
0.94408630126751503
100
AcDbArc
50
-103.6200211295866
51
0
0
ARC
5
127
100
AcDbEntity
8
0
100
AcDbCircle
10
2.0140863012675148
20
-16.862462562556463
30
0
40
0.9440863012675127
100
AcDbArc
50
180
51
283.62002112958663
0
LINE
5
128
100
AcDbEntity
8
0
100
AcDbLine
10
-17.530000000000001
20
-16.862462562556463
30
0
11
-17.530000000000001
21
-14.060000000000004
31
0
0
ARC
5
129
100
AcDbEntity
8
0
100
AcDbCircle
10
-20.61408630126752
20
-16.862462562556463
30
0
40
0.94408630126751503
100
AcDbArc
50
-103.62002112958656
51
0
0
LINE
5
130
100
AcDbEntity
8
0
100
AcDbLine
10
-19.670000000000005
20
-16.862462562556463
30
0
11
-19.670000000000005
21
-14.060000000000004
31
0
0
LINE
5
131
100
AcDbEntity
8
0
100
AcDbLine
10
-17.530000000000001
20
-14.060000000000004
30
0
11
-19.670000000000005
21
-14.060000000000004
31
0
0
ARC
5
132
100
AcDbEntity
8
0
100
AcDbCircle
10
-16.58591369873249
20
-16.862462562556463
30
0
40
0.9440863012675127
100
AcDbArc
50
180
51
283.62002112958675
0
LINE
5
133
100
AcDbEntity
8
0
100
AcDbLine
10
-23.054194545309429
20
-17.780000000000008
30
0
11
-20.836401382021204
21
-17.780000000000005
31
0
0
LINE
5
134
100
AcDbEntity
8
0
100
AcDbLine
10
27.219999999999995
20
-14.279999999999999
30
0
11
27.219999999999995
21
-5.7200000000000006
31
0
0
LINE
5
135
100
AcDbEntity
8
0
100
AcDbLine
10
52.780000000000001
20
-5.7200000000000006
30
0
11
52.780000000000001
21
-14.279999999999999
31
0
0
LINE
5
136
100
AcDbEntity
8
0
100
AcDbLine
10
41.07
20
-9.4400000000000013
30
0
11
38.93
21
-9.4400000000000013
31
0
0
LINE
5
137
100
AcDbEntity
8
0
100
AcDbLine
10
32.919999999999995
20
-10.56
30
0
11
30.779999999999994
21
-10.56
31
0
0
ARC
5
138
100
AcDbEntity
8
0
100
AcDbCircle
10
29.438148581178968
20
-12.994703524813605
30
0
40
1.3418514188210238
100
AcDbArc
50
286.69390648581913
51
360
0
LINE
5
139
100
AcDbEntity
8
0
100
AcDbLine
10
30.779999999999994
20
-10.56
30
0
11
30.779999999999994
21
-12.994703524813607
31
0
0
LINE
5
140
100
AcDbEntity
8
0
100
AcDbLine
10
27.219999999999995
20
-14.279999999999999
30
0
11
29.823607010929088
21
-14.279999999999999
31
0
0
LINE
5
141
100
AcDbEntity
8
0
100
AcDbLine
10
32.919999999999995
20
-10.56
30
0
11
32.919999999999995
21
-12.996017514801192
31
0
0
ARC
5
142
100
AcDbEntity
8
0
100
AcDbCircle
10
34.204300390465683
20
-12.99601751480119
30
0
40
1.2843003904656936
100
AcDbArc
50
180
51
271.27485896811936
0
LINE
5
143
100
AcDbEntity
8
0
100
AcDbLine
10
34.232874341067884
20
-14.279999999999999
30
0
11
40.036833538235619
21
-14.279999999999999
31
0
0
LINE
5
144
100
AcDbEntity
8
0
100
AcDbLine
10
47.079999999999998
20
-10.56
30
0
11
49.220000000000006
21
-10.56
31
0
0
LINE
5
145
100
AcDbEntity
8
0
100
AcDbLine
10
49.220000000000006
20
-10.56
30
0
11
49.220000000000006
21
-12.994703524813607
31
0
0
LINE
5
146
100
AcDbEntity
8
0
100
AcDbLine
10
47.079999999999998
20
-10.56
30
0
11
47.079999999999998
21
-12.996017514801192
31
0
0
ARC
5
147
100
AcDbEntity
8
0
100
AcDbCircle
10
50.561851418821036
20
-12.994703524813605
30
0
40
1.3418514188210295
100
AcDbArc
50
180
51
253.30609351418073
0
ARC
5
148
100
AcDbEntity
8
0
100
AcDbCircle
10
45.795699609534317
20
-12.99601751480119
30
0
40
1.2843003904656913
100
AcDbArc
50
268.72514103188064
51
360
0
LINE
5
149
100
AcDbEntity
8
0
100
AcDbLine
10
45.767125658932116
20
-14.279999999999999
30
0
11
39.963166461764381
21
-14.279999999999999
31
0
0
LINE
5
150
100
AcDbEntity
8
0
100
AcDbLine
10
52.780000000000001
20
-14.279999999999999
30
0
11
50.176392989070912
21
-14.279999999999999
31
0
0
ARC
5
151
100
AcDbEntity
8
0
100
AcDbCircle
10
42.33512818990728
20
-6.9830937763475749
30
0
40
1.2651281899072744
100
AcDbArc
50
93.249736885636835
51
180
0
LINE
5
152
100
AcDbEntity
8
0
100
AcDbLine
10
41.07
20
-6.9830937763475713
30
0
11
41.07
21
-9.4400000000000013
31
0
0
LINE
5
153
100
AcDbEntity
8
0
100
AcDbLine
10
38.93
20
-9.4400000000000013
30
0
11
38.93
21
-6.9830000000000014
31
0
0
LINE
5
154
100
AcDbEntity
8
0
100
AcDbLine
10
42.26341034659
20
-5.7200000000000006
30
0
11
52.780000000000001
21
-5.7200000000000006
31
0
0
LINE
5
155
100
AcDbEntity
8
0
100
AcDbLine
10
27.219999999999995
20
-5.7200000000000006
30
0
11
37.736999999999995
21
-5.7200000000000006
31
0
0
ARC
5
156
100
AcDbEntity
8
0
100
AcDbCircle
10
37.664946353730087
20
-6.9830000000000014
30
0
40
1.2650536462699069
100
AcDbArc
50
0
51
86.734837888788476
0
LINE
5
157
100
AcDbEntity
8
0
100
AcDbLine
10
-16.363598617978802
20
-17.780000000000005
30
0
11
-2.2364013820212003
21
-17.780000000000005
31
0
0
CIRCLE
5
158
100
AcDbEntity
8
0
100
AcDbCircle
10
25
20
30
30
0
40
7.2799999999999994
0
LINE
5
159
100
AcDbEntity
8
0
100
AcDbLine
10
26.07
20
33.560000000000002
30
0
11
23.93
21
33.560000000000002
31
0
0
ARC
5
160
100
AcDbEntity
8
0
100
AcDbCircle
10
26.817808331167441
20
36.287506000555759
30
0
40
0.74780833116744105
100
AcDbArc
50
85.085977664606958
51
180
0
LINE
5
161
100
AcDbEntity
8
0
100
AcDbLine
10
26.07
20
36.287506000555751
30
0
11
26.07
21
33.560000000000002
31
0
0
ARC
5
162
100
AcDbEntity
8
0
100
AcDbCircle
10
23.182191668832559
20
36.287506000555759
30
0
40
0.74780833116744105
100
AcDbArc
50
0
51
94.914022335393071
0
LINE
5
163
100
AcDbEntity
8
0
100
AcDbLine
10
23.93
20
36.287506000555751
30
0
11
23.93
21
33.560000000000002
31
0
0
ENDSEC
0
SECTION
2
OBJECTS
0
DICTIONARY
5
C
100
AcDbDictionary
3
ACAD_GROUP
350
D
3
ACAD_MLINESTYLE
350
17
0
DICTIONARY
5
D
100
AcDbDictionary
0
DICTIONARY
5
1A
330
C
100
AcDbDictionary
0
DICTIONARY
5
17
100
AcDbDictionary
0
ENDSEC
0
EOF
