0
SECTION
2
HEADER
9
$INSUNITS
70
4
9
$ACADVER
1
AC1014
9
$HANDSEED
5
FFFF
0
ENDSEC
0
SECTION
2
TABLES
0
TABLE
2
VPORT
5
8
100
AcDbSymbolTable
0
ENDTAB
0
TABLE
2
LTYPE
5
5
100
AcDbSymbolTable
0
LTYPE
5
14
100
AcDbSymbolTableRecord
100
AcDbLinetypeTableRecord
2
BYBLOCK
70
0
0
LTYPE
5
15
100
AcDbSymbolTableRecord
100
AcDbLinetypeTableRecord
2
BYLAYER
70
0
0
ENDTAB
0
TABLE
2
LAYER
5
2
100
AcDbSymbolTable
70
2
0
LAYER
5
50
100
AcDbSymbolTableRecord
100
AcDbLayerTableRecord
2
0
70
0
6
CONTINUOUS
0
ENDTAB
0
TABLE
2
STYLE
5
3
100
AcDbSymbolTable
70
1
0
STYLE
5
11
100
AcDbSymbolTableRecord
100
AcDbTextStyleTableRecord
2
STANDARD
70
0
0
ENDTAB
0
TABLE
2
VIEW
5
6
100
AcDbSymbolTable
70
0
0
ENDTAB
0
TABLE
2
UCS
5
7
100
AcDbSymbolTable
70
0
0
ENDTAB
0
TABLE
2
APPID
5
9
100
AcDbSymbolTable
70
2
0
APPID
5
12
100
AcDbSymbolTableRecord
100
AcDbRegAppTableRecord
2
ACAD
70
0
0
ENDTAB
0
TABLE
2
DIMSTYLE
5
A
100
AcDbSymbolTable
70
1
0
ENDTAB
0
TABLE
2
BLOCK_RECORD
5
1
100
AcDbSymbolTable
70
1
0
BLOCK_RECORD
5
1F
100
AcDbSymbolTableRecord
100
AcDbBlockTableRecord
2
*MODEL_SPACE
0
BLOCK_RECORD
5
1B
100
AcDbSymbolTableRecord
100
AcDbBlockTableRecord
2
*PAPER_SPACE
0
ENDTAB
0
ENDSEC
0
SECTION
2
BLOCKS
0
BLOCK
5
20
100
AcDbEntity
100
AcDbBlockBegin
2
*MODEL_SPACE
0
ENDBLK
5
21
100
AcDbEntity
100
AcDbBlockEnd
0
BLOCK
5
1C
100
AcDbEntity
100
AcDbBlockBegin
2
*PAPER_SPACE
0
ENDBLK
5
1D
100
AcDbEntity
100
AcDbBlockEnd
0
ENDSEC
0
SECTION
2
ENTITIES
0
LINE
5
100
100
AcDbEntity
8
0
100
AcDbLine
10
1.0700000000000001
20
19.059999999999999
30
0
11
-1.0700000000000001
21
19.059999999999999
31
0
0
ARC
5
101
100
AcDbEntity
8
0
100
AcDbCircle
10
-1.8734984731356163
20
21.982622765367775
30
0
40
0.80349847313561717
100
AcDbArc
50
0
51
97.076864038032127
0
LINE
5
102
100
AcDbEntity
8
0
100
AcDbLine
10
-1.0700000000000001
20
21.982622765367772
30
0
11
-1.0700000000000001
21
19.059999999999999
31
0
0
ARC
5
103
100
AcDbEntity
8
0
100
AcDbCircle
10
1.8734984731356163
20
21.982622765367775
30
0
40
0.80349847313561529
100
AcDbArc
50
82.923135961967901
51
180
0
LINE
5
104
100
AcDbEntity
8
0
100
AcDbLine
10
1.0700000000000001
20
21.982622765367772
30
0
11
1.0700000000000001
21
19.059999999999995
31
0
0
ARC
5
105
100
AcDbEntity
8
0
100
AcDbCircle
10
-11.496214109422745
20
21.496254577376416
30
0
40
1.2837858905772539
100
AcDbArc
50
90.454933684139178
51
180
0
LINE
5
106
100
AcDbEntity
8
0
100
AcDbLine
10
-11.506407378683614
20
22.780000000000001
30
0
11
-1.9724900991528327
21
22.780000000000001
31
0
0
LINE
5
107
100
AcDbEntity
8
0
100
AcDbLine
10
11.506407378683614
20
22.780000000000001
30
0
11
1.9724900991528327
21
22.780000000000001
31
0
0
ARC
5
108
100
AcDbEntity
8
0
100
AcDbCircle
10
11.496214109422745
20
21.496254577376416
30
0
40
1.2837858905772559
100
AcDbArc
50
0
51
89.545066315860822
0
LINE
5
109
100
AcDbEntity
8
0
100
AcDbLine
10
-12.780000000000001
20
21.496254577376416
30
0
11
-12.780000000000001
21
0
31
0
0
LINE
5
110
100
AcDbEntity
8
0
100
AcDbLine
10
12.780000000000001
20
21.496254577376416
30
0
11
12.780000000000001
21
0
31
0
0
ARC
5
111
100
AcDbEntity
8
0
100
AcDbCircle
10
-11.496214109422745
20
-21.496254577376416
30
0
40
1.2837858905772559
100
AcDbArc
50
180
51
269.54506631586077
0
LINE
5
112
100
AcDbEntity
8
0
100
AcDbLine
10
1.0699999999999998
20
-19.059999999999999
30
0
11
-1.0699999999999998
21
-19.059999999999999
31
0
0
LINE
5
113
100
AcDbEntity
8
0
100
AcDbLine
10
-1.0699999999999998
20
-21.982622765367772
30
0
11
-1.0699999999999998
21
-19.059999999999999
31
0
0
LINE
5
114
100
AcDbEntity
8
0
100
AcDbLine
10
-11.506407378683614
20
-22.780000000000001
30
0
11
-1.9724900991528327
21
-22.780000000000001
31
0
0
LINE
5
115
100
AcDbEntity
8
0
100
AcDbLine
10
11.506407378683612
20
-22.780000000000001
30
0
11
1.9724900991528327
21
-22.780000000000001
31
0
0
ARC
5
116
100
AcDbEntity
8
0
100
AcDbCircle
10
-1.8734984731356175
20
-21.982622765367775
30
0
40
0.80349847313561518
100
AcDbArc
50
-97.076864038032028
51
0
0
ARC
5
117
100
AcDbEntity
8
0
100
AcDbCircle
10
11.496214109422747
20
-21.496254577376416
30
0
40
1.2837858905772537
100
AcDbArc
50
-89.545066315860993
51
0
0
ARC
5
118
100
AcDbEntity
8
0
100
AcDbCircle
10
1.8734984731356175
20
-21.982622765367775
30
0
40
0.80349847313561762
100
AcDbArc
50
180
51
277.07686403803206
0
LINE
5
119
100
AcDbEntity
8
0
100
AcDbLine
10
1.0699999999999998
20
-21.982622765367772
30
0
11
1.0699999999999998
21
-19.059999999999995
31
0
0
LINE
5
120
100
AcDbEntity
8
0
100
AcDbLine
10
12.780000000000001
20
-21.496254577376416
30
0
11
12.780000000000001
21
0
31
0
0
LINE
5
121
100
AcDbEntity
8
0
100
AcDbLine
10
-12.780000000000001
20
-21.496254577376416
30
0
11
-12.780000000000001
21
0
31
0
0
ARC
5
122
100
AcDbEntity
8
0
100
AcDbCircle
10
29.126501526864384
20
21.982622765367775
30
0
40
0.8034984731356154
100
AcDbArc
50
0
51
97.076864038032383
0
ARC
5
123
100
AcDbEntity
8
0
100
AcDbCircle
10
42.496214109422745
20
21.496254577376416
30
0
40
1.2837858905772581
100
AcDbArc
50
0
51
89.545066315860595
0
LINE
5
124
100
AcDbEntity
8
0
100
AcDbLine
10
42.506407378683619
20
22.780000000000001
30
0
11
32.972490099152836
21
22.780000000000001
31
0
0
ARC
5
125
100
AcDbEntity
8
0
100
AcDbCircle
10
32.873498473135619
20
21.982622765367775
30
0
40
0.8034984731356154
100
AcDbArc
50
82.923135961967887
51
180
0
ARC
5
126
100
AcDbEntity
8
0
100
AcDbCircle
10
19.503785890577255
20
21.496254577376416
30
0
40
1.2837858905772539
100
AcDbArc
50
90.454933684139078
51
180
0
LINE
5
127
100
AcDbEntity
8
0
100
AcDbLine
10
19.493592621316388
20
22.780000000000001
30
0
11
29.027509900847164
21
22.780000000000001
31
0
0
LINE
5
128
100
AcDbEntity
8
0
100
AcDbLine
10
29.93
20
21.982622765367772
30
0
11
29.93
21
19.059999999999999
31
0
0
LINE
5
129
100
AcDbEntity
8
0
100
AcDbLine
10
32.07
20
21.982622765367772
30
0
11
32.07
21
19.059999999999995
31
0
0
LINE
5
130
100
AcDbEntity
8
0
100
AcDbLine
10
32.07
20
19.059999999999999
30
0
11
29.93
21
19.059999999999999
31
0
0
ARC
5
131
100
AcDbEntity
8
0
100
AcDbCircle
10
19.503785890577255
20
-34.063735144112862
30
0
40
1.2837858905772559
100
AcDbArc
50
180
51
269.54506631586088
0
ARC
5
132
100
AcDbEntity
8
0
100
AcDbCircle
10
29.126501526864384
20
-34.550103332104221
30
0
40
0.8034984731356154
100
AcDbArc
50
-97.076864038032397
51
0
0
ARC
5
133
100
AcDbEntity
8
0
100
AcDbCircle
10
42.496214109422745
20
-34.063735144112862
30
0
40
1.2837858905772539
100
AcDbArc
50
-89.545066315860595
51
0
0
ARC
5
134
100
AcDbEntity
8
0
100
AcDbCircle
10
32.873498473135619
20
-34.550103332104221
30
0
40
0.8034984731356154
100
AcDbArc
50
180
51
277.07686403803217
0
LINE
5
135
100
AcDbEntity
8
0
100
AcDbLine
10
42.506407378683619
20
-35.347480566736444
30
0
11
32.972490099152836
21
-35.347480566736444
31
0
0
LINE
5
136
100
AcDbEntity
8
0
100
AcDbLine
10
32.07
20
-34.550103332104214
30
0
11
32.07
21
-31.627480566736441
31
0
0
LINE
5
137
100
AcDbEntity
8
0
100
AcDbLine
10
19.493592621316388
20
-35.347480566736444
30
0
11
29.027509900847164
21
-35.347480566736444
31
0
0
LINE
5
138
100
AcDbEntity
8
0
100
AcDbLine
10
29.93
20
-34.550103332104214
30
0
11
29.93
21
-31.627480566736445
31
0
0
LINE
5
139
100
AcDbEntity
8
0
100
AcDbLine
10
32.07
20
-31.627480566736445
30
0
11
29.93
21
-31.627480566736445
31
0
0
LINE
5
140
100
AcDbEntity
8
0
100
AcDbLine
10
18.219999999999999
20
21.496254577376416
30
0
11
18.219999999999999
21
-34.063735144112862
31
0
0
LINE
5
141
100
AcDbEntity
8
0
100
AcDbLine
10
43.780000000000001
20
21.496254577376416
30
0
11
43.780000000000001
21
-34.063735144112862
31
0
0
CIRCLE
5
142
100
AcDbEntity
8
0
100
AcDbCircle
10
-100
20
3.2200002384185722
30
0
40
12.780000000000006
0
LINE
5
143
100
AcDbEntity
8
0
100
AcDbLine
10
-98.930001490116126
20
12.28000023841858
30
0
11
-101.07000149011611
21
12.28000023841858
31
0
0
LINE
5
144
100
AcDbEntity
8
0
100
AcDbLine
10
-101.07000149011611
20
15.007044820106684
30
0
11
-101.07000149011611
21
12.28000023841858
31
0
0
LINE
5
145
100
AcDbEntity
8
0
100
AcDbLine
10
-98.930001490116126
20
12.28000023841858
30
0
11
-98.930001490116126
21
15.007000238418581
31
0
0
ARC
5
146
100
AcDbEntity
8
0
100
AcDbCircle
10
-98.085819150277004
20
15.007000238418563
30
0
40
0.84418233983912505
100
AcDbArc
50
87.607995516295645
51
180
0
ARC
5
147
100
AcDbEntity
8
0
100
AcDbCircle
10
-102.02780477116023
20
15.007000238418584
30
0
40
0.84418233983910795
100
AcDbArc
50
0
51
92.39200448368986
0
LINE
5
148
100
AcDbEntity
8
0
100
AcDbLine
10
-107.31119090334509
20
8.676646129989507
30
0
11
-109.67284217946525
21
10.040146129989509
31
0
0
ARC
5
149
100
AcDbEntity
8
0
100
AcDbCircle
10
-109.25075100954567
20
10.771229481716373
30
0
40
0.84418233983913393
100
AcDbArc
50
147.6079955162956
51
239.99999999999861
0
LINE
5
150
100
AcDbEntity
8
0
100
AcDbLine
10
-110.74288078833968
20
8.186874056734883
30
0
11
-108.38119090334509
21
6.8233517658908305
31
0
0
ARC
5
151
100
AcDbEntity
8
0
100
AcDbCircle
10
-111.1649333493848
20
7.4557684141639413
30
0
40
0.8441823398391386
100
AcDbArc
50
60.000000000001208
51
152.39200448370411
0
LINE
5
152
100
AcDbEntity
8
0
100
AcDbLine
10
-107.31119090334509
20
8.676646129989507
30
0
11
-108.38119090334509
21
6.8233517658908305
31
0
0
LINE
5
153
100
AcDbEntity
8
0
100
AcDbLine
10
-108.38118941322897
20
-0.38335387001049881
30
0
11
-110.74284068934914
21
-1.7468538700105007
31
0
0
ARC
5
154
100
AcDbEntity
8
0
100
AcDbCircle
10
-111.16493185926868
20
-1.0157705182836096
30
0
40
0.84418233983914748
100
AcDbArc
50
207.60799551629498
51
299.99999999999795
0
LINE
5
155
100
AcDbEntity
8
0
100
AcDbLine
10
-109.67287929822359
20
-3.6001705249532456
30
0
11
-107.31118941322897
21
-2.2366482341091931
31
0
0
ARC
5
156
100
AcDbEntity
8
0
100
AcDbCircle
10
-109.25074951942958
20
-4.3312315858360328
30
0
40
0.84418233983911017
100
AcDbArc
50
120.0000000000023
51
212.39200448370539
0
LINE
5
157
100
AcDbEntity
8
0
100
AcDbLine
10
-108.38118941322897
20
-0.38335387001049881
30
0
11
-107.31118941322897
21
-2.2366482341091931
31
0
0
LINE
5
158
100
AcDbEntity
8
0
100
AcDbLine
10
-101.06999850988387
20
-5.839999761581435
30
0
11
-101.06999850988387
21
-8.5669997615814335
31
0
0
ARC
5
159
100
AcDbEntity
8
0
100
AcDbCircle
10
-101.914180849723
20
-8.5669997615814157
30
0
40
0.84418233983913171
100
AcDbArc
50
267.60799551629566
51
360
0
LINE
5
160
100
AcDbEntity
8
0
100
AcDbLine
10
-98.929998509883887
20
-8.56704434326954
30
0
11
-98.929998509883887
21
-5.8399997615814367
31
0
0
ARC
5
161
100
AcDbEntity
8
0
100
AcDbCircle
10
-97.972195228839766
20
-8.5669997615814406
30
0
40
0.84418233983910795
100
AcDbArc
50
180
51
272.3920044836899
0
LINE
5
162
100
AcDbEntity
8
0
100
AcDbLine
10
-101.06999850988387
20
-5.839999761581435
30
0
11
-98.929998509883887
21
-5.8399997615814367
31
0
0
LINE
5
163
100
AcDbEntity
8
0
100
AcDbLine
10
-92.688809096654907
20
-2.2366456531523582
30
0
11
-90.327157820534751
21
-3.6001456531523601
31
0
0
ARC
5
164
100
AcDbEntity
8
0
100
AcDbCircle
10
-90.749248990454333
20
-4.3312290048792246
30
0
40
0.84418233983913393
100
AcDbArc
50
-32.392004483704412
51
59.999999999998636
0
LINE
5
165
100
AcDbEntity
8
0
100
AcDbLine
10
-89.257119211660296
20
-1.7468735798977342
30
0
11
-91.618809096654914
21
-0.38335128905368165
31
0
0
ARC
5
166
100
AcDbEntity
8
0
100
AcDbCircle
10
-88.77825618001269
20
-0.91736931584139547
30
0
40
0.84418233983911017
100
AcDbArc
50
239.99999999999889
51
332.39200448369013
0
LINE
5
167
100
AcDbEntity
8
0
100
AcDbLine
10
-92.688809096654907
20
-2.2366456531523582
30
0
11
-91.618809096654914
21
-0.38335128905368165
31
0
0
LINE
5
168
100
AcDbEntity
8
0
100
AcDbLine
10
-91.618810586771048
20
6.8233543468476476
30
0
11
-89.257159310650877
21
8.1868543468476318
31
0
0
ARC
5
169
100
AcDbEntity
8
0
100
AcDbCircle
10
-88.835068140731323
20
7.4557709951207585
30
0
40
0.84418233983911595
100
AcDbArc
50
27.607995516296349
51
119.99999999999942
0
LINE
5
170
100
AcDbEntity
8
0
100
AcDbLine
10
-90.327120701776408
20
10.040171001790377
30
0
11
-92.688810586771027
21
8.6766487109463419
31
0
0
ARC
5
171
100
AcDbEntity
8
0
100
AcDbCircle
10
-90.80606095117291
20
10.869630684158619
30
0
40
0.84418233983910973
100
AcDbArc
50
-60.000000000000142
51
32.392004483690791
0
LINE
5
172
100
AcDbEntity
8
0
100
AcDbLine
10
-91.618810586771048
20
6.8233543468476476
30
0
11
-92.688810586771027
21
8.6766487109463419
31
0
0
ENDSEC
0
SECTION
2
OBJECTS
0
DICTIONARY
5
C
100
AcDbDictionary
3
ACAD_GROUP
350
D
3
ACAD_MLINESTYLE
350
17
0
DICTIONARY
5
D
100
AcDbDictionary
0
DICTIONARY
5
1A
330
C
100
AcDbDictionary
0
DICTIONARY
5
17
100
AcDbDictionary
0
ENDSEC
0
EOF
