0
SECTION
2
HEADER
9
$INSUNITS
70
4
9
$ACADVER
1
AC1014
9
$HANDSEED
5
FFFF
0
ENDSEC
0
SECTION
2
TABLES
0
TABLE
2
VPORT
5
8
100
AcDbSymbolTable
0
ENDTAB
0
TABLE
2
LTYPE
5
5
100
AcDbSymbolTable
0
LTYPE
5
14
100
AcDbSymbolTableRecord
100
AcDbLinetypeTableRecord
2
BYBLOCK
70
0
0
LTYPE
5
15
100
AcDbSymbolTableRecord
100
AcDbLinetypeTableRecord
2
BYLAYER
70
0
0
ENDTAB
0
TABLE
2
LAYER
5
2
100
AcDbSymbolTable
70
2
0
LAYER
5
50
100
AcDbSymbolTableRecord
100
AcDbLayerTableRecord
2
0
70
0
6
CONTINUOUS
0
ENDTAB
0
TABLE
2
STYLE
5
3
100
AcDbSymbolTable
70
1
0
STYLE
5
11
100
AcDbSymbolTableRecord
100
AcDbTextStyleTableRecord
2
STANDARD
70
0
0
ENDTAB
0
TABLE
2
VIEW
5
6
100
AcDbSymbolTable
70
0
0
ENDTAB
0
TABLE
2
UCS
5
7
100
AcDbSymbolTable
70
0
0
ENDTAB
0
TABLE
2
APPID
5
9
100
AcDbSymbolTable
70
2
0
APPID
5
12
100
AcDbSymbolTableRecord
100
AcDbRegAppTableRecord
2
ACAD
70
0
0
ENDTAB
0
TABLE
2
DIMSTYLE
5
A
100
AcDbSymbolTable
70
1
0
ENDTAB
0
TABLE
2
BLOCK_RECORD
5
1
100
AcDbSymbolTable
70
1
0
BLOCK_RECORD
5
1F
100
AcDbSymbolTableRecord
100
AcDbBlockTableRecord
2
*MODEL_SPACE
0
BLOCK_RECORD
5
1B
100
AcDbSymbolTableRecord
100
AcDbBlockTableRecord
2
*PAPER_SPACE
0
ENDTAB
0
ENDSEC
0
SECTION
2
BLOCKS
0
BLOCK
5
20
100
AcDbEntity
100
AcDbBlockBegin
2
*MODEL_SPACE
0
ENDBLK
5
21
100
AcDbEntity
100
AcDbBlockEnd
0
BLOCK
5
1C
100
AcDbEntity
100
AcDbBlockBegin
2
*PAPER_SPACE
0
ENDBLK
5
1D
100
AcDbEntity
100
AcDbBlockEnd
0
ENDSEC
0
SECTION
2
ENTITIES
0
LINE
5
100
100
AcDbEntity
8
0
100
AcDbLine
10
1.0700000000000003
20
5.5599999999999996
30
0
11
-1.0700000000000003
21
5.5599999999999996
31
0
0
ARC
5
101
100
AcDbEntity
8
0
100
AcDbCircle
10
-7.0177956560251005
20
7.0177634738359052
30
0
40
2.2622365261640951
100
AcDbArc
50
90.000000000000057
51
180.30561659433371
0
ARC
5
102
100
AcDbEntity
8
0
100
AcDbCircle
10
-7.0177634738359052
20
-7.0177956560251031
30
0
40
2.2622365261640964
100
AcDbArc
50
180
51
270.30561659433454
0
ARC
5
103
100
AcDbEntity
8
0
100
AcDbCircle
10
7.0177956560250996
20
-7.017763473835906
30
0
40
2.2622365261640951
100
AcDbArc
50
-90
51
0.30561659433368754
0
ARC
5
104
100
AcDbEntity
8
0
100
AcDbCircle
10
7.017763473835906
20
7.0177956560250996
30
0
40
2.2622365261640951
100
AcDbArc
50
0
51
90.305616594334495
0
LINE
5
105
100
AcDbEntity
8
0
100
AcDbLine
10
-9.2799999999999994
20
7.0056967256372165
30
0
11
-9.2800000000000011
21
-7.0177956560251058
31
0
0
LINE
5
106
100
AcDbEntity
8
0
100
AcDbLine
10
9.2800000000000011
20
7.0177956560250996
30
0
11
9.2799999999999976
21
-7.0056967256372173
31
0
0
LINE
5
107
100
AcDbEntity
8
0
100
AcDbLine
10
-1.0700000000000003
20
5.5599999999999996
30
0
11
-1.0700000000000003
21
8.0000001192092896
31
0
0
ARC
5
108
100
AcDbEntity
8
0
100
AcDbCircle
10
-2.3506607287772359
20
8.0000001192092896
30
0
40
1.2806607287772354
100
AcDbArc
50
0
51
88.159270184541214
0
ARC
5
109
100
AcDbEntity
8
0
100
AcDbCircle
10
2.3506607287772359
20
8.0000001192092896
30
0
40
1.2806607287772356
100
AcDbArc
50
91.840729815458801
51
180
0
LINE
5
110
100
AcDbEntity
8
0
100
AcDbLine
10
1.0700000000000003
20
5.5600000000000005
30
0
11
1.0700000000000003
21
8.0000001192092896
31
0
0
LINE
5
111
100
AcDbEntity
8
0
100
AcDbLine
10
-7.0177956560251022
20
9.2800000000000011
30
0
11
-2.3095242801214608
21
9.2799999999999994
31
0
0
LINE
5
112
100
AcDbEntity
8
0
100
AcDbLine
10
2.3095242801214608
20
9.2799999999999994
30
0
11
7.0056967256372182
21
9.2799999999999976
31
0
0
ARC
5
113
100
AcDbEntity
8
0
100
AcDbCircle
10
2.3506607287772363
20
-8.0000001192092896
30
0
40
1.2806607287772365
100
AcDbArc
50
180
51
268.15927018454119
0
ARC
5
114
100
AcDbEntity
8
0
100
AcDbCircle
10
-2.3506607287772363
20
-8.0000001192092896
30
0
40
1.2806607287772356
100
AcDbArc
50
-88.159270184541143
51
0
0
LINE
5
115
100
AcDbEntity
8
0
100
AcDbLine
10
1.0699999999999998
20
-5.5600000000000005
30
0
11
1.0699999999999998
21
-8.0000001192092896
31
0
0
LINE
5
116
100
AcDbEntity
8
0
100
AcDbLine
10
1.0699999999999998
20
-5.5599999999999996
30
0
11
-1.0699999999999998
21
-5.5599999999999996
31
0
0
LINE
5
117
100
AcDbEntity
8
0
100
AcDbLine
10
-1.0699999999999998
20
-5.5599999999999996
30
0
11
-1.0699999999999998
21
-8.0000001192092896
31
0
0
LINE
5
118
100
AcDbEntity
8
0
100
AcDbLine
10
-7.0177956560251022
20
-9.2800000000000011
30
0
11
-2.3095242801214599
21
-9.2799999999999994
31
0
0
LINE
5
119
100
AcDbEntity
8
0
100
AcDbLine
10
2.3095242801214599
20
-9.2799999999999994
30
0
11
7.0056967256372182
21
-9.2799999999999976
31
0
0
ENDSEC
0
SECTION
2
OBJECTS
0
DICTIONARY
5
C
100
AcDbDictionary
3
ACAD_GROUP
350
D
3
ACAD_MLINESTYLE
350
17
0
DICTIONARY
5
D
100
AcDbDictionary
0
DICTIONARY
5
1A
330
C
100
AcDbDictionary
0
DICTIONARY
5
17
100
AcDbDictionary
0
ENDSEC
0
EOF
