0
SECTION
2
HEADER
9
$INSUNITS
70
4
9
$ACADVER
1
AC1014
9
$HANDSEED
5
FFFF
0
ENDSEC
0
SECTION
2
TABLES
0
TABLE
2
VPORT
5
8
100
AcDbSymbolTable
0
ENDTAB
0
TABLE
2
LTYPE
5
5
100
AcDbSymbolTable
0
LTYPE
5
14
100
AcDbSymbolTableRecord
100
AcDbLinetypeTableRecord
2
BYBLOCK
70
0
0
LTYPE
5
15
100
AcDbSymbolTableRecord
100
AcDbLinetypeTableRecord
2
BYLAYER
70
0
0
ENDTAB
0
TABLE
2
LAYER
5
2
100
AcDbSymbolTable
70
2
0
LAYER
5
50
100
AcDbSymbolTableRecord
100
AcDbLayerTableRecord
2
0
70
0
6
CONTINUOUS
0
ENDTAB
0
TABLE
2
STYLE
5
3
100
AcDbSymbolTable
70
1
0
STYLE
5
11
100
AcDbSymbolTableRecord
100
AcDbTextStyleTableRecord
2
STANDARD
70
0
0
ENDTAB
0
TABLE
2
VIEW
5
6
100
AcDbSymbolTable
70
0
0
ENDTAB
0
TABLE
2
UCS
5
7
100
AcDbSymbolTable
70
0
0
ENDTAB
0
TABLE
2
APPID
5
9
100
AcDbSymbolTable
70
2
0
APPID
5
12
100
AcDbSymbolTableRecord
100
AcDbRegAppTableRecord
2
ACAD
70
0
0
ENDTAB
0
TABLE
2
DIMSTYLE
5
A
100
AcDbSymbolTable
70
1
0
ENDTAB
0
TABLE
2
BLOCK_RECORD
5
1
100
AcDbSymbolTable
70
1
0
BLOCK_RECORD
5
1F
100
AcDbSymbolTableRecord
100
AcDbBlockTableRecord
2
*MODEL_SPACE
0
BLOCK_RECORD
5
1B
100
AcDbSymbolTableRecord
100
AcDbBlockTableRecord
2
*PAPER_SPACE
0
ENDTAB
0
ENDSEC
0
SECTION
2
BLOCKS
0
BLOCK
5
20
100
AcDbEntity
100
AcDbBlockBegin
2
*MODEL_SPACE
0
ENDBLK
5
21
100
AcDbEntity
100
AcDbBlockEnd
0
BLOCK
5
1C
100
AcDbEntity
100
AcDbBlockBegin
2
*PAPER_SPACE
0
ENDBLK
5
1D
100
AcDbEntity
100
AcDbBlockEnd
0
ENDSEC
0
SECTION
2
ENTITIES
0
LINE
5
100
100
AcDbEntity
8
0
100
AcDbLine
10
-9.0699999999999932
20
-5.7990058976543324
30
0
11
-9.0699999999999932
21
-4.5600000000000005
31
0
0
LINE
5
101
100
AcDbEntity
8
0
100
AcDbLine
10
-5.2199999999999935
20
-6.2800000000000011
30
0
11
-5.2199999999999935
21
6.2800000000000011
31
0
0
LINE
5
102
100
AcDbEntity
8
0
100
AcDbLine
10
-9.0699999999999932
20
4.5600000000000005
30
0
11
-6.9299999999999944
21
4.5600000000000005
31
0
0
LINE
5
103
100
AcDbEntity
8
0
100
AcDbLine
10
-6.9300000000000033
20
5.7990058976543324
30
0
11
-6.9300000000000033
21
4.5600000000000005
31
0
0
LINE
5
104
100
AcDbEntity
8
0
100
AcDbLine
10
-9.0699999999999932
20
6.2800000000000011
30
0
11
-9.0699999999999932
21
4.5600000000000005
31
0
0
LINE
5
105
100
AcDbEntity
8
0
100
AcDbLine
10
-9.0699999999999932
20
-4.5600000000000005
30
0
11
-6.9299999999999944
21
-4.5600000000000005
31
0
0
LINE
5
106
100
AcDbEntity
8
0
100
AcDbLine
10
-9.0699999999999932
20
5.7990058976543324
30
0
11
-9.0699999999999932
21
4.5600000000000005
31
0
0
LINE
5
107
100
AcDbEntity
8
0
100
AcDbLine
10
-10.186947885027715
20
-6.2800000000000011
30
0
11
-9.6025743139651798
21
-6.2800000000000011
31
0
0
LINE
5
108
100
AcDbEntity
8
0
100
AcDbLine
10
-6.3974256860348166
20
-6.2800000000000011
30
0
11
-5.8130521149722814
21
-6.2800000000000011
31
0
0
ARC
5
109
100
AcDbEntity
8
0
100
AcDbCircle
10
-5.8130521149722805
20
5.6660061980392502
30
0
40
0.61399380196075004
100
AcDbArc
50
3.1737950523155121
51
90.000000000000099
0
LINE
5
110
100
AcDbEntity
8
0
100
AcDbLine
10
-10.186947885027715
20
6.2800000000000011
30
0
11
-9.6025743139651798
21
6.2800000000000011
31
0
0
ARC
5
111
100
AcDbEntity
8
0
100
AcDbCircle
10
-6.4465081070540826
20
-5.7990058976543315
30
0
40
0.48349189294591977
100
AcDbArc
50
180
51
275.82650591912028
0
LINE
5
112
100
AcDbEntity
8
0
100
AcDbLine
10
-5.2000000625848752
20
5.6999998725950718
30
0
11
-5.2000000625848752
21
-5.6999998725950718
31
0
0
ARC
5
113
100
AcDbEntity
8
0
100
AcDbCircle
10
-10.186947885027715
20
-5.6660061980392502
30
0
40
0.61399380196075115
100
AcDbArc
50
183.1737950523156
51
270
0
ARC
5
114
100
AcDbEntity
8
0
100
AcDbCircle
10
-5.8130521149722805
20
-5.6660061980392502
30
0
40
0.61399380196075048
100
AcDbArc
50
269.99999999999989
51
356.82620494768446
0
ARC
5
115
100
AcDbEntity
8
0
100
AcDbCircle
10
-6.4465081070540826
20
5.7990058976543315
30
0
40
0.48349189294592032
100
AcDbArc
50
84.173494080879749
51
180
0
ARC
5
116
100
AcDbEntity
8
0
100
AcDbCircle
10
-9.5534918929459138
20
-5.7990058976543315
30
0
40
0.48349189294592032
100
AcDbArc
50
264.17349408087978
51
360
0
ARC
5
117
100
AcDbEntity
8
0
100
AcDbCircle
10
-10.186947885027715
20
5.6660061980392502
30
0
40
0.61399380196075048
100
AcDbArc
50
90
51
176.82620494768437
0
ARC
5
118
100
AcDbEntity
8
0
100
AcDbCircle
10
-9.5534918929459138
20
5.7990058976543315
30
0
40
0.48349189294591977
100
AcDbArc
50
0
51
95.826505919120251
0
LINE
5
119
100
AcDbEntity
8
0
100
AcDbLine
10
-6.3974256860348166
20
6.2800000000000011
30
0
11
-5.8130521149722814
21
6.2800000000000011
31
0
0
LINE
5
120
100
AcDbEntity
8
0
100
AcDbLine
10
-10.799999937415121
20
5.6999998725950718
30
0
11
-10.799999937415121
21
-5.6999998725950718
31
0
0
LINE
5
121
100
AcDbEntity
8
0
100
AcDbLine
10
-6.9300000000000033
20
-5.7990058976543324
30
0
11
-6.9300000000000033
21
-4.5600000000000005
31
0
0
LINE
5
122
100
AcDbEntity
8
0
100
AcDbLine
10
-6.9300000000000033
20
-11.200994102345669
30
0
11
-6.9300000000000033
21
-12.440000000000001
31
0
0
LINE
5
123
100
AcDbEntity
8
0
100
AcDbLine
10
-5.2000000625848752
20
-11.30000012740493
30
0
11
-5.2000000625848752
21
-22.699999872595072
31
0
0
LINE
5
124
100
AcDbEntity
8
0
100
AcDbLine
10
-6.3974256860348166
20
-10.720000000000001
30
0
11
-5.8130521149722814
21
-10.720000000000001
31
0
0
LINE
5
125
100
AcDbEntity
8
0
100
AcDbLine
10
-10.186947885027715
20
-10.720000000000001
30
0
11
-9.6025743139651798
21
-10.720000000000001
31
0
0
LINE
5
126
100
AcDbEntity
8
0
100
AcDbLine
10
-5.2199999999999935
20
-23.280000000000001
30
0
11
-5.2199999999999935
21
-10.720000000000001
31
0
0
LINE
5
127
100
AcDbEntity
8
0
100
AcDbLine
10
-7.9999999999999938
20
-10.720000000000001
30
0
11
-6.9299999999999944
21
-10.720000000000001
31
0
0
LINE
5
128
100
AcDbEntity
8
0
100
AcDbLine
10
-9.0699999999999932
20
-12.440000000000001
30
0
11
-6.9299999999999944
21
-12.440000000000001
31
0
0
ARC
5
129
100
AcDbEntity
8
0
100
AcDbCircle
10
-10.186947885027715
20
-11.333993801960753
30
0
40
0.61399380196075271
100
AcDbArc
50
90
51
176.82620494768426
0
ARC
5
130
100
AcDbEntity
8
0
100
AcDbCircle
10
-5.8130521149722814
20
-11.333993801960753
30
0
40
0.61399380196075115
100
AcDbArc
50
3.1737950523157417
51
90
0
ARC
5
131
100
AcDbEntity
8
0
100
AcDbCircle
10
-9.5534918929459138
20
-11.200994102345669
30
0
40
0.48349189294591977
100
AcDbArc
50
0
51
95.826505919120279
0
ARC
5
132
100
AcDbEntity
8
0
100
AcDbCircle
10
-6.4465081070540826
20
-11.200994102345669
30
0
40
0.48349189294591921
100
AcDbArc
50
84.173494080879735
51
180
0
LINE
5
133
100
AcDbEntity
8
0
100
AcDbLine
10
-5.2000000625848752
20
-22.699999872595072
30
0
11
-7.9999999999999938
21
-31.280000000000001
31
0
0
LINE
5
134
100
AcDbEntity
8
0
100
AcDbLine
10
-9.0699999999999932
20
-10.720000000000001
30
0
11
-9.0699999999999932
21
-12.440000000000001
31
0
0
LINE
5
135
100
AcDbEntity
8
0
100
AcDbLine
10
-10.799999937415121
20
-22.699999872595072
30
0
11
-7.9999999999999938
21
-31.280000000000001
31
0
0
LINE
5
136
100
AcDbEntity
8
0
100
AcDbLine
10
-9.0699999999999932
20
-11.200994102345669
30
0
11
-9.0699999999999932
21
-12.440000000000001
31
0
0
LINE
5
137
100
AcDbEntity
8
0
100
AcDbLine
10
-10.799999937415121
20
-11.30000012740493
30
0
11
-10.799999937415121
21
-22.699999872595072
31
0
0
ENDSEC
0
SECTION
2
OBJECTS
0
DICTIONARY
5
C
100
AcDbDictionary
3
ACAD_GROUP
350
D
3
ACAD_MLINESTYLE
350
17
0
DICTIONARY
5
D
100
AcDbDictionary
0
DICTIONARY
5
1A
330
C
100
AcDbDictionary
0
DICTIONARY
5
17
100
AcDbDictionary
0
ENDSEC
0
EOF
