0
SECTION
2
HEADER
9
$INSUNITS
70
4
9
$ACADVER
1
AC1014
9
$HANDSEED
5
FFFF
0
ENDSEC
0
SECTION
2
TABLES
0
TABLE
2
VPORT
5
8
100
AcDbSymbolTable
0
ENDTAB
0
TABLE
2
LTYPE
5
5
100
AcDbSymbolTable
0
LTYPE
5
14
100
AcDbSymbolTableRecord
100
AcDbLinetypeTableRecord
2
BYBLOCK
70
0
0
LTYPE
5
15
100
AcDbSymbolTableRecord
100
AcDbLinetypeTableRecord
2
BYLAYER
70
0
0
ENDTAB
0
TABLE
2
LAYER
5
2
100
AcDbSymbolTable
70
2
0
LAYER
5
50
100
AcDbSymbolTableRecord
100
AcDbLayerTableRecord
2
0
70
0
6
CONTINUOUS
0
ENDTAB
0
TABLE
2
STYLE
5
3
100
AcDbSymbolTable
70
1
0
STYLE
5
11
100
AcDbSymbolTableRecord
100
AcDbTextStyleTableRecord
2
STANDARD
70
0
0
ENDTAB
0
TABLE
2
VIEW
5
6
100
AcDbSymbolTable
70
0
0
ENDTAB
0
TABLE
2
UCS
5
7
100
AcDbSymbolTable
70
0
0
ENDTAB
0
TABLE
2
APPID
5
9
100
AcDbSymbolTable
70
2
0
APPID
5
12
100
AcDbSymbolTableRecord
100
AcDbRegAppTableRecord
2
ACAD
70
0
0
ENDTAB
0
TABLE
2
DIMSTYLE
5
A
100
AcDbSymbolTable
70
1
0
ENDTAB
0
TABLE
2
BLOCK_RECORD
5
1
100
AcDbSymbolTable
70
1
0
BLOCK_RECORD
5
1F
100
AcDbSymbolTableRecord
100
AcDbBlockTableRecord
2
*MODEL_SPACE
0
BLOCK_RECORD
5
1B
100
AcDbSymbolTableRecord
100
AcDbBlockTableRecord
2
*PAPER_SPACE
0
ENDTAB
0
ENDSEC
0
SECTION
2
BLOCKS
0
BLOCK
5
20
100
AcDbEntity
100
AcDbBlockBegin
2
*MODEL_SPACE
0
ENDBLK
5
21
100
AcDbEntity
100
AcDbBlockEnd
0
BLOCK
5
1C
100
AcDbEntity
100
AcDbBlockBegin
2
*PAPER_SPACE
0
ENDBLK
5
1D
100
AcDbEntity
100
AcDbBlockEnd
0
ENDSEC
0
SECTION
2
ENTITIES
0
CIRCLE
5
100
100
AcDbEntity
8
0
100
AcDbCircle
10
0
20
0
30
0
40
22.5
0
LWPOLYLINE
5
101
100
AcDbEntity
8
0
100
AcDbPolyline
90
4
70
1
43
0.0
10
-2.8599999999999981
20
10
10
-15
20
10
10
-15
20
7.8600000000000003
10
-2.8599999999999981
20
7.8600000000000003
0
LWPOLYLINE
5
102
100
AcDbEntity
8
0
100
AcDbPolyline
90
4
70
1
43
0.0
10
2.8599999999999981
20
10
10
15
20
10
10
15
20
7.8600000000000003
10
2.8599999999999981
20
7.8600000000000003
0
LINE
5
103
100
AcDbEntity
8
0
100
AcDbLine
10
-18.332077058044142
20
13.045495419413236
30
0
11
18.332077058044142
21
13.045495419413236
31
0
0
ARC
5
104
100
AcDbEntity
8
0
100
AcDbCircle
10
1.1875000176951278
20
2.500000037252903
30
0
40
3.2264774228633359
100
AcDbArc
50
111.59531044896767
51
180
0
LINE
5
105
100
AcDbEntity
8
0
100
AcDbLine
10
-2.038977405168207
20
2.500000037252903
30
0
11
-2.038977405168207
21
-1.0012775286179147
31
0
0
ARC
5
106
100
AcDbEntity
8
0
100
AcDbCircle
10
-1.952397904032535
20
-3.047602170473271
30
0
40
2.0481554017899501
100
AcDbArc
50
92.422725623037152
51
178.66824240918666
0
LINE
5
107
100
AcDbEntity
8
0
100
AcDbLine
10
-4.0000000596046448
20
-3.0000000447034836
30
0
11
-3.0000000447034836
21
-3.0000000447034836
31
0
0
ARC
5
108
100
AcDbEntity
8
0
100
AcDbCircle
10
-2.2500000335276131
20
-3.2580127992093928
30
0
40
0.79313970916322973
100
AcDbArc
50
18.98408806192235
51
161.01591193807761
0
LINE
5
109
100
AcDbEntity
8
0
100
AcDbLine
10
-1.5000000223517418
20
-3.0000000447034836
30
0
11
0
21
-3.0000000447034836
31
0
0
LINE
5
110
100
AcDbEntity
8
0
100
AcDbLine
10
2.038977405168207
20
2.500000037252903
30
0
11
2.038977405168207
21
-1.0012775286179143
31
0
0
LINE
5
111
100
AcDbEntity
8
0
100
AcDbLine
10
1.5000000223517418
20
-3.0000000447034836
30
0
11
0
21
-3.0000000447034836
31
0
0
ARC
5
112
100
AcDbEntity
8
0
100
AcDbCircle
10
2.2500000335276131
20
-3.2580127992093932
30
0
40
0.79313970916322984
100
AcDbArc
50
18.984088061922389
51
161.01591193807761
0
ARC
5
113
100
AcDbEntity
8
0
100
AcDbCircle
10
-1.1875000176951278
20
2.500000037252903
30
0
40
3.2264774228633346
100
AcDbArc
50
0
51
68.404689551032334
0
LINE
5
114
100
AcDbEntity
8
0
100
AcDbLine
10
4.0000000596046448
20
-3.0000000447034836
30
0
11
3.0000000447034836
21
-3.0000000447034836
31
0
0
ARC
5
115
100
AcDbEntity
8
0
100
AcDbCircle
10
1.952397904032535
20
-3.0476021704732714
30
0
40
2.0481554017899501
100
AcDbArc
50
1.3317575908133412
51
87.577274376962862
0
ARC
5
116
100
AcDbEntity
8
0
100
AcDbCircle
10
-1.0000000149011523
20
-17.500000260770324
30
0
40
12.539936390844064
100
AcDbArc
50
85.4260787400992
51
113.49856567595214
0
ARC
5
117
100
AcDbEntity
8
0
100
AcDbCircle
10
1.0000000149011523
20
-17.500000260770321
30
0
40
12.539936390844066
100
AcDbArc
50
66.501434324047864
51
94.573921259900828
0
LWPOLYLINE
5
118
100
AcDbEntity
8
0
100
AcDbPolyline
90
3
70
1
43
0.0
10
3.3306690738754696e-15
20
-8.0000001192092913
42
-0.082280541444338745
10
6.0000000894069672
20
-6.0000000894069672
42
0.085696924075170114
10
-6.0000000894069672
20
-6.0000000894069672
42
0.23606797749978972
0
ARC
5
119
100
AcDbEntity
8
0
100
AcDbCircle
10
-0.97328202513330409
20
-3.4465640726183504
30
0
40
5.6380785724862399
100
AcDbArc
50
206.92933045422447
51
279.94056719161955
0
ARC
5
120
100
AcDbEntity
8
0
100
AcDbCircle
10
0.97328202513330409
20
-3.44656407261835
30
0
40
5.6380785724862399
100
AcDbArc
50
260.05943280838045
51
333.07066954577556
0
LINE
5
121
100
AcDbEntity
8
0
100
AcDbLine
10
-2.0179350242436045
20
-5.5436023918555319
30
0
11
-2.0179350242436045
21
-7.0000001043081284
31
0
0
LINE
5
122
100
AcDbEntity
8
0
100
AcDbLine
10
-2.0179350242436045
20
-7.0000001043081284
30
0
11
6.6613381477509392e-15
21
-7.0000001043081284
31
0
0
LINE
5
123
100
AcDbEntity
8
0
100
AcDbLine
10
6.6613381477509392e-15
20
-7.0000001043081284
30
0
11
6.6613381477509392e-15
21
-5.4858185372940458
31
0
0
LINE
5
124
100
AcDbEntity
8
0
100
AcDbLine
10
0.18736514087165482
20
-5.4858185372940458
30
0
11
0.18736514087165482
21
-7.0000001043081284
31
0
0
LINE
5
125
100
AcDbEntity
8
0
100
AcDbLine
10
0.18736514087165482
20
-7.0000001043081284
30
0
11
1.5000000223517418
21
-7.0000001043081284
31
0
0
LINE
5
126
100
AcDbEntity
8
0
100
AcDbLine
10
1.5000000223517418
20
-7.0000001043081284
30
0
11
1.5000000223517413
21
-5.5177350400749834
31
0
0
LINE
5
127
100
AcDbEntity
8
0
100
AcDbLine
10
-2.1570230431379747
20
-5.5518502488239028
30
0
11
-2.1570230431379738
21
-7.0000001043081284
31
0
0
LINE
5
128
100
AcDbEntity
8
0
100
AcDbLine
10
-2.1570230431379738
20
-7.0000001043081284
30
0
11
-3.5000000521540642
21
-7.0000001043081284
31
0
0
LINE
5
129
100
AcDbEntity
8
0
100
AcDbLine
10
-3.5000000521540642
20
-7.0000001043081284
30
0
11
-3.5000000521540633
21
-5.6599373884708815
31
0
0
LINE
5
130
100
AcDbEntity
8
0
100
AcDbLine
10
-3.6983541402804265
20
-5.6802884083159588
30
0
11
-3.6983541402804265
21
-7.0000001043081284
31
0
0
LINE
5
131
100
AcDbEntity
8
0
100
AcDbLine
10
-3.6983541402804265
20
-7.0000001043081284
30
0
11
-4.7416574574301427
21
-7.0000001043081292
31
0
0
LINE
5
132
100
AcDbEntity
8
0
100
AcDbLine
10
-4.9033025545563556
20
-6.8961199911259889
30
0
11
-4.9033025545563564
21
-5.8283717632017158
31
0
0
LINE
5
133
100
AcDbEntity
8
0
100
AcDbLine
10
1.6194828894364495
20
-5.5230249744508733
30
0
11
1.6194828894364495
21
-7.0000001043081284
31
0
0
LINE
5
134
100
AcDbEntity
8
0
100
AcDbLine
10
1.6194828894364495
20
-7.0000001043081284
30
0
11
2.2217597294343285
21
-7.0000001043081248
31
0
0
LINE
5
135
100
AcDbEntity
8
0
100
AcDbLine
10
2.9177195020330711
20
-5.6067302703782147
30
0
11
2.917719502033072
21
-6.7531584762968855
31
0
0
LINE
5
136
100
AcDbEntity
8
0
100
AcDbLine
10
3.0690123894742474
20
-5.6196191687251806
30
0
11
3.0690123894742483
21
-6.7034184796262171
31
0
0
LINE
5
137
100
AcDbEntity
8
0
100
AcDbLine
10
4.1427545632401355
20
-5.7300045808118654
30
0
11
4.1427545632401364
21
-6.3893030857730988
31
0
0
LINE
5
138
100
AcDbEntity
8
0
100
AcDbLine
10
4.3306142798246592
20
-5.7527390426308749
30
0
11
4.3306142798246592
21
-6.3412001093054293
31
0
0
LINE
5
139
100
AcDbEntity
8
0
100
AcDbLine
10
-8.7777924667896539
20
20.717151334340606
30
0
11
-6.1473552407756982
21
18.086714108326646
31
0
0
LINE
5
140
100
AcDbEntity
8
0
100
AcDbLine
10
-6.1473552407756982
20
18.086714108326646
30
0
11
-7.6605637525149097
21
16.573505596587434
31
0
0
LINE
5
141
100
AcDbEntity
8
0
100
AcDbLine
10
-7.6605637525149097
20
16.573505596587434
30
0
11
-10.816540140653551
21
19.729481984726071
31
0
0
LINE
5
142
100
AcDbEntity
8
0
100
AcDbLine
10
8.7777924667896539
20
20.717151334340606
30
0
11
6.1473552407756982
21
18.086714108326646
31
0
0
LINE
5
143
100
AcDbEntity
8
0
100
AcDbLine
10
6.1473552407756982
20
18.086714108326646
30
0
11
7.6605637525149097
21
16.573505596587434
31
0
0
LINE
5
144
100
AcDbEntity
8
0
100
AcDbLine
10
7.6605637525149097
20
16.573505596587434
30
0
11
10.816540140653551
21
19.729481984726071
31
0
0
ARC
5
145
100
AcDbEntity
8
0
100
AcDbCircle
10
10.625000158324838
20
-4.0000000596046448
30
0
40
5.0389111677722198
100
AcDbArc
50
156.61477894278624
51
262.8749836510982
0
ELLIPSE
5
146
100
AcDbEntity
8
0
100
AcDbEllipse
10
-8.0000001192092896
20
4.0000000596046448
30
0
11
-2.0000000298023224
21
0
31
0.0
40
0.5
41
-1.5707963267948966
42
4.7123889803846897
0
ELLIPSE
5
147
100
AcDbEntity
8
0
100
AcDbEllipse
10
8.0000001192092896
20
4.0000000596046448
30
0
11
2.0000000298023224
21
0
31
0.0
40
0.5
41
-1.5707963267948966
42
4.7123889803846897
0
LINE
5
148
100
AcDbEntity
8
0
100
AcDbLine
10
-65.280000745058061
20
-13.780000014901162
30
0
11
-52.960000745058061
21
-13.780000014901162
31
0
0
LINE
5
149
100
AcDbEntity
8
0
100
AcDbLine
10
-34.720000745058059
20
-13.780000014901162
30
0
11
-47.040000745058059
21
-13.780000014901162
31
0
0
LINE
5
150
100
AcDbEntity
8
0
100
AcDbLine
10
-52.960000745058061
20
-13.780000014901162
30
0
11
-52.960000745058061
21
-10.780000014901161
31
0
0
LINE
5
151
100
AcDbEntity
8
0
100
AcDbLine
10
-47.040000745058059
20
-13.780000014901162
30
0
11
-47.040000745058059
21
-10.780000014901161
31
0
0
LINE
5
152
100
AcDbEntity
8
0
100
AcDbLine
10
-52.960000745058061
20
-10.780000014901161
30
0
11
-47.040000745058059
21
-10.780000014901161
31
0
0
LINE
5
153
100
AcDbEntity
8
0
100
AcDbLine
10
-43.000000640749931
20
11.77999998509884
30
0
11
-43.000000640749931
21
-3.0000000447034836
31
0
0
LINE
5
154
100
AcDbEntity
8
0
100
AcDbLine
10
-43.000000640749931
20
-3.0000000447034836
30
0
11
-34.720000745058059
21
-3.0000000447034836
31
0
0
LINE
5
155
100
AcDbEntity
8
0
100
AcDbLine
10
-34.720000745058059
20
-3.0000000447034836
30
0
11
-34.720000745058059
21
-13.780000014901162
31
0
0
LINE
5
156
100
AcDbEntity
8
0
100
AcDbLine
10
-57.000000849366188
20
-3.0000000447034836
30
0
11
-65.280000745058061
21
-3.0000000447034836
31
0
0
LINE
5
157
100
AcDbEntity
8
0
100
AcDbLine
10
-57.000000849366188
20
11.77999998509884
30
0
11
-57.000000849366188
21
-3.0000000447034836
31
0
0
LINE
5
158
100
AcDbEntity
8
0
100
AcDbLine
10
-65.280000745058061
20
-3.0000000447034836
30
0
11
-65.280000745058061
21
-13.780000014901162
31
0
0
ARC
5
159
100
AcDbEntity
8
0
100
AcDbCircle
10
-50.00000074505806
20
11.779999985098836
30
0
40
7.0000001043081284
100
AcDbArc
50
0
51
180
0
LWPOLYLINE
5
160
100
AcDbEntity
8
0
100
AcDbPolyline
90
4
70
1
43
0.0
10
-51.07000074505806
20
-5.0000000745058069
10
-48.930000745058059
20
-5.0000000745058069
10
-48.930000745058059
20
2.9300000596046449
10
-51.07000074505806
20
2.9300000596046449
0
LWPOLYLINE
5
161
100
AcDbEntity
8
0
100
AcDbPolyline
90
4
70
1
43
0.0
10
-48.930000745058059
20
13.000000193715096
10
-51.07000074505806
20
13.000000193715096
10
-51.07000074505806
20
5.0700000596046451
10
-48.930000745058059
20
5.0700000596046451
0
ELLIPSE
5
162
100
AcDbEntity
8
0
100
AcDbEllipse
10
-80.000000894069672
20
-28.000000417232513
30
0
11
0
21
-7.7800000000000002
31
0.0
40
0.4215938303341894
41
0
42
6.2831853071795862
0
LINE
5
163
100
AcDbEntity
8
0
100
AcDbLine
10
-78.930000894069664
20
-23.940000417232518
30
0
11
-81.070000894069665
21
-23.940000417232518
31
0
0
LINE
5
164
100
AcDbEntity
8
0
100
AcDbLine
10
-81.070000894069665
20
-16.50000041723251
30
0
11
-78.930000894069664
21
-16.50000041723251
31
0
0
ARC
5
165
100
AcDbEntity
8
0
100
AcDbCircle
10
-78.347121541018524
20
-21.427890645707972
30
0
40
0.5828793530511428
100
AcDbArc
50
119.91429378433175
51
180
0
LINE
5
166
100
AcDbEntity
8
0
100
AcDbLine
10
-78.930000894069664
20
-21.427890645707954
30
0
11
-78.930000894069664
21
-23.940000417232518
31
0
0
LINE
5
167
100
AcDbEntity
8
0
100
AcDbLine
10
-81.070000894069665
20
-21.427890645707954
30
0
11
-81.070000894069665
21
-23.940000417232518
31
0
0
ARC
5
168
100
AcDbEntity
8
0
100
AcDbCircle
10
-81.652880247120805
20
-21.427890645707972
30
0
40
0.58287935305113336
100
AcDbArc
50
0
51
60.085706215668253
0
ARC
5
169
100
AcDbEntity
8
0
100
AcDbCircle
10
-78.347121541018524
20
-34.572110188757051
30
0
40
0.58287935305114225
100
AcDbArc
50
180
51
240.08570621566844
0
ARC
5
170
100
AcDbEntity
8
0
100
AcDbCircle
10
-81.652880247120805
20
-34.572110188757051
30
0
40
0.58287935305113847
100
AcDbArc
50
299.91429378433156
51
360
0
LINE
5
171
100
AcDbEntity
8
0
100
AcDbLine
10
-81.070000894069665
20
-34.572110188757073
30
0
11
-81.070000894069665
21
-32.060000417232509
31
0
0
LINE
5
172
100
AcDbEntity
8
0
100
AcDbLine
10
-78.930000894069664
20
-32.060000417232509
30
0
11
-81.070000894069665
21
-32.060000417232509
31
0
0
LINE
5
173
100
AcDbEntity
8
0
100
AcDbLine
10
-78.930000894069664
20
-34.572110188757073
30
0
11
-78.930000894069664
21
-32.060000417232509
31
0
0
LINE
5
174
100
AcDbEntity
8
0
100
AcDbLine
10
-41.070000596046448
20
-50.640000596046448
30
0
11
-38.930000596046447
21
-50.640000596046448
31
0
0
ARC
5
175
100
AcDbEntity
8
0
100
AcDbCircle
10
-42.127293011813109
20
-53.298944896422704
30
0
40
1.0610556996237541
100
AcDbArc
50
270.00000000000074
51
355.17296473244051
0
LINE
5
176
100
AcDbEntity
8
0
100
AcDbLine
10
-41.070000596046448
20
-50.640000596046448
30
0
11
-41.070000596046448
21
-53.388230647057185
31
0
0
LINE
5
177
100
AcDbEntity
8
0
100
AcDbLine
10
-38.930000596046447
20
-50.640000596046448
30
0
11
-38.930000596046447
21
-53.388230647057185
31
0
0
ARC
5
178
100
AcDbEntity
8
0
100
AcDbCircle
10
-37.872708180279787
20
-53.298944896422704
30
0
40
1.0610556996237535
100
AcDbArc
50
184.82703526755949
51
269.9999999999992
0
ARC
5
179
100
AcDbEntity
8
0
100
AcDbCircle
10
-45.93749166049502
20
-51.012009209061951
30
0
40
3.3479913869844991
100
AcDbArc
50
176.72061698548075
51
270
0
ARC
5
180
100
AcDbEntity
8
0
100
AcDbCircle
10
-45.93749166049502
20
-28.987991983030945
30
0
40
3.3479913869844946
100
AcDbArc
50
90
51
183.27938301451928
0
LINE
5
181
100
AcDbEntity
8
0
100
AcDbLine
10
-45.93749166049502
20
-54.360000596046447
30
0
11
-42.127293011813094
21
-54.360000596046447
31
0
0
LINE
5
182
100
AcDbEntity
8
0
100
AcDbLine
10
-49.280000596046449
20
-29.179513112625706
30
0
11
-49.280000596046449
21
-50.820488079467189
31
0
0
ARC
5
183
100
AcDbEntity
8
0
100
AcDbCircle
10
-34.062509531597875
20
-51.012009209061951
30
0
40
3.3479913869844946
100
AcDbArc
50
-90
51
3.2793830145192784
0
LINE
5
184
100
AcDbEntity
8
0
100
AcDbLine
10
-30.720000596046447
20
-29.179513112625706
30
0
11
-30.720000596046447
21
-50.820488079467189
31
0
0
LINE
5
185
100
AcDbEntity
8
0
100
AcDbLine
10
-34.062509531597875
20
-54.360000596046447
30
0
11
-37.872708180279801
21
-54.360000596046447
31
0
0
ARC
5
186
100
AcDbEntity
8
0
100
AcDbCircle
10
-34.062509531597875
20
-28.987991983030945
30
0
40
3.3479913869844991
100
AcDbArc
50
-3.2793830145192855
51
90
0
LINE
5
187
100
AcDbEntity
8
0
100
AcDbLine
10
-45.93749166049502
20
-25.640000596046448
30
0
11
-42.127293011813094
21
-25.640000596046448
31
0
0
ARC
5
188
100
AcDbEntity
8
0
100
AcDbCircle
10
-37.872708180279787
20
-26.701056295670192
30
0
40
1.0610556996237452
100
AcDbArc
50
90.000000000000782
51
175.17296473244051
0
LINE
5
189
100
AcDbEntity
8
0
100
AcDbLine
10
-41.070000596046448
20
-29.360000596046447
30
0
11
-38.930000596046447
21
-29.360000596046447
31
0
0
ARC
5
190
100
AcDbEntity
8
0
100
AcDbCircle
10
-42.127293011813109
20
-26.701056295670192
30
0
40
1.0610556996237535
100
AcDbArc
50
4.827035267559511
51
89.999999999999247
0
LINE
5
191
100
AcDbEntity
8
0
100
AcDbLine
10
-38.930000596046447
20
-29.360000596046447
30
0
11
-38.930000596046447
21
-26.611770545035711
31
0
0
LINE
5
192
100
AcDbEntity
8
0
100
AcDbLine
10
-41.070000596046448
20
-29.360000596046447
30
0
11
-41.070000596046448
21
-26.611770545035711
31
0
0
LINE
5
193
100
AcDbEntity
8
0
100
AcDbLine
10
-34.062509531597875
20
-25.640000596046448
30
0
11
-37.872708180279801
21
-25.640000596046448
31
0
0
ENDSEC
0
SECTION
2
OBJECTS
0
DICTIONARY
5
C
100
AcDbDictionary
3
ACAD_GROUP
350
D
3
ACAD_MLINESTYLE
350
17
0
DICTIONARY
5
D
100
AcDbDictionary
0
DICTIONARY
5
1A
330
C
100
AcDbDictionary
0
DICTIONARY
5
17
100
AcDbDictionary
0
ENDSEC
0
EOF
