0
SECTION
2
HEADER
9
$INSUNITS
70
4
9
$ACADVER
1
AC1014
9
$HANDSEED
5
FFFF
0
ENDSEC
0
SECTION
2
TABLES
0
TABLE
2
VPORT
5
8
100
AcDbSymbolTable
0
ENDTAB
0
TABLE
2
LTYPE
5
5
100
AcDbSymbolTable
0
LTYPE
5
14
100
AcDbSymbolTableRecord
100
AcDbLinetypeTableRecord
2
BYBLOCK
70
0
0
LTYPE
5
15
100
AcDbSymbolTableRecord
100
AcDbLinetypeTableRecord
2
BYLAYER
70
0
0
ENDTAB
0
TABLE
2
LAYER
5
2
100
AcDbSymbolTable
70
2
0
LAYER
5
50
100
AcDbSymbolTableRecord
100
AcDbLayerTableRecord
2
0
70
0
6
CONTINUOUS
0
ENDTAB
0
TABLE
2
STYLE
5
3
100
AcDbSymbolTable
70
1
0
STYLE
5
11
100
AcDbSymbolTableRecord
100
AcDbTextStyleTableRecord
2
STANDARD
70
0
0
ENDTAB
0
TABLE
2
VIEW
5
6
100
AcDbSymbolTable
70
0
0
ENDTAB
0
TABLE
2
UCS
5
7
100
AcDbSymbolTable
70
0
0
ENDTAB
0
TABLE
2
APPID
5
9
100
AcDbSymbolTable
70
2
0
APPID
5
12
100
AcDbSymbolTableRecord
100
AcDbRegAppTableRecord
2
ACAD
70
0
0
ENDTAB
0
TABLE
2
DIMSTYLE
5
A
100
AcDbSymbolTable
70
1
0
ENDTAB
0
TABLE
2
BLOCK_RECORD
5
1
100
AcDbSymbolTable
70
1
0
BLOCK_RECORD
5
1F
100
AcDbSymbolTableRecord
100
AcDbBlockTableRecord
2
*MODEL_SPACE
0
BLOCK_RECORD
5
1B
100
AcDbSymbolTableRecord
100
AcDbBlockTableRecord
2
*PAPER_SPACE
0
ENDTAB
0
ENDSEC
0
SECTION
2
BLOCKS
0
BLOCK
5
20
100
AcDbEntity
100
AcDbBlockBegin
2
*MODEL_SPACE
0
ENDBLK
5
21
100
AcDbEntity
100
AcDbBlockEnd
0
BLOCK
5
1C
100
AcDbEntity
100
AcDbBlockBegin
2
*PAPER_SPACE
0
ENDBLK
5
1D
100
AcDbEntity
100
AcDbBlockEnd
0
ENDSEC
0
SECTION
2
ENTITIES
0
LINE
5
100
100
AcDbEntity
8
0
100
AcDbLine
10
-34.219999999999999
20
29.5
30
0
11
-31.780000000000001
21
29.5
31
0
0
LINE
5
101
100
AcDbEntity
8
0
100
AcDbLine
10
-31.780000000000001
20
29.5
30
0
11
-31.780000000000001
21
-42.780000000000001
31
0
0
LINE
5
102
100
AcDbEntity
8
0
100
AcDbLine
10
34.219999999999999
20
29.5
30
0
11
31.780000000000001
21
29.5
31
0
0
LINE
5
103
100
AcDbEntity
8
0
100
AcDbLine
10
31.780000000000001
20
29.5
30
0
11
31.780000000000001
21
-42.780000000000001
31
0
0
ARC
5
104
100
AcDbEntity
8
0
100
AcDbCircle
10
-46.982267700168862
20
36.981759208911392
30
0
40
5.7982407910886113
100
AcDbArc
50
90.000000000000071
51
179.24118758823775
0
ARC
5
105
100
AcDbEntity
8
0
100
AcDbCircle
10
46.982267700168862
20
36.981759208911392
30
0
40
5.7982407910886158
100
AcDbArc
50
0.75881241176225056
51
89.999999999999929
0
ARC
5
106
100
AcDbEntity
8
0
100
AcDbCircle
10
-12.499999999999998
20
7.6267890155895905
30
0
40
7.8665195847036582
100
AcDbArc
50
17.558836451191638
51
162.44116354880839
0
ARC
5
107
100
AcDbEntity
8
0
100
AcDbCircle
10
-12.5
20
7.6267890155895905
30
0
40
5.6665195847036589
100
AcDbArc
50
17.558836451191613
51
162.44116354880833
0
ARC
5
108
100
AcDbEntity
8
0
100
AcDbCircle
10
-12.5
20
7.6267890155895905
30
0
40
5.6665195847036589
100
AcDbArc
50
17.558836451191613
51
162.44116354880833
0
ARC
5
109
100
AcDbEntity
8
0
100
AcDbCircle
10
-18.951251578138564
20
9.6681464967140442
30
0
40
1.1000000000000065
100
AcDbArc
50
162.44116354880819
51
342.44116354880867
0
LINE
5
110
100
AcDbEntity
8
0
100
AcDbLine
10
-5
20
10
30
0
11
-5
21
0
31
0
0
LINE
5
111
100
AcDbEntity
8
0
100
AcDbLine
10
-7.0974968437228618
20
9.3362929934280974
30
0
11
-7.0974968437228618
21
0
31
0
0
LINE
5
112
100
AcDbEntity
8
0
100
AcDbLine
10
-7.0974968437228618
20
0
30
0
11
-20.000000298023224
21
-12.000000178813934
31
0
0
LINE
5
113
100
AcDbEntity
8
0
100
AcDbLine
10
-5.5992240432249138
20
-1.6109558079873079
30
0
11
-18.501727497525277
21
-13.610955986801244
31
0
0
ARC
5
114
100
AcDbEntity
8
0
100
AcDbCircle
10
-6.903079387744353
20
-0.20903932166332628
30
0
40
1.9145256838336941
100
AcDbArc
50
-47.075574730752358
51
6.2683917765632415
0
LINE
5
115
100
AcDbEntity
8
0
100
AcDbLine
10
-18.501727497525277
20
-13.610955986801244
30
0
11
-6.0000000894069672
21
-13.610955986801244
31
0
0
LINE
5
116
100
AcDbEntity
8
0
100
AcDbLine
10
-18.501727497525277
20
-15.810955986801243
30
0
11
-6.0000000894069672
21
-15.810955986801243
31
0
0
ARC
5
117
100
AcDbEntity
8
0
100
AcDbCircle
10
-18.501727497525277
20
-13.610955986801244
30
0
40
2.1999999999999984
100
AcDbArc
50
132.92442526924748
51
270
0
ARC
5
118
100
AcDbEntity
8
0
100
AcDbCircle
10
-6.0000000894069681
20
-14.710955986801242
30
0
40
1.0999999999999988
100
AcDbArc
50
-89.999999999999943
51
89.999999999999972
0
LWPOLYLINE
5
119
100
AcDbEntity
8
0
100
AcDbPolyline
90
8
70
1
43
0.0
10
8
20
6.0000000000000009
10
8.0000000000000018
20
11
42
-0.23606799323136235
10
9.0000001639127731
20
13.000000178813934
10
12.000000208616257
20
13.000000178813938
42
-0.23606791457349433
10
13
20
11
10
13.000000000000004
20
6.0000000000000009
42
-0.23606793817085089
10
12.000000208616257
20
4.0000000447034845
10
9.0000001639127731
20
4.0000000447034836
42
-0.236068016828725
0
LWPOLYLINE
5
120
100
AcDbEntity
8
0
100
AcDbPolyline
90
14
70
1
43
0.0
10
12.000000208616257
20
15.200000178813935
10
9.0000001639127731
20
15.200000178813937
42
0.33754735012746123
10
5.8000000000000007
20
11
10
5.8000000000000007
20
6.0000000000000009
42
0.33754736441639099
10
9.0000001639127731
20
1.8000000447034847
42
0.2912006848235883
10
5.0000001043081284
20
-2.0000000298023224
10
5.0000001043081284
20
-12.000000178813934
42
0.33333333333333365
10
8.0000001490116119
20
-16.000000238418579
10
13.000000223517418
20
-16.000000238418579
42
0.33333333333333365
10
16.000000268220901
20
-12.000000178813934
10
16.000000268220901
20
-2.0000000298023219
42
0.23107841344244751
10
12.000000208616257
20
1.8000000447034843
42
0.33754733315935764
10
15.199999999999999
20
6.0000000000000009
10
15.199999999999999
20
11
42
0.33754731887042955
0
LWPOLYLINE
5
121
100
AcDbEntity
8
0
100
AcDbPolyline
90
8
70
1
43
0.0
10
7.2000001043081285
20
-12.000000178813934
10
7.2000001043081285
20
-2.0000000298023228
42
-0.33416613949123503
10
9.4215554651818501
20
-0.3286254755560355
10
11.338628955432213
20
-0.32862547555603666
42
-0.30743148278188387
10
13.800000268220902
20
-2.0000000298023224
10
13.800000268220902
20
-12.000000178813934
42
-0.21221445486383433
10
13.000000223517418
20
-13.80000023841858
10
8.0000001490116119
20
-13.800000238418582
42
-0.21221445486383456
0
LINE
5
122
100
AcDbEntity
8
0
100
AcDbLine
10
9.4215554651818501
20
-0.3286254755560355
30
0
11
11.338628955432213
21
-0.3286254755560355
31
0
0
LINE
5
123
100
AcDbEntity
8
0
100
AcDbLine
10
-34.219999999999999
20
22.134279815899987
30
0
11
-34.219999999999999
21
24.885617503710627
31
0
0
ARC
5
124
100
AcDbEntity
8
0
100
AcDbCircle
10
-50.031250065383773
20
19.969520994407226
30
0
40
2.7495209944072121
100
AcDbArc
50
181.3569482587472
51
270
0
LINE
5
125
100
AcDbEntity
8
0
100
AcDbLine
10
-52.779999999999994
20
37.058547560493466
30
0
11
-52.779999999999994
21
19.904409585012218
31
0
0
LINE
5
126
100
AcDbEntity
8
0
100
AcDbLine
10
-50.031250065383773
20
17.220000000000006
30
0
11
-44.569999999999993
21
17.220000000000006
31
0
0
LINE
5
127
100
AcDbEntity
8
0
100
AcDbLine
10
-42.430000000000007
20
17.220000000000006
30
0
11
-36.969000000000001
21
17.220000000000006
31
0
0
LINE
5
128
100
AcDbEntity
8
0
100
AcDbLine
10
-34.219999999999999
20
29.5
30
0
11
-34.219999999999999
21
20.000000298023224
31
0
0
ARC
5
129
100
AcDbEntity
8
0
100
AcDbCircle
10
-36.969000000000001
20
19.969172845031395
30
0
40
2.749172845031389
100
AcDbArc
50
-90
51
0.64249142067095733
0
LINE
5
130
100
AcDbEntity
8
0
100
AcDbLine
10
42.430000000000007
20
17.220000000000006
30
0
11
36.969000000000001
21
17.220000000000006
31
0
0
LINE
5
131
100
AcDbEntity
8
0
100
AcDbLine
10
34.219999999999999
20
29.5
30
0
11
34.219999999999999
21
20.000000298023224
31
0
0
ARC
5
132
100
AcDbEntity
8
0
100
AcDbCircle
10
36.969000000000001
20
19.969172845031391
30
0
40
2.7491728450313917
100
AcDbArc
50
179.35750857932908
51
270
0
LINE
5
133
100
AcDbEntity
8
0
100
AcDbLine
10
52.779999999999994
20
37.058547560493466
30
0
11
52.779999999999994
21
19.904409585012218
31
0
0
LINE
5
134
100
AcDbEntity
8
0
100
AcDbLine
10
34.219999999999999
20
22.134279815899987
30
0
11
34.219999999999999
21
24.885617503710627
31
0
0
LINE
5
135
100
AcDbEntity
8
0
100
AcDbLine
10
50.031250065383773
20
17.220000000000006
30
0
11
44.569999999999993
21
17.220000000000006
31
0
0
ARC
5
136
100
AcDbEntity
8
0
100
AcDbCircle
10
50.031250065383773
20
19.969520994407226
30
0
40
2.7495209944072219
100
AcDbArc
50
270
51
358.6430517412528
0
LINE
5
137
100
AcDbEntity
8
0
100
AcDbLine
10
-44.569999999999993
20
17.220000000000006
30
0
11
-44.569999999999993
21
20.940000000000005
31
0
0
LINE
5
138
100
AcDbEntity
8
0
100
AcDbLine
10
-42.430000000000007
20
17.220000000000006
30
0
11
-42.430000000000007
21
20.940000000000005
31
0
0
LINE
5
139
100
AcDbEntity
8
0
100
AcDbLine
10
-44.569999999999993
20
20.940000000000005
30
0
11
-42.430000000000007
21
20.940000000000005
31
0
0
LINE
5
140
100
AcDbEntity
8
0
100
AcDbLine
10
42.430000000000007
20
17.220000000000006
30
0
11
42.430000000000007
21
20.940000000000005
31
0
0
LINE
5
141
100
AcDbEntity
8
0
100
AcDbLine
10
44.569999999999993
20
17.220000000000006
30
0
11
44.569999999999993
21
20.940000000000005
31
0
0
LINE
5
142
100
AcDbEntity
8
0
100
AcDbLine
10
42.430000000000007
20
20.940000000000005
30
0
11
44.569999999999993
21
20.940000000000005
31
0
0
LINE
5
143
100
AcDbEntity
8
0
100
AcDbLine
10
-19.219999999999999
20
-39.060000000000002
30
0
11
-17.079999999999998
21
-39.060000000000002
31
0
0
LINE
5
144
100
AcDbEntity
8
0
100
AcDbLine
10
19.219999999999999
20
-39.060000000000002
30
0
11
17.079999999999998
21
-39.060000000000002
31
0
0
ARC
5
145
100
AcDbEntity
8
0
100
AcDbCircle
10
-16.028277292491452
20
-41.728510838899297
30
0
40
1.0517227075085467
100
AcDbArc
50
180
51
271.207484703369
0
LINE
5
146
100
AcDbEntity
8
0
100
AcDbLine
10
-17.079999999999998
20
-41.728510838899297
30
0
11
-17.079999999999998
21
-39.060000000000002
31
0
0
LINE
5
147
100
AcDbEntity
8
0
100
AcDbLine
10
-19.219999999999999
20
-39.060000000000002
30
0
11
-19.219999999999999
21
-41.728510838899297
31
0
0
ARC
5
148
100
AcDbEntity
8
0
100
AcDbCircle
10
-20.249664267780254
20
-41.750109231564267
30
0
40
1.0298907684357417
100
AcDbArc
50
-90
51
1.2016686715488398
0
ARC
5
149
100
AcDbEntity
8
0
100
AcDbCircle
10
16.028277292491452
20
-41.728510838899297
30
0
40
1.051722707508548
100
AcDbArc
50
-91.207484703369033
51
0
0
LINE
5
150
100
AcDbEntity
8
0
100
AcDbLine
10
19.219999999999999
20
-39.060000000000002
30
0
11
19.219999999999999
21
-41.728510838899297
31
0
0
LINE
5
151
100
AcDbEntity
8
0
100
AcDbLine
10
17.079999999999998
20
-41.728510838899297
30
0
11
17.079999999999998
21
-39.060000000000002
31
0
0
ARC
5
152
100
AcDbEntity
8
0
100
AcDbCircle
10
20.249664267780254
20
-41.750109231564267
30
0
40
1.0298907684357419
100
AcDbArc
50
178.79833132845118
51
270
0
LINE
5
153
100
AcDbEntity
8
0
100
AcDbLine
10
-16.006114314874882
20
-42.780000000000001
30
0
11
16.006114314874882
21
-42.780000000000001
31
0
0
LINE
5
154
100
AcDbEntity
8
0
100
AcDbLine
10
-16.006114314874882
20
-42.780000000000001
30
0
11
16.006114314874882
21
-42.780000000000001
31
0
0
LINE
5
155
100
AcDbEntity
8
0
100
AcDbLine
10
-31.780000000000001
20
-42.780000000000001
30
0
11
-20.249664267780254
21
-42.780000000000001
31
0
0
LINE
5
156
100
AcDbEntity
8
0
100
AcDbLine
10
20.249664267780254
20
-42.780000000000001
30
0
11
31.780000000000001
21
-42.780000000000001
31
0
0
LINE
5
157
100
AcDbEntity
8
0
100
AcDbLine
10
2.0000000298023224
20
42.780000000000001
30
0
11
46.982267700168869
21
42.780000000000001
31
0
0
LINE
5
158
100
AcDbEntity
8
0
100
AcDbLine
10
0
20
39.000000581145287
30
0
11
1.0700000000000001
21
39.000000581145287
31
0
0
LINE
5
159
100
AcDbEntity
8
0
100
AcDbLine
10
0
20
39.000000581145287
30
0
11
-1.0700000000000001
21
39.000000581145287
31
0
0
LINE
5
160
100
AcDbEntity
8
0
100
AcDbLine
10
1.0700000000000001
20
39.000000581145287
30
0
11
1.0700000000000001
21
42.00000062584877
31
0
0
LINE
5
161
100
AcDbEntity
8
0
100
AcDbLine
10
-1.0700000000000001
20
39.000000581145287
30
0
11
-1.0700000000000001
21
42.00000062584877
31
0
0
ARC
5
162
100
AcDbEntity
8
0
100
AcDbCircle
10
2.0000000298023326
20
41.835576755614809
30
0
40
0.9444232443851952
100
AcDbArc
50
90.000000000000611
51
169.97372541153749
0
ARC
5
163
100
AcDbEntity
8
0
100
AcDbCircle
10
-2.0000000298023326
20
41.835576755614809
30
0
40
0.94442324438519298
100
AcDbArc
50
10.026274588462515
51
89.999999999999389
0
LINE
5
164
100
AcDbEntity
8
0
100
AcDbLine
10
-46.982267700168869
20
42.780000000000001
30
0
11
-2.0000000298023224
21
42.780000000000001
31
0
0
LINE
5
165
100
AcDbEntity
8
0
100
AcDbLine
10
31.780000000000008
20
-60
30
0
11
31.780000000000008
21
-80.838392120105766
31
0
0
LINE
5
166
100
AcDbEntity
8
0
100
AcDbLine
10
-31.780000000000001
20
-80.838392120105766
30
0
11
-31.780000000000001
21
-60
31
0
0
LINE
5
167
100
AcDbEntity
8
0
100
AcDbLine
10
1.2200000000000042
20
-90.558392120105793
30
0
11
-1.2199999999999953
21
-90.558392120105793
31
0
0
LINE
5
168
100
AcDbEntity
8
0
100
AcDbLine
10
-1.2199999999999953
20
-71.118392120105767
30
0
11
1.2200000000000042
21
-71.118392120105767
31
0
0
LINE
5
169
100
AcDbEntity
8
0
100
AcDbLine
10
-1.2199999999999953
20
-71.118392120105767
30
0
11
-1.2199999999999953
21
-79.000001177191734
31
0
0
ARC
5
170
100
AcDbEntity
8
0
100
AcDbCircle
10
-3.0931811564135971
20
-78.96488177392979
30
0
40
1.8735103461759905
100
AcDbArc
50
270.00000000000034
51
358.92591388630461
0
LINE
5
171
100
AcDbEntity
8
0
100
AcDbLine
10
1.2199999999999953
20
-71.118392120105767
30
0
11
1.2199999999999953
21
-79.000001177191734
31
0
0
ARC
5
172
100
AcDbEntity
8
0
100
AcDbCircle
10
3.0931811564135971
20
-78.96488177392979
30
0
40
1.8735103461759886
100
AcDbArc
50
181.07408611369533
51
269.99999999999972
0
LINE
5
173
100
AcDbEntity
8
0
100
AcDbLine
10
-19.219999999999999
20
-77.118392120105767
30
0
11
-17.079999999999998
21
-77.118392120105767
31
0
0
ARC
5
174
100
AcDbEntity
8
0
100
AcDbCircle
10
-20.033207921428115
20
-80.025175381302475
30
0
40
0.81321673880330181
100
AcDbArc
50
-89.999999999999247
51
0.26681149020986489
0
LINE
5
175
100
AcDbEntity
8
0
100
AcDbLine
10
-19.219999999999999
20
-77.118392120105767
30
0
11
-19.219999999999999
21
-80.021388456897313
31
0
0
LINE
5
176
100
AcDbEntity
8
0
100
AcDbLine
10
-17.079914956500545
20
-80.021388456897313
30
0
11
-17.079999999999998
21
-77.118392120105767
31
0
0
ARC
5
177
100
AcDbEntity
8
0
100
AcDbCircle
10
-16.262600453149002
20
-80.0213645136065
30
0
40
0.81731450370224867
100
AcDbArc
50
180.00167848424667
51
271.51816470062101
0
LINE
5
178
100
AcDbEntity
8
0
100
AcDbLine
10
-31.780000000000001
20
-80.838392120105766
30
0
11
-20.033207921428104
21
-80.838392120105766
31
0
0
LINE
5
179
100
AcDbEntity
8
0
100
AcDbLine
10
-16.240946627156291
20
-80.838392120105766
30
0
11
-3.0931811564135869
21
-80.838392120105766
31
0
0
ARC
5
180
100
AcDbEntity
8
0
100
AcDbCircle
10
20.033207921428115
20
-80.025175381302475
30
0
40
0.81321673880330803
100
AcDbArc
50
179.73318850979015
51
269.9999999999992
0
LINE
5
181
100
AcDbEntity
8
0
100
AcDbLine
10
19.219999999999999
20
-77.118392120105767
30
0
11
17.079999999999998
21
-77.118392120105767
31
0
0
LINE
5
182
100
AcDbEntity
8
0
100
AcDbLine
10
19.219999999999999
20
-77.118392120105767
30
0
11
19.219999999999999
21
-80.021388456897313
31
0
0
LINE
5
183
100
AcDbEntity
8
0
100
AcDbLine
10
17.079914956500545
20
-80.021388456897313
30
0
11
17.079999999999998
21
-77.118392120105767
31
0
0
ARC
5
184
100
AcDbEntity
8
0
100
AcDbCircle
10
16.262600453149002
20
-80.0213645136065
30
0
40
0.81731450370224579
100
AcDbArc
50
268.48183529937899
51
359.99832151575328
0
LINE
5
185
100
AcDbEntity
8
0
100
AcDbLine
10
31.780000000000001
20
-80.838392120105766
30
0
11
20.033207921428104
21
-80.838392120105766
31
0
0
LINE
5
186
100
AcDbEntity
8
0
100
AcDbLine
10
3.0931811564135869
20
-80.838392120105766
30
0
11
16.240946627156291
21
-80.838392120105766
31
0
0
LINE
5
187
100
AcDbEntity
8
0
100
AcDbLine
10
-17.079999999999998
20
-63.719999999999999
30
0
11
-19.219999999999999
21
-63.719999999999999
31
0
0
ARC
5
188
100
AcDbEntity
8
0
100
AcDbCircle
10
-20.241412470649777
20
-61.020944523665641
30
0
40
1.0214124706497829
100
AcDbArc
50
0
51
91.734410765442107
0
LINE
5
189
100
AcDbEntity
8
0
100
AcDbLine
10
-19.219999999999999
20
-61.020944523665641
30
0
11
-19.219999999999999
21
-63.719999999999999
31
0
0
LINE
5
190
100
AcDbEntity
8
0
100
AcDbLine
10
-17.079059571178568
20
-61.020944523665641
30
0
11
-17.079999999999998
21
-63.719999999999999
31
0
0
ARC
5
191
100
AcDbEntity
8
0
100
AcDbCircle
10
-16.057235538783203
20
-61.021300556647901
30
0
40
1.0218240944214476
100
AcDbArc
50
88.165819313502638
51
179.98003649770141
0
LINE
5
192
100
AcDbEntity
8
0
100
AcDbLine
10
-31.780000000000001
20
-60
30
0
11
-20.272327107895521
21
-60
31
0
0
LINE
5
193
100
AcDbEntity
8
0
100
AcDbLine
10
-16.024529989851825
20
-60
30
0
11
0
21
-60
31
0
0
LINE
5
194
100
AcDbEntity
8
0
100
AcDbLine
10
19.219999999999999
20
-61.020944523665641
30
0
11
19.219999999999999
21
-63.719999999999999
31
0
0
LINE
5
195
100
AcDbEntity
8
0
100
AcDbLine
10
17.079999999999998
20
-63.719999999999999
30
0
11
19.219999999999999
21
-63.719999999999999
31
0
0
LINE
5
196
100
AcDbEntity
8
0
100
AcDbLine
10
17.079059571178568
20
-61.020944523665641
30
0
11
17.079999999999998
21
-63.719999999999999
31
0
0
ARC
5
197
100
AcDbEntity
8
0
100
AcDbCircle
10
16.057235538783203
20
-61.021300556647901
30
0
40
1.0218240944214454
100
AcDbArc
50
0.019963502298604201
51
91.834180686497362
0
ARC
5
198
100
AcDbEntity
8
0
100
AcDbCircle
10
20.241412470649777
20
-61.020944523665641
30
0
40
1.0214124706497834
100
AcDbArc
50
88.265589234557893
51
180
0
LINE
5
199
100
AcDbEntity
8
0
100
AcDbLine
10
31.780000000000001
20
-60
30
0
11
20.272327107895521
21
-60
31
0
0
LINE
5
200
100
AcDbEntity
8
0
100
AcDbLine
10
16.024529989851825
20
-60
30
0
11
0
21
-60
31
0
0
LINE
5
201
100
AcDbEntity
8
0
100
AcDbLine
10
-31.780000000000001
20
29.5
30
0
11
-28.499999999999996
21
29.5
31
0
0
LINE
5
202
100
AcDbEntity
8
0
100
AcDbLine
10
-28.499999999999996
20
29.5
30
0
11
-28.499999999999996
21
-42.780000000000001
31
0
0
LINE
5
203
100
AcDbEntity
8
0
100
AcDbLine
10
-28.499999999999996
20
-42.780000000000001
30
0
11
-31.780000000000001
21
-42.780000000000001
31
0
0
LINE
5
204
100
AcDbEntity
8
0
100
AcDbLine
10
-31.780000000000001
20
-42.780000000000001
30
0
11
-31.780000000000001
21
29.5
31
0
0
LINE
5
205
100
AcDbEntity
8
0
100
AcDbLine
10
31.780000000000001
20
29.5
30
0
11
28.499999999999996
21
29.5
31
0
0
LINE
5
206
100
AcDbEntity
8
0
100
AcDbLine
10
28.499999999999996
20
29.5
30
0
11
28.499999999999996
21
-42.780000000000001
31
0
0
LINE
5
207
100
AcDbEntity
8
0
100
AcDbLine
10
28.499999999999996
20
-42.780000000000001
30
0
11
31.780000000000001
21
-42.780000000000001
31
0
0
LINE
5
208
100
AcDbEntity
8
0
100
AcDbLine
10
31.780000000000001
20
-42.780000000000001
30
0
11
31.780000000000001
21
29.5
31
0
0
LINE
5
209
100
AcDbEntity
8
0
100
AcDbLine
10
-31.780000000000001
20
-60
30
0
11
-28.499999999999996
21
-60
31
0
0
LINE
5
210
100
AcDbEntity
8
0
100
AcDbLine
10
-28.499999999999996
20
-60
30
0
11
-28.499999999999996
21
-80.838392120105766
31
0
0
LINE
5
211
100
AcDbEntity
8
0
100
AcDbLine
10
-28.499999999999996
20
-80.838392120105766
30
0
11
-31.780000000000001
21
-80.838392120105766
31
0
0
LINE
5
212
100
AcDbEntity
8
0
100
AcDbLine
10
-31.780000000000001
20
-80.838392120105766
30
0
11
-31.780000000000001
21
-60
31
0
0
LINE
5
213
100
AcDbEntity
8
0
100
AcDbLine
10
31.780000000000001
20
-60
30
0
11
28.499999999999996
21
-60
31
0
0
LINE
5
214
100
AcDbEntity
8
0
100
AcDbLine
10
28.499999999999996
20
-60
30
0
11
28.499999999999996
21
-80.838392120105766
31
0
0
LINE
5
215
100
AcDbEntity
8
0
100
AcDbLine
10
28.499999999999996
20
-80.838392120105766
30
0
11
31.780000000000001
21
-80.838392120105766
31
0
0
LINE
5
216
100
AcDbEntity
8
0
100
AcDbLine
10
31.780000000000001
20
-80.838392120105766
30
0
11
31.780000000000001
21
-60
31
0
0
ENDSEC
0
SECTION
2
OBJECTS
0
DICTIONARY
5
C
100
AcDbDictionary
3
ACAD_GROUP
350
D
3
ACAD_MLINESTYLE
350
17
0
DICTIONARY
5
D
100
AcDbDictionary
0
DICTIONARY
5
1A
330
C
100
AcDbDictionary
0
DICTIONARY
5
17
100
AcDbDictionary
0
ENDSEC
0
EOF
