0
SECTION
2
HEADER
9
$INSUNITS
70
4
9
$ACADVER
1
AC1014
9
$HANDSEED
5
FFFF
0
ENDSEC
0
SECTION
2
TABLES
0
TABLE
2
VPORT
5
8
100
AcDbSymbolTable
0
ENDTAB
0
TABLE
2
LTYPE
5
5
100
AcDbSymbolTable
0
LTYPE
5
14
100
AcDbSymbolTableRecord
100
AcDbLinetypeTableRecord
2
BYBLOCK
70
0
0
LTYPE
5
15
100
AcDbSymbolTableRecord
100
AcDbLinetypeTableRecord
2
BYLAYER
70
0
0
ENDTAB
0
TABLE
2
LAYER
5
2
100
AcDbSymbolTable
70
2
0
LAYER
5
50
100
AcDbSymbolTableRecord
100
AcDbLayerTableRecord
2
0
70
0
6
CONTINUOUS
0
ENDTAB
0
TABLE
2
STYLE
5
3
100
AcDbSymbolTable
70
1
0
STYLE
5
11
100
AcDbSymbolTableRecord
100
AcDbTextStyleTableRecord
2
STANDARD
70
0
0
ENDTAB
0
TABLE
2
VIEW
5
6
100
AcDbSymbolTable
70
0
0
ENDTAB
0
TABLE
2
UCS
5
7
100
AcDbSymbolTable
70
0
0
ENDTAB
0
TABLE
2
APPID
5
9
100
AcDbSymbolTable
70
2
0
APPID
5
12
100
AcDbSymbolTableRecord
100
AcDbRegAppTableRecord
2
ACAD
70
0
0
ENDTAB
0
TABLE
2
DIMSTYLE
5
A
100
AcDbSymbolTable
70
1
0
ENDTAB
0
TABLE
2
BLOCK_RECORD
5
1
100
AcDbSymbolTable
70
1
0
BLOCK_RECORD
5
1F
100
AcDbSymbolTableRecord
100
AcDbBlockTableRecord
2
*MODEL_SPACE
0
BLOCK_RECORD
5
1B
100
AcDbSymbolTableRecord
100
AcDbBlockTableRecord
2
*PAPER_SPACE
0
ENDTAB
0
ENDSEC
0
SECTION
2
BLOCKS
0
BLOCK
5
20
100
AcDbEntity
100
AcDbBlockBegin
2
*MODEL_SPACE
0
ENDBLK
5
21
100
AcDbEntity
100
AcDbBlockEnd
0
BLOCK
5
1C
100
AcDbEntity
100
AcDbBlockBegin
2
*PAPER_SPACE
0
ENDBLK
5
1D
100
AcDbEntity
100
AcDbBlockEnd
0
ENDSEC
0
SECTION
2
ENTITIES
0
LINE
5
100
100
AcDbEntity
8
0
100
AcDbLine
10
-7.5100001490116135
20
8.1400001490116125
30
0
11
-26.070000149011612
21
48.700000149011615
31
0
0
LINE
5
101
100
AcDbEntity
8
0
100
AcDbLine
10
-26.070000149011612
20
8.1400001490116107
30
0
11
-7.5100001490116162
21
48.700000149011615
31
0
0
LINE
5
102
100
AcDbEntity
8
0
100
AcDbLine
10
-16.790000149011615
20
28.420000149011621
30
0
11
-16.790000149011611
21
8.1400001490116125
31
0
0
LINE
5
103
100
AcDbEntity
8
0
100
AcDbLine
10
-17.860000149011611
20
11.860000149011611
30
0
11
-15.720000149011613
21
11.860000149011611
31
0
0
LINE
5
104
100
AcDbEntity
8
0
100
AcDbLine
10
-16.790000149011615
20
28.420000149011621
30
0
11
-7.5100001490116153
21
28.420000149011614
31
0
0
LINE
5
105
100
AcDbEntity
8
0
100
AcDbLine
10
-26.070000149011612
20
28.420000149011614
30
0
11
-16.790000149011615
21
28.420000149011621
31
0
0
LINE
5
106
100
AcDbEntity
8
0
100
AcDbLine
10
-17.860000149011643
20
44.98000014901163
30
0
11
-15.720000149011643
21
44.98000014901163
31
0
0
ARC
5
107
100
AcDbEntity
8
0
100
AcDbCircle
10
-24.070000149011612
20
10.140000149011609
30
0
40
2.0000000000000018
100
AcDbArc
50
180
51
270
0
ARC
5
108
100
AcDbEntity
8
0
100
AcDbCircle
10
-9.5100001490116135
20
10.140000149011613
30
0
40
1.9999999999999996
100
AcDbArc
50
-90
51
0
0
ARC
5
109
100
AcDbEntity
8
0
100
AcDbCircle
10
-24.070000149011648
20
46.700000149011622
30
0
40
1.9999999999999929
100
AcDbArc
50
90.000000000000099
51
180
0
ARC
5
110
100
AcDbEntity
8
0
100
AcDbCircle
10
-9.510000149011649
20
46.700000149011643
30
0
40
1.9999999999999996
100
AcDbArc
50
0
51
90.000000000000057
0
LINE
5
111
100
AcDbEntity
8
0
100
AcDbLine
10
-26.070000149011648
20
46.700000149011615
30
0
11
-26.070000149011612
21
10.140000149011613
31
0
0
LINE
5
112
100
AcDbEntity
8
0
100
AcDbLine
10
-7.5100001490115869
20
46.700000149011615
30
0
11
-7.5100001490116135
21
10.140000149011614
31
0
0
CIRCLE
5
113
100
AcDbEntity
8
0
100
AcDbCircle
10
45
20
30
30
0
40
9.2799999999999976
0
LINE
5
114
100
AcDbEntity
8
0
100
AcDbLine
10
46.043791315513744
20
35.579999999999998
30
0
11
43.903791315513736
21
35.579999999999998
31
0
0
ARC
5
115
100
AcDbEntity
8
0
100
AcDbCircle
10
46.643709134447946
20
38.525064098836069
30
0
40
0.59991781893420826
100
AcDbArc
50
83.921671153409562
51
180
0
LINE
5
116
100
AcDbEntity
8
0
100
AcDbLine
10
46.043791315513744
20
38.525064098836076
30
0
11
46.043791315513744
21
35.579999999999998
31
0
0
LINE
5
117
100
AcDbEntity
8
0
100
AcDbLine
10
43.903791315513736
20
35.579999999999998
30
0
11
43.903791315513736
21
38.525530557882448
31
0
0
ARC
5
118
100
AcDbEntity
8
0
100
AcDbCircle
10
43.303294760745288
20
38.525530557882448
30
0
40
0.60049655476844599
100
AcDbArc
50
0
51
88.803590836832242
0
LINE
5
119
100
AcDbEntity
8
0
100
AcDbLine
10
40.689473904639712
20
33.693949795484471
30
0
11
39.619473904639705
21
31.84065543138578
31
0
0
LINE
5
120
100
AcDbEntity
8
0
100
AcDbLine
10
38.138973579274143
20
35.166481844902513
30
0
11
40.689473904639712
21
33.693949795484471
31
0
0
LINE
5
121
100
AcDbEntity
8
0
100
AcDbLine
10
39.619473904639705
20
31.84065543138578
30
0
11
37.068569613890162
21
33.313420710327001
31
0
0
ARC
5
122
100
AcDbEntity
8
0
100
AcDbCircle
10
38.438932488741251
20
35.686025916282489
30
0
40
0.59991781893420304
100
AcDbArc
50
143.92167115340953
51
239.99999999999957
0
ARC
5
123
100
AcDbEntity
8
0
100
AcDbCircle
10
36.768321336505934
20
32.793375439012493
30
0
40
0.60049655476844499
100
AcDbArc
50
59.999999999999652
51
148.803590836833
0
LINE
5
124
100
AcDbEntity
8
0
100
AcDbLine
10
39.645682589125961
20
28.113949795484476
30
0
11
40.715682589125976
21
26.260655431385771
31
0
0
LINE
5
125
100
AcDbEntity
8
0
100
AcDbLine
10
37.0951822637604
20
26.641417746066438
30
0
11
39.645682589125961
21
28.113949795484476
31
0
0
LINE
5
126
100
AcDbEntity
8
0
100
AcDbLine
10
40.715682589125976
20
26.260655431385771
30
0
11
38.164778298376419
21
24.78789015244455
31
0
0
ARC
5
127
100
AcDbEntity
8
0
100
AcDbCircle
10
36.795223354293299
20
27.160961817446413
30
0
40
0.59991781893420715
100
AcDbArc
50
203.92167115340945
51
299.99999999999983
0
ARC
5
128
100
AcDbEntity
8
0
100
AcDbCircle
10
38.465026575760639
20
24.267844881130042
30
0
40
0.60049655476844277
100
AcDbArc
50
119.99999999999976
51
208.80359083683231
0
LINE
5
129
100
AcDbEntity
8
0
100
AcDbLine
10
43.956208684486256
20
24.420000000000005
30
0
11
46.096208684486264
21
24.420000000000005
31
0
0
LINE
5
130
100
AcDbEntity
8
0
100
AcDbLine
10
43.956208684486249
20
21.474935901163931
30
0
11
43.956208684486256
21
24.420000000000005
31
0
0
LINE
5
131
100
AcDbEntity
8
0
100
AcDbLine
10
46.096208684486264
20
24.420000000000005
30
0
11
46.096208684486257
21
21.474469442117559
31
0
0
ARC
5
132
100
AcDbEntity
8
0
100
AcDbCircle
10
43.356290865552047
20
21.474935901163935
30
0
40
0.59991781893420826
100
AcDbArc
50
263.92167115340953
51
360
0
ARC
5
133
100
AcDbEntity
8
0
100
AcDbCircle
10
46.696705239254698
20
21.474469442117559
30
0
40
0.60049655476844599
100
AcDbArc
50
180
51
268.80359083683294
0
LINE
5
134
100
AcDbEntity
8
0
100
AcDbLine
10
49.310526095360302
20
26.306050204515525
30
0
11
50.380526095360295
21
28.15934456861423
31
0
0
LINE
5
135
100
AcDbEntity
8
0
100
AcDbLine
10
51.861026420725864
20
24.833518155097494
30
0
11
49.310526095360302
21
26.306050204515525
31
0
0
LINE
5
136
100
AcDbEntity
8
0
100
AcDbLine
10
50.380526095360295
20
28.15934456861423
30
0
11
52.931430386109845
21
26.686579289673009
31
0
0
ARC
5
137
100
AcDbEntity
8
0
100
AcDbCircle
10
51.561067511258756
20
24.313974083717511
30
0
40
0.59991781893420304
100
AcDbArc
50
-36.07832884659048
51
59.999999999999922
0
ARC
5
138
100
AcDbEntity
8
0
100
AcDbCircle
10
53.231678663494066
20
27.206624560987514
30
0
40
0.60049655476844277
100
AcDbArc
50
240.00000000000009
51
328.80359083683271
0
LINE
5
139
100
AcDbEntity
8
0
100
AcDbLine
10
50.354317410874039
20
31.886050204515513
30
0
11
49.284317410874024
21
33.739344568614214
31
0
0
LINE
5
140
100
AcDbEntity
8
0
100
AcDbLine
10
52.904817736239607
20
33.358582253933555
30
0
11
50.354317410874039
21
31.886050204515513
31
0
0
LINE
5
141
100
AcDbEntity
8
0
100
AcDbLine
10
49.284317410874024
20
33.739344568614214
30
0
11
51.835221701623588
21
35.212109847555439
31
0
0
ARC
5
142
100
AcDbEntity
8
0
100
AcDbCircle
10
53.204776645706708
20
32.83903818255358
30
0
40
0.59991781893420715
100
AcDbArc
50
23.92167115340915
51
119.99999999999984
0
ARC
5
143
100
AcDbEntity
8
0
100
AcDbCircle
10
51.534973424239361
20
35.732155118869947
30
0
40
0.60049655476844721
100
AcDbArc
50
-59.999999999999623
51
28.803590836832623
0
ARC
5
144
100
AcDbEntity
8
0
100
AcDbCircle
10
38.438932488741251
20
65.686025916282489
30
0
40
0.59991781893420304
100
AcDbArc
50
143.92167115340953
51
239.99999999999923
0
ARC
5
145
100
AcDbEntity
8
0
100
AcDbCircle
10
46.643709134447953
20
68.525064098836083
30
0
40
0.59991781893419849
100
AcDbArc
50
83.921671153410088
51
180
0
ARC
5
146
100
AcDbEntity
8
0
100
AcDbCircle
10
51.534973424239361
20
65.73215511886994
30
0
40
0.60049655476843944
100
AcDbArc
50
-59.999999999999325
51
28.803590836833216
0
LINE
5
147
100
AcDbEntity
8
0
100
AcDbLine
10
49.284317410874024
20
63.739344568614214
30
0
11
51.835221701623588
21
65.212109847555439
31
0
0
LINE
5
148
100
AcDbEntity
8
0
100
AcDbLine
10
38.138973579274143
20
65.16648184490252
30
0
11
40.689473904639712
21
63.693949795484471
31
0
0
ARC
5
149
100
AcDbEntity
8
0
100
AcDbCircle
10
43.303294760745288
20
68.525530557882448
30
0
40
0.60049655476844599
100
AcDbArc
50
0
51
88.803590836832257
0
ARC
5
150
100
AcDbEntity
8
0
100
AcDbCircle
10
53.204776645706708
20
62.839038182553573
30
0
40
0.59991781893420892
100
AcDbArc
50
23.921671153409768
51
119.9999999999995
0
ARC
5
151
100
AcDbEntity
8
0
100
AcDbCircle
10
51.561067511258756
20
54.313974083717511
30
0
40
0.59991781893420304
100
AcDbArc
50
-36.07832884659048
51
59.999999999999922
0
ARC
5
152
100
AcDbEntity
8
0
100
AcDbCircle
10
36.795223354293299
20
57.160961817446406
30
0
40
0.59991781893420537
100
AcDbArc
50
203.92167115340916
51
300.00000000000017
0
LINE
5
153
100
AcDbEntity
8
0
100
AcDbLine
10
50.380526095360295
20
58.15934456861423
30
0
11
52.931430386109845
21
56.686579289673006
31
0
0
LINE
5
154
100
AcDbEntity
8
0
100
AcDbLine
10
43.956208684486249
20
51.474935901163931
30
0
11
43.956208684486256
21
54.420000000000002
31
0
0
LINE
5
155
100
AcDbEntity
8
0
100
AcDbLine
10
46.043791315513744
20
65.579999999999998
30
0
11
43.903791315513736
21
65.579999999999998
31
0
0
LINE
5
156
100
AcDbEntity
8
0
100
AcDbLine
10
50.354317410874039
20
61.886050204515513
30
0
11
49.284317410874024
21
63.739344568614214
31
0
0
LINE
5
157
100
AcDbEntity
8
0
100
AcDbLine
10
51.861026420725864
20
54.833518155097494
30
0
11
49.310526095360302
21
56.306050204515529
31
0
0
LINE
5
158
100
AcDbEntity
8
0
100
AcDbLine
10
43.956208684486256
20
54.420000000000002
30
0
11
46.096208684486264
21
54.420000000000002
31
0
0
LINE
5
159
100
AcDbEntity
8
0
100
AcDbLine
10
40.715682589125976
20
56.260655431385771
30
0
11
38.164778298376419
21
54.787890152444554
31
0
0
CIRCLE
5
160
100
AcDbEntity
8
0
100
AcDbCircle
10
45
20
60
30
0
40
9.2799999999999976
0
LINE
5
161
100
AcDbEntity
8
0
100
AcDbLine
10
46.043791315513744
20
68.525064098836083
30
0
11
46.043791315513744
21
65.579999999999998
31
0
0
ARC
5
162
100
AcDbEntity
8
0
100
AcDbCircle
10
38.465026575760639
20
54.267844881130038
30
0
40
0.60049655476845032
100
AcDbArc
50
119.99999999999942
51
208.803590836832
0
LINE
5
163
100
AcDbEntity
8
0
100
AcDbLine
10
43.903791315513736
20
65.579999999999998
30
0
11
43.903791315513736
21
68.525530557882448
31
0
0
ARC
5
164
100
AcDbEntity
8
0
100
AcDbCircle
10
36.768321336505934
20
62.793375439012493
30
0
40
0.60049655476844499
100
AcDbArc
50
59.999999999999652
51
148.803590836833
0
LINE
5
165
100
AcDbEntity
8
0
100
AcDbLine
10
52.904817736239607
20
63.358582253933555
30
0
11
50.354317410874039
21
61.886050204515513
31
0
0
LINE
5
166
100
AcDbEntity
8
0
100
AcDbLine
10
49.310526095360302
20
56.306050204515529
30
0
11
50.380526095360295
21
58.15934456861423
31
0
0
ARC
5
167
100
AcDbEntity
8
0
100
AcDbCircle
10
43.356290865552047
20
51.474935901163938
30
0
40
0.59991781893421714
100
AcDbArc
50
263.92167115340965
51
360
0
ARC
5
168
100
AcDbEntity
8
0
100
AcDbCircle
10
46.696705239254698
20
51.474469442117567
30
0
40
0.60049655476844599
100
AcDbArc
50
180
51
268.80359083683294
0
LINE
5
169
100
AcDbEntity
8
0
100
AcDbLine
10
46.096208684486264
20
54.420000000000002
30
0
11
46.096208684486257
21
51.474469442117567
31
0
0
LINE
5
170
100
AcDbEntity
8
0
100
AcDbLine
10
37.0951822637604
20
56.641417746066438
30
0
11
39.645682589125961
21
58.113949795484473
31
0
0
LINE
5
171
100
AcDbEntity
8
0
100
AcDbLine
10
39.645682589125961
20
58.113949795484473
30
0
11
40.715682589125976
21
56.260655431385771
31
0
0
LINE
5
172
100
AcDbEntity
8
0
100
AcDbLine
10
39.619473904639705
20
61.840655431385784
30
0
11
37.068569613890162
21
63.313420710327001
31
0
0
LINE
5
173
100
AcDbEntity
8
0
100
AcDbLine
10
40.689473904639712
20
63.693949795484471
30
0
11
39.619473904639705
21
61.840655431385784
31
0
0
ARC
5
174
100
AcDbEntity
8
0
100
AcDbCircle
10
53.231678663494066
20
57.206624560987514
30
0
40
0.60049655476844277
100
AcDbArc
50
240.00000000000023
51
328.80359083683271
0
LINE
5
175
100
AcDbEntity
8
0
100
AcDbLine
10
77.904817736239607
20
63.358582253933555
30
0
11
75.354317410874046
21
61.886050204515513
31
0
0
CIRCLE
5
176
100
AcDbEntity
8
0
100
AcDbCircle
10
70
20
60
30
0
40
9.2799999999999976
0
LINE
5
177
100
AcDbEntity
8
0
100
AcDbLine
10
71.043791315513744
20
35.579999999999998
30
0
11
68.903791315513729
21
35.579999999999998
31
0
0
LINE
5
178
100
AcDbEntity
8
0
100
AcDbLine
10
71.043791315513744
20
38.525064098836076
30
0
11
71.043791315513744
21
35.579999999999998
31
0
0
LINE
5
179
100
AcDbEntity
8
0
100
AcDbLine
10
75.380526095360295
20
58.15934456861423
30
0
11
77.931430386109838
21
56.686579289673006
31
0
0
LINE
5
180
100
AcDbEntity
8
0
100
AcDbLine
10
63.13897357927415
20
35.166481844902513
30
0
11
65.689473904639712
21
33.693949795484471
31
0
0
LINE
5
181
100
AcDbEntity
8
0
100
AcDbLine
10
76.861026420725864
20
54.833518155097494
30
0
11
74.310526095360302
21
56.306050204515529
31
0
0
ARC
5
182
100
AcDbEntity
8
0
100
AcDbCircle
10
71.64370913444796
20
38.525064098836076
30
0
40
0.59991781893420293
100
AcDbArc
50
83.921671153410188
51
180
0
LINE
5
183
100
AcDbEntity
8
0
100
AcDbLine
10
68.956208684486256
20
54.420000000000002
30
0
11
71.096208684486271
21
54.420000000000002
31
0
0
LINE
5
184
100
AcDbEntity
8
0
100
AcDbLine
10
75.354317410874046
20
61.886050204515513
30
0
11
74.284317410874024
21
63.739344568614214
31
0
0
LINE
5
185
100
AcDbEntity
8
0
100
AcDbLine
10
74.284317410874024
20
33.739344568614214
30
0
11
76.835221701623595
21
35.212109847555439
31
0
0
LINE
5
186
100
AcDbEntity
8
0
100
AcDbLine
10
65.715682589125976
20
56.260655431385771
30
0
11
63.164778298376419
21
54.787890152444554
31
0
0
LINE
5
187
100
AcDbEntity
8
0
100
AcDbLine
10
68.903791315513729
20
35.579999999999998
30
0
11
68.903791315513729
21
38.525530557882448
31
0
0
LINE
5
188
100
AcDbEntity
8
0
100
AcDbLine
10
68.956208684486256
20
51.474935901163931
30
0
11
68.956208684486256
21
54.420000000000002
31
0
0
CIRCLE
5
189
100
AcDbEntity
8
0
100
AcDbCircle
10
70
20
30
30
0
40
9.2799999999999976
0
LINE
5
190
100
AcDbEntity
8
0
100
AcDbLine
10
74.310526095360302
20
56.306050204515529
30
0
11
75.380526095360295
21
58.15934456861423
31
0
0
ARC
5
191
100
AcDbEntity
8
0
100
AcDbCircle
10
78.204776645706715
20
62.839038182553573
30
0
40
0.59991781893420892
100
AcDbArc
50
23.921671153410028
51
120.00000000000006
0
ARC
5
192
100
AcDbEntity
8
0
100
AcDbCircle
10
76.561067511258756
20
54.313974083717511
30
0
40
0.59991781893420304
100
AcDbArc
50
-36.07832884659048
51
59.999999999999922
0
ARC
5
193
100
AcDbEntity
8
0
100
AcDbCircle
10
61.795223354293299
20
57.160961817446406
30
0
40
0.59991781893420537
100
AcDbArc
50
203.92167115340916
51
300.00000000000017
0
ARC
5
194
100
AcDbEntity
8
0
100
AcDbCircle
10
63.465026575760639
20
54.267844881130038
30
0
40
0.60049655476845032
100
AcDbArc
50
119.99999999999942
51
208.803590836832
0
ARC
5
195
100
AcDbEntity
8
0
100
AcDbCircle
10
61.768321336505934
20
62.793375439012493
30
0
40
0.60049655476844721
100
AcDbArc
50
59.999999999999652
51
148.803590836833
0
ARC
5
196
100
AcDbEntity
8
0
100
AcDbCircle
10
68.303294760745288
20
38.525530557882448
30
0
40
0.60049655476844599
100
AcDbArc
50
0
51
88.803590836832925
0
ARC
5
197
100
AcDbEntity
8
0
100
AcDbCircle
10
68.35629086555204
20
51.474935901163938
30
0
40
0.59991781893421714
100
AcDbArc
50
263.92167115341027
51
360
0
LINE
5
198
100
AcDbEntity
8
0
100
AcDbLine
10
71.096208684486271
20
54.420000000000002
30
0
11
71.096208684486257
21
51.474469442117567
31
0
0
LINE
5
199
100
AcDbEntity
8
0
100
AcDbLine
10
62.0951822637604
20
56.641417746066438
30
0
11
64.645682589125954
21
58.113949795484473
31
0
0
LINE
5
200
100
AcDbEntity
8
0
100
AcDbLine
10
64.645682589125954
20
58.113949795484473
30
0
11
65.715682589125976
21
56.260655431385771
31
0
0
LINE
5
201
100
AcDbEntity
8
0
100
AcDbLine
10
64.619473904639705
20
61.840655431385784
30
0
11
62.068569613890162
21
63.313420710327001
31
0
0
LINE
5
202
100
AcDbEntity
8
0
100
AcDbLine
10
65.689473904639712
20
63.693949795484471
30
0
11
64.619473904639705
21
61.840655431385784
31
0
0
ARC
5
203
100
AcDbEntity
8
0
100
AcDbCircle
10
71.696705239254698
20
51.474469442117567
30
0
40
0.60049655476844599
100
AcDbArc
50
180
51
268.80359083683294
0
LINE
5
204
100
AcDbEntity
8
0
100
AcDbLine
10
77.904817736239607
20
33.358582253933555
30
0
11
75.354317410874046
21
31.886050204515513
31
0
0
ARC
5
205
100
AcDbEntity
8
0
100
AcDbCircle
10
76.561067511258756
20
24.313974083717511
30
0
40
0.59991781893420304
100
AcDbArc
50
-36.07832884659048
51
59.999999999999922
0
LINE
5
206
100
AcDbEntity
8
0
100
AcDbLine
10
68.903791315513729
20
65.579999999999998
30
0
11
68.903791315513729
21
68.525530557882448
31
0
0
ARC
5
207
100
AcDbEntity
8
0
100
AcDbCircle
10
71.643709134447931
20
68.525064098836083
30
0
40
0.59991781893420038
100
AcDbArc
50
83.921671153407402
51
180
0
ARC
5
208
100
AcDbEntity
8
0
100
AcDbCircle
10
63.465026575760639
20
24.267844881130042
30
0
40
0.60049655476844277
100
AcDbArc
50
119.99999999999976
51
208.80359083683231
0
ARC
5
209
100
AcDbEntity
8
0
100
AcDbCircle
10
76.534973424239354
20
65.73215511886994
30
0
40
0.60049655476843944
100
AcDbArc
50
-59.999999999998153
51
28.803590836832885
0
LINE
5
210
100
AcDbEntity
8
0
100
AcDbLine
10
71.043791315513744
20
65.579999999999998
30
0
11
68.903791315513729
21
65.579999999999998
31
0
0
LINE
5
211
100
AcDbEntity
8
0
100
AcDbLine
10
64.645682589125954
20
28.113949795484476
30
0
11
65.715682589125976
21
26.260655431385771
31
0
0
LINE
5
212
100
AcDbEntity
8
0
100
AcDbLine
10
71.096208684486271
20
24.420000000000005
30
0
11
71.096208684486257
21
21.474469442117559
31
0
0
ARC
5
213
100
AcDbEntity
8
0
100
AcDbCircle
10
61.795223354293299
20
27.160961817446413
30
0
40
0.59991781893420715
100
AcDbArc
50
203.92167115340945
51
299.99999999999983
0
LINE
5
214
100
AcDbEntity
8
0
100
AcDbLine
10
68.956208684486256
20
24.420000000000005
30
0
11
71.096208684486271
21
24.420000000000005
31
0
0
LINE
5
215
100
AcDbEntity
8
0
100
AcDbLine
10
74.310526095360302
20
26.306050204515525
30
0
11
75.380526095360295
21
28.15934456861423
31
0
0
LINE
5
216
100
AcDbEntity
8
0
100
AcDbLine
10
75.354317410874046
20
31.886050204515513
30
0
11
74.284317410874024
21
33.739344568614214
31
0
0
LINE
5
217
100
AcDbEntity
8
0
100
AcDbLine
10
63.13897357927415
20
65.16648184490252
30
0
11
65.689473904639712
21
63.693949795484471
31
0
0
LINE
5
218
100
AcDbEntity
8
0
100
AcDbLine
10
64.619473904639705
20
31.84065543138578
30
0
11
62.068569613890162
21
33.313420710327001
31
0
0
LINE
5
219
100
AcDbEntity
8
0
100
AcDbLine
10
68.956208684486256
20
21.474935901163931
30
0
11
68.956208684486256
21
24.420000000000005
31
0
0
LINE
5
220
100
AcDbEntity
8
0
100
AcDbLine
10
76.861026420725864
20
24.833518155097494
30
0
11
74.310526095360302
21
26.306050204515525
31
0
0
LINE
5
221
100
AcDbEntity
8
0
100
AcDbLine
10
75.380526095360295
20
28.15934456861423
30
0
11
77.931430386109838
21
26.686579289673009
31
0
0
LINE
5
222
100
AcDbEntity
8
0
100
AcDbLine
10
65.689473904639712
20
33.693949795484471
30
0
11
64.619473904639705
21
31.84065543138578
31
0
0
ARC
5
223
100
AcDbEntity
8
0
100
AcDbCircle
10
63.438932488741244
20
35.686025916282489
30
0
40
0.59991781893420304
100
AcDbArc
50
143.92167115340953
51
240.00000000000074
0
ARC
5
224
100
AcDbEntity
8
0
100
AcDbCircle
10
78.204776645706715
20
32.83903818255358
30
0
40
0.59991781893420715
100
AcDbArc
50
23.92167115340942
51
120.00000000000043
0
ARC
5
225
100
AcDbEntity
8
0
100
AcDbCircle
10
68.303294760745288
20
68.525530557882448
30
0
40
0.60049655476844599
100
AcDbArc
50
0
51
88.803590836832925
0
LINE
5
226
100
AcDbEntity
8
0
100
AcDbLine
10
74.284317410874024
20
63.739344568614214
30
0
11
76.835221701623595
21
65.212109847555439
31
0
0
LINE
5
227
100
AcDbEntity
8
0
100
AcDbLine
10
71.043791315513744
20
68.525064098836083
30
0
11
71.043791315513744
21
65.579999999999998
31
0
0
LINE
5
228
100
AcDbEntity
8
0
100
AcDbLine
10
65.715682589125976
20
26.260655431385771
30
0
11
63.164778298376419
21
24.78789015244455
31
0
0
ARC
5
229
100
AcDbEntity
8
0
100
AcDbCircle
10
63.438932488741244
20
65.686025916282489
30
0
40
0.59991781893420304
100
AcDbArc
50
143.92167115340953
51
240.00000000000045
0
LINE
5
230
100
AcDbEntity
8
0
100
AcDbLine
10
62.0951822637604
20
26.641417746066438
30
0
11
64.645682589125954
21
28.113949795484476
31
0
0
ARC
5
231
100
AcDbEntity
8
0
100
AcDbCircle
10
78.231678663494066
20
57.206624560987514
30
0
40
0.60049655476844277
100
AcDbArc
50
239.99999999999963
51
328.80359083683305
0
ARC
5
232
100
AcDbEntity
8
0
100
AcDbCircle
10
76.534973424239354
20
35.732155118869947
30
0
40
0.60049655476844721
100
AcDbArc
50
-59.999999999998515
51
28.803590836832306
0
ARC
5
233
100
AcDbEntity
8
0
100
AcDbCircle
10
78.231678663494066
20
27.206624560987514
30
0
40
0.60049655476844277
100
AcDbArc
50
239.99999999999949
51
328.80359083683305
0
ARC
5
234
100
AcDbEntity
8
0
100
AcDbCircle
10
61.768321336505934
20
32.793375439012493
30
0
40
0.60049655476844721
100
AcDbArc
50
59.999999999999652
51
148.803590836833
0
ARC
5
235
100
AcDbEntity
8
0
100
AcDbCircle
10
68.35629086555204
20
21.474935901163935
30
0
40
0.59991781893420826
100
AcDbArc
50
263.92167115341016
51
360
0
ARC
5
236
100
AcDbEntity
8
0
100
AcDbCircle
10
71.696705239254698
20
21.474469442117559
30
0
40
0.60049655476844599
100
AcDbArc
50
180
51
268.80359083683294
0
LINE
5
237
100
AcDbEntity
8
0
100
AcDbLine
10
-17.860000149011643
20
44.98000014901163
30
0
11
-17.860000149011643
21
47.926000149011628
31
0
0
LINE
5
238
100
AcDbEntity
8
0
100
AcDbLine
10
-15.720000149011643
20
44.98000014901163
30
0
11
-15.720000149011643
21
47.926000149011628
31
0
0
ARC
5
239
100
AcDbEntity
8
0
100
AcDbCircle
10
-14.942237713209996
20
47.926000149011628
30
0
40
0.77776243580164328
100
AcDbArc
50
95.637985159509327
51
180
0
ARC
5
240
100
AcDbEntity
8
0
100
AcDbCircle
10
-18.637762584813238
20
47.926000149011628
30
0
40
0.77776243580164994
100
AcDbArc
50
0
51
84.362014840490787
0
LINE
5
241
100
AcDbEntity
8
0
100
AcDbLine
10
-24.070000149011651
20
48.700000149011615
30
0
11
-18.561353118488007
21
48.700000149011643
31
0
0
LINE
5
242
100
AcDbEntity
8
0
100
AcDbLine
10
-15.018647179535227
20
48.700000149011629
30
0
11
-9.5100001490116508
21
48.70000014901165
31
0
0
ARC
5
243
100
AcDbEntity
8
0
100
AcDbCircle
10
-18.637762584813274
20
8.914000149011617
30
0
40
0.7777624358016475
100
AcDbArc
50
275.63798515950907
51
360
0
LINE
5
244
100
AcDbEntity
8
0
100
AcDbLine
10
-17.860000149011675
20
11.860000149011611
30
0
11
-17.860000149011682
21
8.9140001490116116
31
0
0
LINE
5
245
100
AcDbEntity
8
0
100
AcDbLine
10
-15.720000149011675
20
11.860000149011611
30
0
11
-15.720000149011636
21
8.9140001490116134
31
0
0
ARC
5
246
100
AcDbEntity
8
0
100
AcDbCircle
10
-14.942237713209988
20
8.9140001490116116
30
0
40
0.77776243580164772
100
AcDbArc
50
180
51
264.36201484048695
0
LINE
5
247
100
AcDbEntity
8
0
100
AcDbLine
10
-24.07000014901169
20
8.140000149011648
30
0
11
-18.561353118488046
21
8.1400001490116125
31
0
0
LINE
5
248
100
AcDbEntity
8
0
100
AcDbLine
10
-15.018647179535268
20
8.1400001490116125
30
0
11
-9.5100001490116899
21
8.140000149011577
31
0
0
LINE
5
249
100
AcDbEntity
8
0
100
AcDbLine
10
7.1399998509883567
20
44.980000149011623
30
0
11
9.2799998509883572
21
44.98000014901163
31
0
0
LINE
5
250
100
AcDbEntity
8
0
100
AcDbLine
10
7.1399998509883877
20
11.860000149011611
30
0
11
9.2799998509883874
21
11.860000149011611
31
0
0
LINE
5
251
100
AcDbEntity
8
0
100
AcDbLine
10
17.489999850988418
20
46.700000149011615
30
0
11
17.489999850988383
21
10.140000149011613
31
0
0
LINE
5
252
100
AcDbEntity
8
0
100
AcDbLine
10
-1.0700001490116473
20
46.700000149011615
30
0
11
-1.0700001490116118
21
10.140000149011613
31
0
0
LINE
5
253
100
AcDbEntity
8
0
100
AcDbLine
10
-1.0700001490116118
20
8.1400001490116107
30
0
11
17.489999850988383
21
48.700000149011615
31
0
0
LINE
5
254
100
AcDbEntity
8
0
100
AcDbLine
10
17.489999850988383
20
8.1400001490116125
30
0
11
-1.070000149011614
21
48.700000149011615
31
0
0
LINE
5
255
100
AcDbEntity
8
0
100
AcDbLine
10
7.1399998509883567
20
44.980000149011623
30
0
11
7.1399998509883567
21
47.926000149011621
31
0
0
LINE
5
256
100
AcDbEntity
8
0
100
AcDbLine
10
8.2099998509883854
20
28.420000149011621
30
0
11
8.2099998509883854
21
8.1400001490116125
31
0
0
ARC
5
257
100
AcDbEntity
8
0
100
AcDbCircle
10
10.057762286789966
20
8.9140001490116116
30
0
40
0.7777624358016455
100
AcDbArc
50
180
51
264.36201484048729
0
LINE
5
258
100
AcDbEntity
8
0
100
AcDbLine
10
9.2799998509883572
20
44.98000014901163
30
0
11
9.2799998509883572
21
47.926000149011628
31
0
0
ARC
5
259
100
AcDbEntity
8
0
100
AcDbCircle
10
0.92999985098838778
20
10.140000149011609
30
0
40
1.9999999999999996
100
AcDbArc
50
180
51
270
0
LINE
5
260
100
AcDbEntity
8
0
100
AcDbLine
10
9.9813528204647728
20
48.700000149011629
30
0
11
15.489999850988351
21
48.70000014901165
31
0
0
LINE
5
261
100
AcDbEntity
8
0
100
AcDbLine
10
7.1399998509883256
20
11.860000149011611
30
0
11
7.1399998509883167
21
8.9140001490116116
31
0
0
ARC
5
262
100
AcDbEntity
8
0
100
AcDbCircle
10
15.489999850988351
20
46.700000149011636
30
0
40
1.9999999999999973
100
AcDbArc
50
0
51
90
0
LINE
5
263
100
AcDbEntity
8
0
100
AcDbLine
10
8.2099998509883854
20
28.420000149011621
30
0
11
17.489999850988383
21
28.420000149011614
31
0
0
ARC
5
264
100
AcDbEntity
8
0
100
AcDbCircle
10
6.3622374151867245
20
8.914000149011617
30
0
40
0.7777624358016475
100
AcDbArc
50
275.63798515950913
51
360
0
ARC
5
265
100
AcDbEntity
8
0
100
AcDbCircle
10
15.489999850988386
20
10.140000149011613
30
0
40
1.9999999999999996
100
AcDbArc
50
-90
51
0
0
LINE
5
266
100
AcDbEntity
8
0
100
AcDbLine
10
9.9813528204646893
20
8.1400001490116125
30
0
11
15.489999850988312
21
8.140000149011577
31
0
0
ARC
5
267
100
AcDbEntity
8
0
100
AcDbCircle
10
10.057762286790002
20
47.926000149011628
30
0
40
0.77776243580164306
100
AcDbArc
50
95.637985159509199
51
180
0
ARC
5
268
100
AcDbEntity
8
0
100
AcDbCircle
10
6.3622374151867689
20
47.926000149011628
30
0
40
0.7777624358016455
100
AcDbArc
50
0
51
84.362014840490914
0
LINE
5
269
100
AcDbEntity
8
0
100
AcDbLine
10
0.92999985098835003
20
48.700000149011622
30
0
11
6.4386468815119979
21
48.700000149011643
31
0
0
LINE
5
270
100
AcDbEntity
8
0
100
AcDbLine
10
9.2799998509883252
20
11.860000149011611
30
0
11
9.2799998509883217
21
8.9140001490116134
31
0
0
LINE
5
271
100
AcDbEntity
8
0
100
AcDbLine
10
-1.070000149011614
20
28.420000149011614
30
0
11
8.2099998509883854
21
28.420000149011621
31
0
0
ARC
5
272
100
AcDbEntity
8
0
100
AcDbCircle
10
0.92999985098835225
20
46.700000149011622
30
0
40
2.0000000000000018
100
AcDbArc
50
90.000000000000057
51
180
0
LINE
5
273
100
AcDbEntity
8
0
100
AcDbLine
10
0.92999985098831006
20
8.140000149011648
30
0
11
6.4386468815119535
21
8.1400001490116125
31
0
0
ARC
5
274
100
AcDbEntity
8
0
100
AcDbCircle
10
6.3622374151867245
20
53.914000149011621
30
0
40
0.77776243580165194
100
AcDbArc
50
275.63798515950913
51
360
0
ARC
5
275
100
AcDbEntity
8
0
100
AcDbCircle
10
0.92999985098838778
20
55.140000149011605
30
0
40
1.9999999999999996
100
AcDbArc
50
180
51
270
0
ARC
5
276
100
AcDbEntity
8
0
100
AcDbCircle
10
0.92999985098835281
20
91.700000149011615
30
0
40
2.0000000000000107
100
AcDbArc
50
90.000000000000114
51
180
0
ARC
5
277
100
AcDbEntity
8
0
100
AcDbCircle
10
6.3622374151867689
20
92.926000149011628
30
0
40
0.7777624358016455
100
AcDbArc
50
0
51
84.362014840490801
0
ARC
5
278
100
AcDbEntity
8
0
100
AcDbCircle
10
10.057762286789966
20
53.914000149011613
30
0
40
0.7777624358016455
100
AcDbArc
50
180
51
264.36201484048729
0
LINE
5
279
100
AcDbEntity
8
0
100
AcDbLine
10
-7.5100001490115869
20
91.700000149011615
30
0
11
-7.5100001490116135
21
55.140000149011613
31
0
0
LINE
5
280
100
AcDbEntity
8
0
100
AcDbLine
10
-1.0700001490116473
20
91.700000149011615
30
0
11
-1.0700001490116118
21
55.140000149011613
31
0
0
LINE
5
281
100
AcDbEntity
8
0
100
AcDbLine
10
8.2099998509883854
20
73.420000149011614
30
0
11
17.489999850988383
21
73.420000149011614
31
0
0
ARC
5
282
100
AcDbEntity
8
0
100
AcDbCircle
10
15.489999850988351
20
91.700000149011643
30
0
40
1.9999999999999973
100
AcDbArc
50
0
51
90.000000000000057
0
LINE
5
283
100
AcDbEntity
8
0
100
AcDbLine
10
-26.070000149011648
20
91.700000149011615
30
0
11
-26.070000149011612
21
55.140000149011613
31
0
0
LINE
5
284
100
AcDbEntity
8
0
100
AcDbLine
10
-1.0700001490116118
20
53.140000149011613
30
0
11
17.489999850988383
21
93.700000149011629
31
0
0
LINE
5
285
100
AcDbEntity
8
0
100
AcDbLine
10
17.489999850988383
20
53.140000149011613
30
0
11
-1.070000149011614
21
93.700000149011629
31
0
0
LINE
5
286
100
AcDbEntity
8
0
100
AcDbLine
10
-26.070000149011612
20
53.140000149011613
30
0
11
-7.5100001490116162
21
93.700000149011629
31
0
0
LINE
5
287
100
AcDbEntity
8
0
100
AcDbLine
10
-7.5100001490116135
20
53.140000149011613
30
0
11
-26.070000149011612
21
93.700000149011629
31
0
0
ARC
5
288
100
AcDbEntity
8
0
100
AcDbCircle
10
15.489999850988386
20
55.140000149011613
30
0
40
2.0000000000000018
100
AcDbArc
50
-90
51
0
0
LINE
5
289
100
AcDbEntity
8
0
100
AcDbLine
10
17.489999850988418
20
91.700000149011615
30
0
11
17.489999850988383
21
55.140000149011613
31
0
0
LINE
5
290
100
AcDbEntity
8
0
100
AcDbLine
10
9.9813528204646893
20
53.140000149011613
30
0
11
15.489999850988312
21
53.140000149011577
31
0
0
LINE
5
291
100
AcDbEntity
8
0
100
AcDbLine
10
9.9813528204647728
20
93.700000149011629
30
0
11
15.489999850988349
21
93.700000149011643
31
0
0
ARC
5
292
100
AcDbEntity
8
0
100
AcDbCircle
10
-24.070000149011648
20
91.700000149011629
30
0
40
1.9999999999999929
100
AcDbArc
50
90
51
180
0
LINE
5
293
100
AcDbEntity
8
0
100
AcDbLine
10
-24.070000149011648
20
93.700000149011629
30
0
11
-18.561353118488007
21
93.700000149011629
31
0
0
LINE
5
294
100
AcDbEntity
8
0
100
AcDbLine
10
-17.860000149011647
20
89.98000014901163
30
0
11
-17.860000149011647
21
92.926000149011628
31
0
0
LINE
5
295
100
AcDbEntity
8
0
100
AcDbLine
10
-15.018647179535227
20
93.700000149011629
30
0
11
-9.5100001490116508
21
93.700000149011657
31
0
0
LINE
5
296
100
AcDbEntity
8
0
100
AcDbLine
10
7.1399998509883558
20
89.98000014901163
30
0
11
9.2799998509883572
21
89.98000014901163
31
0
0
ARC
5
297
100
AcDbEntity
8
0
100
AcDbCircle
10
-9.5100001490116135
20
55.140000149011613
30
0
40
2.0000000000000018
100
AcDbArc
50
-90
51
0
0
ARC
5
298
100
AcDbEntity
8
0
100
AcDbCircle
10
-18.637762584813274
20
53.914000149011621
30
0
40
0.77776243580165194
100
AcDbArc
50
275.63798515950907
51
360
0
LINE
5
299
100
AcDbEntity
8
0
100
AcDbLine
10
-17.860000149011647
20
89.98000014901163
30
0
11
-15.720000149011643
21
89.98000014901163
31
0
0
ARC
5
300
100
AcDbEntity
8
0
100
AcDbCircle
10
-24.070000149011612
20
55.140000149011605
30
0
40
2.0000000000000018
100
AcDbArc
50
180
51
270
0
ARC
5
301
100
AcDbEntity
8
0
100
AcDbCircle
10
-14.942237713210034
20
53.914000149011599
30
0
40
0.77776243580164772
100
AcDbArc
50
180
51
264.36201484049059
0
LINE
5
302
100
AcDbEntity
8
0
100
AcDbLine
10
0.92999985098831006
20
53.140000149011648
30
0
11
6.4386468815119535
21
53.140000149011613
31
0
0
LINE
5
303
100
AcDbEntity
8
0
100
AcDbLine
10
8.2099998509883854
20
73.420000149011614
30
0
11
8.2099998509883854
21
53.140000149011613
31
0
0
LINE
5
304
100
AcDbEntity
8
0
100
AcDbLine
10
-15.018647179535265
20
53.140000149011605
30
0
11
-9.5100001490116899
21
53.140000149011577
31
0
0
LINE
5
305
100
AcDbEntity
8
0
100
AcDbLine
10
-16.790000149011615
20
73.420000149011614
30
0
11
-16.790000149011611
21
53.140000149011613
31
0
0
ARC
5
306
100
AcDbEntity
8
0
100
AcDbCircle
10
-14.942237713209996
20
92.926000149011628
30
0
40
0.77776243580163451
100
AcDbArc
50
95.637985159509327
51
180
0
LINE
5
307
100
AcDbEntity
8
0
100
AcDbLine
10
7.1399998509883256
20
56.860000149011611
30
0
11
7.1399998509883167
21
53.914000149011613
31
0
0
LINE
5
308
100
AcDbEntity
8
0
100
AcDbLine
10
-15.720000149011675
20
56.860000149011611
30
0
11
-15.720000149011682
21
53.914000149011599
31
0
0
LINE
5
309
100
AcDbEntity
8
0
100
AcDbLine
10
-17.860000149011611
20
56.860000149011611
30
0
11
-15.720000149011613
21
56.860000149011611
31
0
0
LINE
5
310
100
AcDbEntity
8
0
100
AcDbLine
10
-24.07000014901169
20
53.140000149011648
30
0
11
-18.561353118488046
21
53.140000149011613
31
0
0
ARC
5
311
100
AcDbEntity
8
0
100
AcDbCircle
10
-9.5100001490116473
20
91.700000149011643
30
0
40
1.9999999999999996
100
AcDbArc
50
0
51
90.000000000000099
0
LINE
5
312
100
AcDbEntity
8
0
100
AcDbLine
10
-17.860000149011675
20
56.860000149011611
30
0
11
-17.860000149011682
21
53.914000149011613
31
0
0
ARC
5
313
100
AcDbEntity
8
0
100
AcDbCircle
10
10.057762286790002
20
92.926000149011628
30
0
40
0.77776243580163429
100
AcDbArc
50
95.637985159509199
51
180
0
LINE
5
314
100
AcDbEntity
8
0
100
AcDbLine
10
-16.790000149011615
20
73.420000149011614
30
0
11
-7.5100001490116153
21
73.420000149011614
31
0
0
LINE
5
315
100
AcDbEntity
8
0
100
AcDbLine
10
9.2799998509883252
20
56.860000149011611
30
0
11
9.2799998509883217
21
53.914000149011613
31
0
0
ARC
5
316
100
AcDbEntity
8
0
100
AcDbCircle
10
-18.637762584813238
20
92.926000149011628
30
0
40
0.77776243580164772
100
AcDbArc
50
0
51
84.362014840490673
0
LINE
5
317
100
AcDbEntity
8
0
100
AcDbLine
10
-1.070000149011614
20
73.420000149011614
30
0
11
8.2099998509883854
21
73.420000149011614
31
0
0
LINE
5
318
100
AcDbEntity
8
0
100
AcDbLine
10
-26.070000149011612
20
73.420000149011614
30
0
11
-16.790000149011615
21
73.420000149011614
31
0
0
LINE
5
319
100
AcDbEntity
8
0
100
AcDbLine
10
7.1399998509883877
20
56.860000149011611
30
0
11
9.2799998509883874
21
56.860000149011611
31
0
0
LINE
5
320
100
AcDbEntity
8
0
100
AcDbLine
10
-15.720000149011643
20
89.98000014901163
30
0
11
-15.720000149011643
21
92.926000149011628
31
0
0
LINE
5
321
100
AcDbEntity
8
0
100
AcDbLine
10
7.1399998509883558
20
89.98000014901163
30
0
11
7.1399998509883558
21
92.926000149011628
31
0
0
LINE
5
322
100
AcDbEntity
8
0
100
AcDbLine
10
9.2799998509883572
20
89.98000014901163
30
0
11
9.2799998509883572
21
92.926000149011628
31
0
0
LINE
5
323
100
AcDbEntity
8
0
100
AcDbLine
10
0.92999985098834892
20
93.700000149011629
30
0
11
6.4386468815119979
21
93.700000149011629
31
0
0
LWPOLYLINE
5
324
100
AcDbEntity
8
0
100
AcDbPolyline
90
4
70
1
43
0.0
10
-59.560000804662707
20
51.000000759959221
10
-54.000000804662704
20
51.000000759959221
10
-54.000000804662704
20
38.440000759959219
10
-59.560000804662707
20
38.440000759959219
0
ENDSEC
0
SECTION
2
OBJECTS
0
DICTIONARY
5
C
100
AcDbDictionary
3
ACAD_GROUP
350
D
3
ACAD_MLINESTYLE
350
17
0
DICTIONARY
5
D
100
AcDbDictionary
0
DICTIONARY
5
1A
330
C
100
AcDbDictionary
0
DICTIONARY
5
17
100
AcDbDictionary
0
ENDSEC
0
EOF
