0
SECTION
2
HEADER
9
$INSUNITS
70
4
9
$ACADVER
1
AC1014
9
$HANDSEED
5
FFFF
0
ENDSEC
0
SECTION
2
TABLES
0
TABLE
2
VPORT
5
8
100
AcDbSymbolTable
0
ENDTAB
0
TABLE
2
LTYPE
5
5
100
AcDbSymbolTable
0
LTYPE
5
14
100
AcDbSymbolTableRecord
100
AcDbLinetypeTableRecord
2
BYBLOCK
70
0
0
LTYPE
5
15
100
AcDbSymbolTableRecord
100
AcDbLinetypeTableRecord
2
BYLAYER
70
0
0
ENDTAB
0
TABLE
2
LAYER
5
2
100
AcDbSymbolTable
70
2
0
LAYER
5
50
100
AcDbSymbolTableRecord
100
AcDbLayerTableRecord
2
0
70
0
6
CONTINUOUS
0
ENDTAB
0
TABLE
2
STYLE
5
3
100
AcDbSymbolTable
70
1
0
STYLE
5
11
100
AcDbSymbolTableRecord
100
AcDbTextStyleTableRecord
2
STANDARD
70
0
0
ENDTAB
0
TABLE
2
VIEW
5
6
100
AcDbSymbolTable
70
0
0
ENDTAB
0
TABLE
2
UCS
5
7
100
AcDbSymbolTable
70
0
0
ENDTAB
0
TABLE
2
APPID
5
9
100
AcDbSymbolTable
70
2
0
APPID
5
12
100
AcDbSymbolTableRecord
100
AcDbRegAppTableRecord
2
ACAD
70
0
0
ENDTAB
0
TABLE
2
DIMSTYLE
5
A
100
AcDbSymbolTable
70
1
0
ENDTAB
0
TABLE
2
BLOCK_RECORD
5
1
100
AcDbSymbolTable
70
1
0
BLOCK_RECORD
5
1F
100
AcDbSymbolTableRecord
100
AcDbBlockTableRecord
2
*MODEL_SPACE
0
BLOCK_RECORD
5
1B
100
AcDbSymbolTableRecord
100
AcDbBlockTableRecord
2
*PAPER_SPACE
0
ENDTAB
0
ENDSEC
0
SECTION
2
BLOCKS
0
BLOCK
5
20
100
AcDbEntity
100
AcDbBlockBegin
2
*MODEL_SPACE
0
ENDBLK
5
21
100
AcDbEntity
100
AcDbBlockEnd
0
BLOCK
5
1C
100
AcDbEntity
100
AcDbBlockBegin
2
*PAPER_SPACE
0
ENDBLK
5
1D
100
AcDbEntity
100
AcDbBlockEnd
0
ENDSEC
0
SECTION
2
ENTITIES
0
LWPOLYLINE
5
100
100
AcDbEntity
8
0
100
AcDbPolyline
90
4
70
1
43
0.0
10
74.999999999999986
20
100.00000000000001
10
74.999999999999986
20
-100.00000000000001
10
-74.999999999999986
20
-100.00000000000001
10
-74.999999999999986
20
100.00000000000001
0
LINE
5
101
100
AcDbEntity
8
0
100
AcDbLine
10
1.510242041286032
20
-11.438059928374148
30
0
11
-1.4897579587139751
21
-11.438059928374148
31
0
0
LINE
5
102
100
AcDbEntity
8
0
100
AcDbLine
10
-1.4897579587139751
20
-11.438059928374148
30
0
11
-1.4897579587139751
21
-61.438059928374152
31
0
0
LINE
5
103
100
AcDbEntity
8
0
100
AcDbLine
10
-1.4897579587139751
20
-61.438059928374152
30
0
11
1.510242041286032
21
-61.438059928374152
31
0
0
LINE
5
104
100
AcDbEntity
8
0
100
AcDbLine
10
1.510242041286032
20
-61.438059928374152
30
0
11
1.510242041286032
21
-11.438059928374148
31
0
0
LINE
5
105
100
AcDbEntity
8
0
100
AcDbLine
10
1.510242041286032
20
-11.438059928374148
30
0
11
-1.4897579587139751
21
-61.438059928374152
31
0
0
LINE
5
106
100
AcDbEntity
8
0
100
AcDbLine
10
-1.4897579587139751
20
-11.438059928374148
30
0
11
1.510242041286032
21
-61.438059928374152
31
0
0
LWPOLYLINE
5
107
100
AcDbEntity
8
0
100
AcDbPolyline
90
4
70
1
43
0.0
10
16.479990184628505
20
-11.447455209554613
10
16.479990184628505
20
-61.447455209554612
10
13.479990184628496
20
-61.447455209554612
10
13.479990184628496
20
-11.447455209554613
0
LINE
5
108
100
AcDbEntity
8
0
100
AcDbLine
10
13.479990184628496
20
-11.447455209554613
30
0
11
13.479990184628496
21
-61.447455209554612
31
0
0
LINE
5
109
100
AcDbEntity
8
0
100
AcDbLine
10
16.479990184628505
20
-61.447455209554612
30
0
11
16.479990184628505
21
-11.447455209554613
31
0
0
LWPOLYLINE
5
110
100
AcDbEntity
8
0
100
AcDbPolyline
90
4
70
1
43
0.0
10
-13.463318505470623
20
-11.445404252637195
10
-13.463318505470639
20
-61.445404252636706
10
-16.463318505470617
20
-61.445404252636706
10
-16.4633185054706
20
-11.445404252637193
0
LINE
5
111
100
AcDbEntity
8
0
100
AcDbLine
10
61.456817878512837
20
-61.447455209554619
30
0
11
61.456817878512837
21
-11.447455209554622
31
0
0
LWPOLYLINE
5
112
100
AcDbEntity
8
0
100
AcDbPolyline
90
4
70
1
43
0.0
10
61.456817878512837
20
-61.447455209554619
10
58.456817878512823
20
-61.447455209554619
10
58.45681787851283
20
-11.447455209554622
10
61.456817878512837
20
-11.447455209554622
0
LINE
5
113
100
AcDbEntity
8
0
100
AcDbLine
10
43.487069735170351
20
-61.438059928374159
30
0
11
46.487069735170365
21
-61.438059928374159
31
0
0
LINE
5
114
100
AcDbEntity
8
0
100
AcDbLine
10
58.45681787851283
20
-11.447455209554622
30
0
11
58.45681787851283
21
-61.447455209554619
31
0
0
LINE
5
115
100
AcDbEntity
8
0
100
AcDbLine
10
43.487069735170358
20
-11.438059928374159
30
0
11
46.487069735170365
21
-61.438059928374159
31
0
0
LINE
5
116
100
AcDbEntity
8
0
100
AcDbLine
10
46.487069735170365
20
-61.438059928374159
30
0
11
46.487069735170365
21
-11.438059928374159
31
0
0
LINE
5
117
100
AcDbEntity
8
0
100
AcDbLine
10
43.487069735170358
20
-11.438059928374159
30
0
11
43.487069735170351
21
-61.438059928374159
31
0
0
LWPOLYLINE
5
118
100
AcDbEntity
8
0
100
AcDbPolyline
90
4
70
1
43
0.0
10
28.513509188413714
20
-61.445404252636713
10
31.513509188413693
20
-61.445404252636713
10
31.513509188413707
20
-11.445404252637202
10
28.513509188413728
20
-11.445404252637204
0
LINE
5
119
100
AcDbEntity
8
0
100
AcDbLine
10
46.487069735170365
20
-11.438059928374159
30
0
11
43.487069735170351
21
-61.438059928374159
31
0
0
LINE
5
120
100
AcDbEntity
8
0
100
AcDbLine
10
46.487069735170365
20
-11.438059928374159
30
0
11
43.487069735170358
21
-11.438059928374159
31
0
0
LINE
5
121
100
AcDbEntity
8
0
100
AcDbLine
10
-28.436224415166976
20
-61.425000259016613
30
0
11
-28.436224415166976
21
-11.425000259016617
31
0
0
LWPOLYLINE
5
122
100
AcDbEntity
8
0
100
AcDbPolyline
90
4
70
1
43
0.0
10
-28.436224415166976
20
-61.425000259016613
10
-31.43622441516699
20
-61.425000259016613
10
-31.436224415166983
20
-11.425000259016617
10
-28.436224415166976
20
-11.425000259016613
0
LINE
5
123
100
AcDbEntity
8
0
100
AcDbLine
10
-46.405972558509461
20
-61.415604977836153
30
0
11
-43.405972558509447
21
-61.415604977836153
31
0
0
LINE
5
124
100
AcDbEntity
8
0
100
AcDbLine
10
-31.436224415166983
20
-11.425000259016617
30
0
11
-31.436224415166983
21
-61.425000259016613
31
0
0
LINE
5
125
100
AcDbEntity
8
0
100
AcDbLine
10
-46.405972558509454
20
-11.415604977836153
30
0
11
-43.405972558509447
21
-61.415604977836153
31
0
0
LINE
5
126
100
AcDbEntity
8
0
100
AcDbLine
10
-43.405972558509447
20
-61.415604977836153
30
0
11
-43.405972558509447
21
-11.415604977836153
31
0
0
LINE
5
127
100
AcDbEntity
8
0
100
AcDbLine
10
-46.405972558509454
20
-11.415604977836153
30
0
11
-46.405972558509461
21
-61.415604977836153
31
0
0
LWPOLYLINE
5
128
100
AcDbEntity
8
0
100
AcDbPolyline
90
4
70
1
43
0.0
10
-61.379533105266106
20
-61.422949302098715
10
-58.37953310526612
20
-61.422949302098715
10
-58.379533105266106
20
-11.422949302099196
10
-61.379533105266084
20
-11.422949302099195
0
LINE
5
129
100
AcDbEntity
8
0
100
AcDbLine
10
-43.405972558509447
20
-11.415604977836153
30
0
11
-46.405972558509461
21
-61.415604977836153
31
0
0
LINE
5
130
100
AcDbEntity
8
0
100
AcDbLine
10
-43.405972558509447
20
-11.415604977836153
30
0
11
-46.405972558509454
21
-11.415604977836153
31
0
0
ENDSEC
0
SECTION
2
OBJECTS
0
DICTIONARY
5
C
100
AcDbDictionary
3
ACAD_GROUP
350
D
3
ACAD_MLINESTYLE
350
17
0
DICTIONARY
5
D
100
AcDbDictionary
0
DICTIONARY
5
1A
330
C
100
AcDbDictionary
0
DICTIONARY
5
17
100
AcDbDictionary
0
ENDSEC
0
EOF
