0
SECTION
2
HEADER
9
$ANGDIR
70
1
9
$AUNITS
70
0
9
$PROJECTNAME
1
output_device
9
$TDCREATE
40
2458800.89642323
9
$INSUNITS
70
4
0
ENDSEC
0
SECTION
2
ENTITIES
0
POLYLINE
66
1
8
outline
10
0.0
20
0.0
30
0.0
70
1
0
VERTEX
8
0
10
0
20
0
30
0
0
VERTEX
8
0
10
160
20
0
30
0
0
VERTEX
8
0
10
160
20
100
30
0
0
VERTEX
8
0
10
0
20
100
30
0
0
VERTEX
8
0
10
0
20
0
30
0
0
SEQEND
0
POLYLINE
66
1
8
1_copper
10
0.0
20
0.0
30
0.0
70
1
0
VERTEX
8
0
10
10.16
20
6.985
30
0
0
VERTEX
8
0
10
8.27735625
20
6.985
30
0
0
VERTEX
8
0
10
5.840800000000001
20
9.42155625
30
0
0
VERTEX
8
0
10
5.840800000000001
20
18.06654375
30
0
0
VERTEX
8
0
10
10.426578125
20
22.652321875000002
30
0
42
0.19891236737965798
0
VERTEX
8
0
10
10.4998
20
22.8291
30
0
0
VERTEX
8
0
10
10.4998
20
26.5563
30
0
42
0.19891236737965798
0
VERTEX
8
0
10
10.426578125
20
26.733078125000002
30
0
0
VERTEX
8
0
10
9.494778125
20
27.664878125
30
0
42
0.19891236737965798
0
VERTEX
8
0
10
9.318
20
27.738100000000003
30
0
0
VERTEX
8
0
10
8.3862
20
27.738100000000003
30
0
42
0.3399666188740086
0
VERTEX
8
0
10
8.134678125
20
27.555
30
0
0
VERTEX
8
0
10
7.176
20
27.555
30
0
0
VERTEX
8
0
10
7.176
20
27.055
30
0
0
VERTEX
8
0
10
9.376000000000001
20
27.055
30
0
0
VERTEX
8
0
10
9.376000000000001
20
27.076543750000003
30
0
0
VERTEX
8
0
10
9.9998
20
26.45274375
30
0
0
VERTEX
8
0
10
9.9998
20
22.93265625
30
0
0
VERTEX
8
0
10
5.414021875
20
18.346878125
30
0
42
0.19891236737965798
0
VERTEX
8
0
10
5.340800000000001
20
18.1701
30
0
0
VERTEX
8
0
10
5.340800000000001
20
9.318
30
0
42
0.19891236737965798
0
VERTEX
8
0
10
5.414021875
20
9.141221875000001
30
0
0
VERTEX
8
0
10
7.62
20
6.935243750000001
30
0
0
VERTEX
8
0
10
7.62
20
5.715
30
0
0
VERTEX
8
0
10
10.16
20
5.715
30
0
0
SEQEND
0
POLYLINE
66
1
8
1_copper
10
0.0
20
0.0
30
0.0
70
1
0
VERTEX
8
0
10
12.58130625
20
4.409159375
30
0
42
0.19682628245095668
0
VERTEX
8
0
10
12.756078125
20
4.4822218750000005
30
0
0
VERTEX
8
0
10
13.988856250000001
20
5.715
30
0
0
VERTEX
8
0
10
15.620000000000001
20
5.715
30
0
0
VERTEX
8
0
10
15.620000000000001
20
6.985
30
0
0
VERTEX
8
0
10
13.08
20
6.985
30
0
0
VERTEX
8
0
10
13.08
20
5.715
30
0
0
VERTEX
8
0
10
13.28174375
20
5.715
30
0
0
VERTEX
8
0
10
12.475743750000001
20
4.909
30
0
0
VERTEX
8
0
10
7.55795625
20
4.909
30
0
0
VERTEX
8
0
10
4.909
20
7.55795625
30
0
0
VERTEX
8
0
10
4.909
20
18.532443750000002
30
0
0
VERTEX
8
0
10
8.097078125000001
20
21.720521875
30
0
42
0.19891236737965798
0
VERTEX
8
0
10
8.170300000000001
20
21.8973
30
0
0
VERTEX
8
0
10
8.170300000000001
20
23.152278125000002
30
0
0
VERTEX
8
0
10
8.34429375
20
23.255000000000003
30
0
0
VERTEX
8
0
10
9.376000000000001
20
23.255000000000003
30
0
0
VERTEX
8
0
10
9.376000000000001
20
23.755000000000003
30
0
0
VERTEX
8
0
10
7.176
20
23.755000000000003
30
0
0
VERTEX
8
0
10
7.176
20
23.255000000000003
30
0
0
VERTEX
8
0
10
7.6703
20
23.255000000000003
30
0
0
VERTEX
8
0
10
7.6703
20
22.000856250000002
30
0
0
VERTEX
8
0
10
4.4822218750000005
20
18.812778125
30
0
42
0.19891236737965798
0
VERTEX
8
0
10
4.409
20
18.636
30
0
0
VERTEX
8
0
10
4.409
20
7.454400000000001
30
0
42
0.19891236737965798
0
VERTEX
8
0
10
4.4822218750000005
20
7.277621875
30
0
0
VERTEX
8
0
10
7.277621875
20
4.4822218750000005
30
0
42
0.19891236737965798
0
VERTEX
8
0
10
7.454400000000001
20
4.409
30
0
0
VERTEX
8
0
10
12.5793
20
4.409
30
0
0
SEQEND
0
POLYLINE
66
1
8
1_copper
10
0.0
20
0.0
30
0.0
70
1
0
VERTEX
8
0
10
10.16
20
9.525
30
0
0
VERTEX
8
0
10
8.991728125
20
9.525
30
0
42
0.14945512729265187
0
VERTEX
8
0
10
8.8521
20
9.568
30
0
0
VERTEX
8
0
10
8.02385625
20
9.568
30
0
0
VERTEX
8
0
10
6.772600000000001
20
10.81925625
30
0
0
VERTEX
8
0
10
6.772600000000001
20
17.60064375
30
0
0
VERTEX
8
0
10
11.358378125
20
22.186421875
30
0
42
0.19891236737965798
0
VERTEX
8
0
10
11.431600000000001
20
22.363200000000003
30
0
0
VERTEX
8
0
10
11.431600000000001
20
24.12324375
30
0
0
VERTEX
8
0
10
13.14875625
20
25.840400000000002
30
0
0
VERTEX
8
0
10
13.484
20
25.840400000000002
30
0
0
VERTEX
8
0
10
13.484
20
25.785
30
0
0
VERTEX
8
0
10
15.684000000000001
20
25.785
30
0
0
VERTEX
8
0
10
15.684000000000001
20
25.840400000000002
30
0
0
VERTEX
8
0
10
15.737043750000002
20
25.840400000000002
30
0
0
VERTEX
8
0
10
17.527421875
20
24.050021875000002
30
0
42
0.19891236737965798
0
VERTEX
8
0
10
17.7042
20
23.9768
30
0
0
VERTEX
8
0
10
24.384
20
23.9768
30
0
0
VERTEX
8
0
10
24.384
20
23.177500000000002
30
0
0
VERTEX
8
0
10
25.654
20
23.177500000000002
30
0
0
VERTEX
8
0
10
25.654
20
25.0825
30
0
0
VERTEX
8
0
10
24.384
20
25.0825
30
0
0
VERTEX
8
0
10
24.384
20
24.4768
30
0
0
VERTEX
8
0
10
17.80775625
20
24.4768
30
0
0
VERTEX
8
0
10
16.017378125
20
26.267178125
30
0
42
0.19891236737965798
0
VERTEX
8
0
10
15.8406
20
26.340400000000002
30
0
0
VERTEX
8
0
10
14.908800000000001
20
26.340400000000002
30
0
42
0.04226016637769984
0
VERTEX
8
0
10
14.866765625000001
20
26.336840625
30
0
0
VERTEX
8
0
10
14.610578125
20
26.293143750000002
30
0
0
VERTEX
8
0
10
14.534265625000002
20
26.323106250000002
30
0
42
0.09380621236091893
0
VERTEX
8
0
10
14.4429
20
26.340400000000002
30
0
0
VERTEX
8
0
10
13.045200000000001
20
26.340400000000002
30
0
42
0.19891236737965798
0
VERTEX
8
0
10
12.868421875000001
20
26.267178125
30
0
0
VERTEX
8
0
10
11.004821875000001
20
24.403578125000003
30
0
42
0.19891236737965798
0
VERTEX
8
0
10
10.931600000000001
20
24.2268
30
0
0
VERTEX
8
0
10
10.931600000000001
20
22.46675625
30
0
0
VERTEX
8
0
10
6.345821875
20
17.880978125000002
30
0
42
0.19891236737965798
0
VERTEX
8
0
10
6.272600000000001
20
17.7042
30
0
0
VERTEX
8
0
10
6.272600000000001
20
10.7157
30
0
42
0.19891236737965798
0
VERTEX
8
0
10
6.345821875
20
10.538921875
30
0
0
VERTEX
8
0
10
7.62
20
9.264743750000001
30
0
0
VERTEX
8
0
10
7.62
20
8.255
30
0
0
VERTEX
8
0
10
10.16
20
8.255
30
0
0
SEQEND
0
POLYLINE
66
1
8
1_copper
10
0.0
20
0.0
30
0.0
70
1
0
VERTEX
8
0
10
10.16
20
12.065000000000001
30
0
0
VERTEX
8
0
10
10.08905625
20
12.065000000000001
30
0
0
VERTEX
8
0
10
12.290178125
20
14.266121875000001
30
0
42
0.19891236737965798
0
VERTEX
8
0
10
12.3634
20
14.4429
30
0
0
VERTEX
8
0
10
12.3634
20
23.657343750000003
30
0
0
VERTEX
8
0
10
13.14875625
20
24.442700000000002
30
0
0
VERTEX
8
0
10
14.4429
20
24.442700000000002
30
0
42
0.2152026988092847
0
VERTEX
8
0
10
14.64431875
20
24.515
30
0
0
VERTEX
8
0
10
15.684000000000001
20
24.515
30
0
0
VERTEX
8
0
10
15.684000000000001
20
25.015
30
0
0
VERTEX
8
0
10
13.484
20
25.015
30
0
0
VERTEX
8
0
10
13.484
20
24.942700000000002
30
0
0
VERTEX
8
0
10
13.045200000000001
20
24.942700000000002
30
0
42
0.19891236737965798
0
VERTEX
8
0
10
12.868421875000001
20
24.869478125
30
0
0
VERTEX
8
0
10
11.936621875
20
23.937678125
30
0
42
0.19891236737965798
0
VERTEX
8
0
10
11.8634
20
23.7609
30
0
0
VERTEX
8
0
10
11.8634
20
14.54645625
30
0
0
VERTEX
8
0
10
9.38194375
20
12.065000000000001
30
0
0
VERTEX
8
0
10
7.62
20
12.065000000000001
30
0
0
VERTEX
8
0
10
7.62
20
10.795
30
0
0
VERTEX
8
0
10
10.16
20
10.795
30
0
0
SEQEND
0
POLYLINE
66
1
8
1_copper
10
0.0
20
0.0
30
0.0
70
1
0
VERTEX
8
0
10
25.654
20
14.922500000000001
30
0
0
VERTEX
8
0
10
24.384
20
14.922500000000001
30
0
0
VERTEX
8
0
10
24.384
20
13.0175
30
0
0
VERTEX
8
0
10
25.654
20
13.0175
30
0
0
SEQEND
0
POLYLINE
66
1
8
1_copper
10
0.0
20
0.0
30
0.0
70
1
0
VERTEX
8
0
10
15.620000000000001
20
9.209743750000001
30
0
0
VERTEX
8
0
10
24.50775625
20
18.0975
30
0
0
VERTEX
8
0
10
25.654
20
18.0975
30
0
0
VERTEX
8
0
10
25.654
20
20.0025
30
0
0
VERTEX
8
0
10
24.384
20
20.0025
30
0
0
VERTEX
8
0
10
24.384
20
18.68085625
30
0
0
VERTEX
8
0
10
15.27114375
20
9.568
30
0
0
VERTEX
8
0
10
14.4429
20
9.568
30
0
42
0.14973073245398213
0
VERTEX
8
0
10
14.302946875
20
9.525
30
0
0
VERTEX
8
0
10
13.65765625
20
9.525
30
0
0
VERTEX
8
0
10
12.3634
20
10.81925625
30
0
0
VERTEX
8
0
10
12.3634
20
12.00984375
30
0
0
VERTEX
8
0
10
14.619678125
20
14.266121875000001
30
0
42
0.19891236737965798
0
VERTEX
8
0
10
14.6929
20
14.4429
30
0
0
VERTEX
8
0
10
14.6929
20
23.2156875
30
0
0
VERTEX
8
0
10
14.713578125000002
20
23.245
30
0
0
VERTEX
8
0
10
15.684000000000001
20
23.245
30
0
0
VERTEX
8
0
10
15.684000000000001
20
23.745
30
0
0
VERTEX
8
0
10
13.484
20
23.745
30
0
0
VERTEX
8
0
10
13.484
20
23.245
30
0
0
VERTEX
8
0
10
14.1929
20
23.245
30
0
0
VERTEX
8
0
10
14.1929
20
14.54645625
30
0
0
VERTEX
8
0
10
11.936621875
20
12.290178125
30
0
42
0.19891236737965798
0
VERTEX
8
0
10
11.8634
20
12.1134
30
0
0
VERTEX
8
0
10
11.8634
20
10.7157
30
0
42
0.19891236737965798
0
VERTEX
8
0
10
11.936621875
20
10.538921875
30
0
0
VERTEX
8
0
10
13.08
20
9.39554375
30
0
0
VERTEX
8
0
10
13.08
20
8.255
30
0
0
VERTEX
8
0
10
15.620000000000001
20
8.255
30
0
0
SEQEND
0
POLYLINE
66
1
8
1_copper
10
0.0
20
0.0
30
0.0
70
1
0
VERTEX
8
0
10
15.620000000000001
20
12.065000000000001
30
0
0
VERTEX
8
0
10
15.21395625
20
12.065000000000001
30
0
0
VERTEX
8
0
10
23.86445625
20
20.715500000000002
30
0
0
VERTEX
8
0
10
24.692700000000002
20
20.715500000000002
30
0
42
0.19891236737965798
0
VERTEX
8
0
10
24.869478125
20
20.788721875
30
0
0
VERTEX
8
0
10
26.733078125000002
20
22.652321875000002
30
0
42
0.19891236737965798
0
VERTEX
8
0
10
26.8063
20
22.8291
30
0
0
VERTEX
8
0
10
26.8063
20
25.1586
30
0
42
0.19891236737965798
0
VERTEX
8
0
10
26.733078125000002
20
25.335378125000002
30
0
0
VERTEX
8
0
10
24.403578125000003
20
27.664878125
30
0
42
0.19891236737965798
0
VERTEX
8
0
10
24.2268
20
27.738100000000003
30
0
0
VERTEX
8
0
10
14.908800000000001
20
27.738100000000003
30
0
42
0.12904059876617194
0
VERTEX
8
0
10
14.78603125
20
27.705878125
30
0
0
VERTEX
8
0
10
14.518390625
20
27.555
30
0
0
VERTEX
8
0
10
13.484
20
27.555
30
0
0
VERTEX
8
0
10
13.484
20
27.055
30
0
0
VERTEX
8
0
10
15.684000000000001
20
27.055
30
0
0
VERTEX
8
0
10
15.684000000000001
20
27.238100000000003
30
0
0
VERTEX
8
0
10
24.12324375
20
27.238100000000003
30
0
0
VERTEX
8
0
10
26.3063
20
25.055043750000003
30
0
0
VERTEX
8
0
10
26.3063
20
22.93265625
30
0
0
VERTEX
8
0
10
24.58914375
20
21.215500000000002
30
0
0
VERTEX
8
0
10
23.7609
20
21.215500000000002
30
0
42
0.19891236737965798
0
VERTEX
8
0
10
23.584121875
20
21.142278125
30
0
0
VERTEX
8
0
10
14.50684375
20
12.065000000000001
30
0
0
VERTEX
8
0
10
13.08
20
12.065000000000001
30
0
0
VERTEX
8
0
10
13.08
20
10.795
30
0
0
VERTEX
8
0
10
15.620000000000001
20
10.795
30
0
0
SEQEND
0
POLYLINE
66
1
8
1_copper
10
0.0
20
0.0
30
0.0
70
1
0
VERTEX
8
0
10
7.931615625
20
24.443596875
30
0
42
0.045527551645621125
0
VERTEX
8
0
10
7.9766562500000004
20
24.449134375
30
0
0
VERTEX
8
0
10
8.304546875
20
24.525000000000002
30
0
0
VERTEX
8
0
10
9.376000000000001
20
24.525000000000002
30
0
0
VERTEX
8
0
10
9.376000000000001
20
25.025000000000002
30
0
0
VERTEX
8
0
10
7.176
20
25.025000000000002
30
0
0
VERTEX
8
0
10
7.176
20
24.942700000000002
30
0
0
VERTEX
8
0
10
7.092056250000001
20
24.942700000000002
30
0
0
VERTEX
8
0
10
5.3749
20
26.65985625
30
0
0
VERTEX
8
0
10
5.3749
20
27.85044375
30
0
0
VERTEX
8
0
10
11.28515625
20
33.7607
30
0
0
VERTEX
8
0
10
24.384
20
33.7607
30
0
0
VERTEX
8
0
10
24.384
20
33.3375
30
0
0
VERTEX
8
0
10
25.654
20
33.3375
30
0
0
VERTEX
8
0
10
25.654
20
35.2425
30
0
0
VERTEX
8
0
10
24.384
20
35.2425
30
0
0
VERTEX
8
0
10
24.384
20
34.2607
30
0
0
VERTEX
8
0
10
11.181600000000001
20
34.2607
30
0
42
0.19891236737965798
0
VERTEX
8
0
10
11.004821875000001
20
34.187478125
30
0
0
VERTEX
8
0
10
4.948121875
20
28.130778125000003
30
0
42
0.19891236737965798
0
VERTEX
8
0
10
4.8749
20
27.954
30
0
0
VERTEX
8
0
10
4.8749
20
26.5563
30
0
42
0.19891236737965798
0
VERTEX
8
0
10
4.948121875
20
26.379521875000002
30
0
0
VERTEX
8
0
10
6.811721875
20
24.515921875
30
0
42
0.19891236737965798
0
VERTEX
8
0
10
6.9885
20
24.442700000000002
30
0
0
VERTEX
8
0
10
7.9203
20
24.442700000000002
30
0
0
SEQEND
0
POLYLINE
66
1
8
1_copper
10
0.0
20
0.0
30
0.0
70
1
0
VERTEX
8
0
10
57.202143750000005
20
23.045
30
0
0
VERTEX
8
0
10
60.317
20
19.930143750000003
30
0
0
VERTEX
8
0
10
60.317
20
11.6475
30
0
42
0.19891236737965798
0
VERTEX
8
0
10
60.390221875
20
11.470721875
30
0
0
VERTEX
8
0
10
62.484
20
9.37694375
30
0
0
VERTEX
8
0
10
62.484
20
7.9375
30
0
0
VERTEX
8
0
10
63.754000000000005
20
7.9375
30
0
0
VERTEX
8
0
10
63.754000000000005
20
9.356043750000001
30
0
0
VERTEX
8
0
10
64.86365625
20
10.4657
30
0
0
VERTEX
8
0
10
69.78144375000001
20
10.4657
30
0
0
VERTEX
8
0
10
71.105921875
20
9.141221875000001
30
0
42
0.19891236737965798
0
VERTEX
8
0
10
71.2827
20
9.068
30
0
0
VERTEX
8
0
10
72.644
20
9.068
30
0
0
VERTEX
8
0
10
72.644
20
7.9375
30
0
0
VERTEX
8
0
10
73.914
20
7.9375
30
0
0
VERTEX
8
0
10
73.914
20
9.842500000000001
30
0
0
VERTEX
8
0
10
72.644
20
9.842500000000001
30
0
0
VERTEX
8
0
10
72.644
20
9.568
30
0
0
VERTEX
8
0
10
71.38625625
20
9.568
30
0
0
VERTEX
8
0
10
70.061778125
20
10.892478125
30
0
42
0.19891236737965798
0
VERTEX
8
0
10
69.885
20
10.9657
30
0
0
VERTEX
8
0
10
64.76010000000001
20
10.9657
30
0
42
0.19891236737965798
0
VERTEX
8
0
10
64.58332187500001
20
10.892478125
30
0
0
VERTEX
8
0
10
63.53334375
20
9.842500000000001
30
0
0
VERTEX
8
0
10
62.725556250000004
20
9.842500000000001
30
0
0
VERTEX
8
0
10
60.817
20
11.751056250000001
30
0
0
VERTEX
8
0
10
60.817
20
20.0337
30
0
42
0.19891236737965798
0
VERTEX
8
0
10
60.743778125000006
20
20.210478125
30
0
0
VERTEX
8
0
10
57.482478125
20
23.471778125
30
0
42
0.19891236737965798
0
VERTEX
8
0
10
57.3057
20
23.545
30
0
0
VERTEX
8
0
10
55.4421
20
23.545
30
0
42
0.19891236737965798
0
VERTEX
8
0
10
55.265321875000005
20
23.471778125
30
0
0
VERTEX
8
0
10
54.976200000000006
20
23.18265625
30
0
0
VERTEX
8
0
10
49.635400000000004
20
28.523456250000002
30
0
0
VERTEX
8
0
10
49.635400000000004
20
33.5448
30
0
42
0.19891236737965798
0
VERTEX
8
0
10
49.562178125
20
33.721578125
30
0
0
VERTEX
8
0
10
46.766778125
20
36.516978125
30
0
42
0.19891236737965798
0
VERTEX
8
0
10
46.59
20
36.5902
30
0
0
VERTEX
8
0
10
44.726400000000005
20
36.5902
30
0
42
0.19891236737965798
0
VERTEX
8
0
10
44.549621875
20
36.516978125
30
0
0
VERTEX
8
0
10
43.275143750000005
20
35.2425
30
0
0
VERTEX
8
0
10
42.164
20
35.2425
30
0
0
VERTEX
8
0
10
42.164
20
33.3375
30
0
0
VERTEX
8
0
10
42.6128
20
33.3375
30
0
0
VERTEX
8
0
10
42.6128
20
32.1471
30
0
42
0.19891236737965798
0
VERTEX
8
0
10
42.686021875
20
31.970321875
30
0
0
VERTEX
8
0
10
45.4082
20
29.24814375
30
0
0
VERTEX
8
0
10
45.4082
20
27.954
30
0
42
0.17431759208968384
0
VERTEX
8
0
10
45.466
20
27.7952625
30
0
0
VERTEX
8
0
10
45.466
20
26.9875
30
0
0
VERTEX
8
0
10
45.874100000000006
20
26.9875
30
0
0
VERTEX
8
0
10
45.874100000000006
20
22.5425
30
0
0
VERTEX
8
0
10
45.466
20
22.5425
30
0
0
VERTEX
8
0
10
45.466
20
20.6375
30
0
0
VERTEX
8
0
10
45.874100000000006
20
20.6375
30
0
0
VERTEX
8
0
10
45.874100000000006
20
16.1925
30
0
0
VERTEX
8
0
10
45.466
20
16.1925
30
0
0
VERTEX
8
0
10
45.466
20
15.07015625
30
0
0
VERTEX
8
0
10
44.15694375
20
13.7611
30
0
0
VERTEX
8
0
10
37.37555625
20
13.7611
30
0
0
VERTEX
8
0
10
32.323878125
20
18.812778125
30
0
42
0.19891236737965798
0
VERTEX
8
0
10
32.1471
20
18.886
30
0
0
VERTEX
8
0
10
28.956000000000003
20
18.886
30
0
0
VERTEX
8
0
10
28.956000000000003
20
20.0025
30
0
0
VERTEX
8
0
10
27.686
20
20.0025
30
0
0
VERTEX
8
0
10
27.686
20
18.0975
30
0
0
VERTEX
8
0
10
28.956000000000003
20
18.0975
30
0
0
VERTEX
8
0
10
28.956000000000003
20
18.386
30
0
0
VERTEX
8
0
10
32.043543750000005
20
18.386
30
0
0
VERTEX
8
0
10
37.095221875
20
13.334321875
30
0
42
0.19891236737965798
0
VERTEX
8
0
10
37.272
20
13.2611
30
0
0
VERTEX
8
0
10
41.2151
20
13.2611
30
0
0
VERTEX
8
0
10
41.2151
20
7.454400000000001
30
0
42
0.19891236737965798
0
VERTEX
8
0
10
41.288321875
20
7.277621875
30
0
0
VERTEX
8
0
10
41.754221875
20
6.811721875
30
0
42
0.19891236737965798
0
VERTEX
8
0
10
41.931000000000004
20
6.7385
30
0
0
VERTEX
8
0
10
43.7946
20
6.7385
30
0
42
0.19891236737965798
0
VERTEX
8
0
10
43.971378125
20
6.811721875
30
0
0
VERTEX
8
0
10
45.466
20
8.30634375
30
0
0
VERTEX
8
0
10
45.466
20
7.9375
30
0
0
VERTEX
8
0
10
46.736000000000004
20
7.9375
30
0
0
VERTEX
8
0
10
46.736000000000004
20
9.842500000000001
30
0
0
VERTEX
8
0
10
45.466
20
9.842500000000001
30
0
0
VERTEX
8
0
10
45.466
20
9.01345625
30
0
0
VERTEX
8
0
10
43.69104375
20
7.2385
30
0
0
VERTEX
8
0
10
42.03455625
20
7.2385
30
0
0
VERTEX
8
0
10
41.7151
20
7.55795625
30
0
0
VERTEX
8
0
10
41.7151
20
13.2611
30
0
0
VERTEX
8
0
10
44.2605
20
13.2611
30
0
42
0.19891236737965798
0
VERTEX
8
0
10
44.437278125
20
13.334321875
30
0
0
VERTEX
8
0
10
45.466
20
14.363043750000001
30
0
0
VERTEX
8
0
10
45.466
20
14.287500000000001
30
0
0
VERTEX
8
0
10
46.736000000000004
20
14.287500000000001
30
0
0
VERTEX
8
0
10
46.736000000000004
20
16.1925
30
0
0
VERTEX
8
0
10
46.374100000000006
20
16.1925
30
0
0
VERTEX
8
0
10
46.374100000000006
20
20.6375
30
0
0
VERTEX
8
0
10
46.736000000000004
20
20.6375
30
0
0
VERTEX
8
0
10
46.736000000000004
20
22.5425
30
0
0
VERTEX
8
0
10
46.374100000000006
20
22.5425
30
0
0
VERTEX
8
0
10
46.374100000000006
20
26.9875
30
0
0
VERTEX
8
0
10
46.736000000000004
20
26.9875
30
0
0
VERTEX
8
0
10
46.736000000000004
20
28.892500000000002
30
0
0
VERTEX
8
0
10
45.9082
20
28.892500000000002
30
0
0
VERTEX
8
0
10
45.9082
20
29.3517
30
0
42
0.19891236737965798
0
VERTEX
8
0
10
45.834978125
20
29.528478125000003
30
0
0
VERTEX
8
0
10
43.1128
20
32.25065625
30
0
0
VERTEX
8
0
10
43.1128
20
33.3375
30
0
0
VERTEX
8
0
10
43.434000000000005
20
33.3375
30
0
0
VERTEX
8
0
10
43.434000000000005
20
34.69424375
30
0
0
VERTEX
8
0
10
44.82995625
20
36.0902
30
0
0
VERTEX
8
0
10
46.48644375
20
36.0902
30
0
0
VERTEX
8
0
10
49.135400000000004
20
33.44124375
30
0
0
VERTEX
8
0
10
49.135400000000004
20
28.419900000000002
30
0
42
0.19891236737965798
0
VERTEX
8
0
10
49.208621875000006
20
28.243121875
30
0
0
VERTEX
8
0
10
54.62264375
20
22.8291
30
0
0
VERTEX
8
0
10
54.333521875
20
22.539978125
30
0
42
0.19891236737965798
0
VERTEX
8
0
10
54.2603
20
22.363200000000003
30
0
0
VERTEX
8
0
10
54.2603
20
14.08055625
30
0
0
VERTEX
8
0
10
52.935821875
20
12.756078125
30
0
42
0.19891236737965798
0
VERTEX
8
0
10
52.8626
20
12.5793
30
0
0
VERTEX
8
0
10
52.8626
20
9.842500000000001
30
0
0
VERTEX
8
0
10
52.324000000000005
20
9.842500000000001
30
0
0
VERTEX
8
0
10
52.324000000000005
20
7.9375
30
0
0
VERTEX
8
0
10
53.594
20
7.9375
30
0
0
VERTEX
8
0
10
53.594
20
9.842500000000001
30
0
0
VERTEX
8
0
10
53.3626
20
9.842500000000001
30
0
0
VERTEX
8
0
10
53.3626
20
12.475743750000001
30
0
0
VERTEX
8
0
10
54.687078125
20
13.800221875
30
0
42
0.19891236737965798
0
VERTEX
8
0
10
54.7603
20
13.977
30
0
0
VERTEX
8
0
10
54.7603
20
22.259643750000002
30
0
0
VERTEX
8
0
10
55.54565625
20
23.045
30
0
0
SEQEND
0
POLYLINE
66
1
8
1_copper
10
0.0
20
0.0
30
0.0
70
1
0
VERTEX
8
0
10
42.164
20
26.9875
30
0
0
VERTEX
8
0
10
43.434000000000005
20
26.9875
30
0
0
VERTEX
8
0
10
43.434000000000005
20
28.892500000000002
30
0
0
VERTEX
8
0
10
42.164
20
28.892500000000002
30
0
0
VERTEX
8
0
10
42.164
20
28.540456250000002
30
0
0
VERTEX
8
0
10
37.62555625
20
33.078900000000004
30
0
0
VERTEX
8
0
10
42.50045625
20
37.9538
30
0
0
VERTEX
8
0
10
48.81594375
20
37.9538
30
0
0
VERTEX
8
0
10
52.324000000000005
20
34.44574375
30
0
0
VERTEX
8
0
10
52.324000000000005
20
33.3375
30
0
0
VERTEX
8
0
10
52.8626
20
33.3375
30
0
0
VERTEX
8
0
10
52.8626
20
32.613
30
0
42
0.19891236737965798
0
VERTEX
8
0
10
52.935821875
20
32.436221875
30
0
0
VERTEX
8
0
10
55.658
20
29.714043750000002
30
0
0
VERTEX
8
0
10
55.658
20
28.892500000000002
30
0
0
VERTEX
8
0
10
55.626000000000005
20
28.892500000000002
30
0
0
VERTEX
8
0
10
55.626000000000005
20
26.9875
30
0
0
VERTEX
8
0
10
56.896
20
26.9875
30
0
0
VERTEX
8
0
10
56.896
20
28.892500000000002
30
0
0
VERTEX
8
0
10
56.158
20
28.892500000000002
30
0
0
VERTEX
8
0
10
56.158
20
29.817600000000002
30
0
42
0.19891236737965798
0
VERTEX
8
0
10
56.084778125
20
29.994378125
30
0
0
VERTEX
8
0
10
53.3626
20
32.716556250000004
30
0
0
VERTEX
8
0
10
53.3626
20
33.3375
30
0
0
VERTEX
8
0
10
53.594
20
33.3375
30
0
0
VERTEX
8
0
10
53.594
20
34.60444375
30
0
0
VERTEX
8
0
10
55.07975625
20
36.0902
30
0
0
VERTEX
8
0
10
60.92934375
20
36.0902
30
0
0
VERTEX
8
0
10
62.484
20
34.53554375
30
0
0
VERTEX
8
0
10
62.484
20
33.3375
30
0
0
VERTEX
8
0
10
63.682043750000005
20
33.3375
30
0
0
VERTEX
8
0
10
64.58332187500001
20
32.436221875
30
0
42
0.19891236737965798
0
VERTEX
8
0
10
64.76010000000001
20
32.363
30
0
0
VERTEX
8
0
10
71.74860000000001
20
32.363
30
0
42
0.19891236737965798
0
VERTEX
8
0
10
71.92537812500001
20
32.436221875
30
0
0
VERTEX
8
0
10
72.82665625
20
33.3375
30
0
0
VERTEX
8
0
10
73.914
20
33.3375
30
0
0
VERTEX
8
0
10
73.914
20
35.2425
30
0
0
VERTEX
8
0
10
72.644
20
35.2425
30
0
0
VERTEX
8
0
10
72.644
20
33.86195625
30
0
0
VERTEX
8
0
10
71.64504375
20
32.863
30
0
0
VERTEX
8
0
10
64.86365625
20
32.863
30
0
0
VERTEX
8
0
10
63.754000000000005
20
33.97265625
30
0
0
VERTEX
8
0
10
63.754000000000005
20
34.514643750000005
30
0
0
VERTEX
8
0
10
66.26135625
20
37.022
30
0
0
VERTEX
8
0
10
77.70174375
20
37.022
30
0
0
VERTEX
8
0
10
78.953
20
35.77074375
30
0
0
VERTEX
8
0
10
78.953
20
8.95565625
30
0
0
VERTEX
8
0
10
76.30404375
20
6.3067
30
0
0
VERTEX
8
0
10
63.465956250000005
20
6.3067
30
0
0
VERTEX
8
0
10
60.743778125000006
20
9.028878125
30
0
42
0.19891236737965798
0
VERTEX
8
0
10
60.567
20
9.1021
30
0
0
VERTEX
8
0
10
56.896
20
9.1021
30
0
0
VERTEX
8
0
10
56.896
20
9.842500000000001
30
0
0
VERTEX
8
0
10
56.623900000000006
20
9.842500000000001
30
0
0
VERTEX
8
0
10
56.623900000000006
20
14.287500000000001
30
0
0
VERTEX
8
0
10
56.896
20
14.287500000000001
30
0
0
VERTEX
8
0
10
56.896
20
16.1925
30
0
0
VERTEX
8
0
10
56.623900000000006
20
16.1925
30
0
0
VERTEX
8
0
10
56.623900000000006
20
20.6375
30
0
0
VERTEX
8
0
10
56.896
20
20.6375
30
0
0
VERTEX
8
0
10
56.896
20
22.5425
30
0
0
VERTEX
8
0
10
55.626000000000005
20
22.5425
30
0
0
VERTEX
8
0
10
55.626000000000005
20
20.6375
30
0
0
VERTEX
8
0
10
56.123900000000006
20
20.6375
30
0
0
VERTEX
8
0
10
56.123900000000006
20
16.1925
30
0
0
VERTEX
8
0
10
55.626000000000005
20
16.1925
30
0
0
VERTEX
8
0
10
55.626000000000005
20
14.287500000000001
30
0
0
VERTEX
8
0
10
56.123900000000006
20
14.287500000000001
30
0
0
VERTEX
8
0
10
56.123900000000006
20
9.842500000000001
30
0
0
VERTEX
8
0
10
55.626000000000005
20
9.842500000000001
30
0
0
VERTEX
8
0
10
55.626000000000005
20
7.9375
30
0
0
VERTEX
8
0
10
56.896
20
7.9375
30
0
0
VERTEX
8
0
10
56.896
20
8.6021
30
0
0
VERTEX
8
0
10
60.46344375
20
8.6021
30
0
0
VERTEX
8
0
10
63.185621875
20
5.879921875
30
0
42
0.19891236737965798
0
VERTEX
8
0
10
63.3624
20
5.8067
30
0
0
VERTEX
8
0
10
76.4076
20
5.8067
30
0
42
0.19891236737965798
0
VERTEX
8
0
10
76.584378125
20
5.879921875
30
0
0
VERTEX
8
0
10
79.379778125
20
8.675321875
30
0
42
0.19891236737965798
0
VERTEX
8
0
10
79.453
20
8.8521
30
0
0
VERTEX
8
0
10
79.453
20
35.874300000000005
30
0
42
0.19891236737965798
0
VERTEX
8
0
10
79.379778125
20
36.051078125000004
30
0
0
VERTEX
8
0
10
77.982078125
20
37.448778125000004
30
0
42
0.19891236737965798
0
VERTEX
8
0
10
77.8053
20
37.522
30
0
0
VERTEX
8
0
10
66.15780000000001
20
37.522
30
0
42
0.19891236737965798
0
VERTEX
8
0
10
65.981021875
20
37.448778125000004
30
0
0
VERTEX
8
0
10
63.754000000000005
20
35.22175625
30
0
0
VERTEX
8
0
10
63.754000000000005
20
35.2425
30
0
0
VERTEX
8
0
10
62.484156250000005
20
35.2425
30
0
0
VERTEX
8
0
10
61.209678125
20
36.516978125
30
0
42
0.19891236737965798
0
VERTEX
8
0
10
61.032900000000005
20
36.5902
30
0
0
VERTEX
8
0
10
54.976200000000006
20
36.5902
30
0
42
0.19891236737965798
0
VERTEX
8
0
10
54.799421875
20
36.516978125
30
0
0
VERTEX
8
0
10
53.524943750000006
20
35.2425
30
0
0
VERTEX
8
0
10
52.324000000000005
20
35.2425
30
0
0
VERTEX
8
0
10
52.324000000000005
20
35.15285625
30
0
0
VERTEX
8
0
10
49.096278125000005
20
38.380578125
30
0
42
0.19891236737965798
0
VERTEX
8
0
10
48.9195
20
38.4538
30
0
0
VERTEX
8
0
10
42.3969
20
38.4538
30
0
42
0.19891236737965798
0
VERTEX
8
0
10
42.220121875000004
20
38.380578125
30
0
0
VERTEX
8
0
10
37.272
20
33.43245625
30
0
0
VERTEX
8
0
10
36.516978125
20
34.187478125
30
0
42
0.19891236737965798
0
VERTEX
8
0
10
36.3402
20
34.2607
30
0
0
VERTEX
8
0
10
28.956000000000003
20
34.2607
30
0
0
VERTEX
8
0
10
28.956000000000003
20
35.2425
30
0
0
VERTEX
8
0
10
27.686
20
35.2425
30
0
0
VERTEX
8
0
10
27.686
20
33.3375
30
0
0
VERTEX
8
0
10
28.956000000000003
20
33.3375
30
0
0
VERTEX
8
0
10
28.956000000000003
20
33.7607
30
0
0
VERTEX
8
0
10
36.23664375
20
33.7607
30
0
0
VERTEX
8
0
10
42.164
20
27.83334375
30
0
0
SEQEND
0
POLYLINE
66
1
8
1_copper
10
0.0
20
0.0
30
0.0
70
1
0
VERTEX
8
0
10
43.434000000000005
20
9.568
30
0
0
VERTEX
8
0
10
43.434000000000005
20
9.842500000000001
30
0
0
VERTEX
8
0
10
42.164
20
9.842500000000001
30
0
0
VERTEX
8
0
10
42.164
20
7.9375
30
0
0
VERTEX
8
0
10
43.434000000000005
20
7.9375
30
0
0
VERTEX
8
0
10
43.434000000000005
20
9.068
30
0
0
VERTEX
8
0
10
43.7946
20
9.068
30
0
42
0.19891236737965798
0
VERTEX
8
0
10
43.971378125
20
9.141221875000001
30
0
0
VERTEX
8
0
10
46.124100000000006
20
11.29394375
30
0
0
VERTEX
8
0
10
47.2718
20
10.14624375
30
0
0
VERTEX
8
0
10
47.2718
20
7.55795625
30
0
0
VERTEX
8
0
10
46.02054375
20
6.3067
30
0
0
VERTEX
8
0
10
41.568656250000004
20
6.3067
30
0
0
VERTEX
8
0
10
34.187478125
20
13.687878125000001
30
0
42
0.19891236737965798
0
VERTEX
8
0
10
34.0107
20
13.7611
30
0
0
VERTEX
8
0
10
28.956000000000003
20
13.7611
30
0
0
VERTEX
8
0
10
28.956000000000003
20
14.922500000000001
30
0
0
VERTEX
8
0
10
27.686
20
14.922500000000001
30
0
0
VERTEX
8
0
10
27.686
20
13.0175
30
0
0
VERTEX
8
0
10
28.956000000000003
20
13.0175
30
0
0
VERTEX
8
0
10
28.956000000000003
20
13.2611
30
0
0
VERTEX
8
0
10
33.90714375
20
13.2611
30
0
0
VERTEX
8
0
10
41.288321875
20
5.879921875
30
0
42
0.19891236737965798
0
VERTEX
8
0
10
41.4651
20
5.8067
30
0
0
VERTEX
8
0
10
46.124100000000006
20
5.8067
30
0
42
0.19891236737965798
0
VERTEX
8
0
10
46.300878125000004
20
5.879921875
30
0
0
VERTEX
8
0
10
47.698578125000004
20
7.277621875
30
0
42
0.19891236737965798
0
VERTEX
8
0
10
47.7718
20
7.454400000000001
30
0
0
VERTEX
8
0
10
47.7718
20
10.2498
30
0
42
0.19891236737965798
0
VERTEX
8
0
10
47.698578125000004
20
10.426578125
30
0
0
VERTEX
8
0
10
46.47765625
20
11.6475
30
0
0
VERTEX
8
0
10
49.48895625
20
14.658800000000001
30
0
0
VERTEX
8
0
10
52.324000000000005
20
14.658800000000001
30
0
0
VERTEX
8
0
10
52.324000000000005
20
14.287500000000001
30
0
0
VERTEX
8
0
10
53.594
20
14.287500000000001
30
0
0
VERTEX
8
0
10
53.594
20
16.1925
30
0
0
VERTEX
8
0
10
52.324000000000005
20
16.1925
30
0
0
VERTEX
8
0
10
52.324000000000005
20
15.158800000000001
30
0
0
VERTEX
8
0
10
49.48895625
20
15.158800000000001
30
0
0
VERTEX
8
0
10
48.7036
20
15.94415625
30
0
0
VERTEX
8
0
10
48.7036
20
28.419900000000002
30
0
42
0.19891236737965798
0
VERTEX
8
0
10
48.630378125
20
28.596678125
30
0
0
VERTEX
8
0
10
46.374100000000006
20
30.852956250000002
30
0
0
VERTEX
8
0
10
46.374100000000006
20
33.3375
30
0
0
VERTEX
8
0
10
46.736000000000004
20
33.3375
30
0
0
VERTEX
8
0
10
46.736000000000004
20
35.2425
30
0
0
VERTEX
8
0
10
45.466
20
35.2425
30
0
0
VERTEX
8
0
10
45.466
20
33.3375
30
0
0
VERTEX
8
0
10
45.874100000000006
20
33.3375
30
0
0
VERTEX
8
0
10
45.874100000000006
20
30.7494
30
0
42
0.19891236737965798
0
VERTEX
8
0
10
45.947321875
20
30.572621875000003
30
0
0
VERTEX
8
0
10
48.2036
20
28.31634375
30
0
0
VERTEX
8
0
10
48.2036
20
15.8406
30
0
42
0.19891236737965798
0
VERTEX
8
0
10
48.276821875
20
15.663821875
30
0
0
VERTEX
8
0
10
49.03184375
20
14.908800000000001
30
0
0
VERTEX
8
0
10
43.69104375
20
9.568
30
0
0
SEQEND
0
POLYLINE
66
1
8
1_copper
10
0.0
20
0.0
30
0.0
70
1
0
VERTEX
8
0
10
77.21600000000001
20
26.9875
30
0
0
VERTEX
8
0
10
77.21600000000001
20
28.892500000000002
30
0
0
VERTEX
8
0
10
77.1235
20
28.892500000000002
30
0
0
VERTEX
8
0
10
77.1235
20
33.3375
30
0
0
VERTEX
8
0
10
77.21600000000001
20
33.3375
30
0
0
VERTEX
8
0
10
77.21600000000001
20
35.2425
30
0
0
VERTEX
8
0
10
75.946
20
35.2425
30
0
0
VERTEX
8
0
10
75.946
20
33.3375
30
0
0
VERTEX
8
0
10
76.6235
20
33.3375
30
0
0
VERTEX
8
0
10
76.6235
20
28.892500000000002
30
0
0
VERTEX
8
0
10
75.946
20
28.892500000000002
30
0
0
VERTEX
8
0
10
75.946
20
26.9875
30
0
0
VERTEX
8
0
10
76.6235
20
26.9875
30
0
0
VERTEX
8
0
10
76.6235
20
23.545
30
0
0
VERTEX
8
0
10
72.2145
20
23.545
30
0
42
0.19891236737965798
0
VERTEX
8
0
10
72.037721875
20
23.471778125
30
0
0
VERTEX
8
0
10
71.571821875
20
23.005878125000002
30
0
42
0.19891236737965798
0
VERTEX
8
0
10
71.49860000000001
20
22.8291
30
0
0
VERTEX
8
0
10
71.49860000000001
20
19.567800000000002
30
0
42
0.19891236737965798
0
VERTEX
8
0
10
71.571821875
20
19.391021875
30
0
0
VERTEX
8
0
10
72.8963
20
18.06654375
30
0
0
VERTEX
8
0
10
72.8963
20
16.1925
30
0
0
VERTEX
8
0
10
72.644
20
16.1925
30
0
0
VERTEX
8
0
10
72.644
20
14.76005625
30
0
0
VERTEX
8
0
10
71.64504375
20
13.7611
30
0
0
VERTEX
8
0
10
64.86365625
20
13.7611
30
0
0
VERTEX
8
0
10
63.754000000000005
20
14.870756250000001
30
0
0
VERTEX
8
0
10
63.754000000000005
20
16.1925
30
0
0
VERTEX
8
0
10
62.484
20
16.1925
30
0
0
VERTEX
8
0
10
62.484
20
14.287500000000001
30
0
0
VERTEX
8
0
10
63.63014375
20
14.287500000000001
30
0
0
VERTEX
8
0
10
64.58332187500001
20
13.334321875
30
0
42
0.19891236737965798
0
VERTEX
8
0
10
64.76010000000001
20
13.2611
30
0
0
VERTEX
8
0
10
71.74860000000001
20
13.2611
30
0
42
0.19891236737965798
0
VERTEX
8
0
10
71.92537812500001
20
13.334321875
30
0
0
VERTEX
8
0
10
72.87855625
20
14.287500000000001
30
0
0
VERTEX
8
0
10
73.914
20
14.287500000000001
30
0
0
VERTEX
8
0
10
73.914
20
16.1925
30
0
0
VERTEX
8
0
10
73.3963
20
16.1925
30
0
0
VERTEX
8
0
10
73.3963
20
18.1701
30
0
42
0.19891236737965798
0
VERTEX
8
0
10
73.32307812500001
20
18.346878125
30
0
0
VERTEX
8
0
10
71.99860000000001
20
19.671356250000002
30
0
0
VERTEX
8
0
10
71.99860000000001
20
22.72554375
30
0
0
VERTEX
8
0
10
72.31805625
20
23.045
30
0
0
VERTEX
8
0
10
76.6235
20
23.045
30
0
0
VERTEX
8
0
10
76.6235
20
22.5425
30
0
0
VERTEX
8
0
10
75.946
20
22.5425
30
0
0
VERTEX
8
0
10
75.946
20
20.6375
30
0
0
VERTEX
8
0
10
77.21600000000001
20
20.6375
30
0
0
VERTEX
8
0
10
77.21600000000001
20
22.5425
30
0
0
VERTEX
8
0
10
77.1235
20
22.5425
30
0
0
VERTEX
8
0
10
77.1235
20
26.9875
30
0
0
SEQEND
0
POLYLINE
66
1
8
1_copper
10
0.0
20
0.0
30
0.0
70
1
0
VERTEX
8
0
10
76.1576
20
16.1925
30
0
0
VERTEX
8
0
10
75.946
20
16.1925
30
0
0
VERTEX
8
0
10
75.946
20
14.287500000000001
30
0
0
VERTEX
8
0
10
76.6235
20
14.287500000000001
30
0
0
VERTEX
8
0
10
76.6235
20
9.842500000000001
30
0
0
VERTEX
8
0
10
75.946
20
9.842500000000001
30
0
0
VERTEX
8
0
10
75.946
20
7.9375
30
0
0
VERTEX
8
0
10
77.21600000000001
20
7.9375
30
0
0
VERTEX
8
0
10
77.21600000000001
20
9.842500000000001
30
0
0
VERTEX
8
0
10
77.1235
20
9.842500000000001
30
0
0
VERTEX
8
0
10
77.1235
20
14.287500000000001
30
0
0
VERTEX
8
0
10
77.21600000000001
20
14.287500000000001
30
0
0
VERTEX
8
0
10
77.21600000000001
20
16.1925
30
0
0
VERTEX
8
0
10
76.6576
20
16.1925
30
0
42
0.312964095990431
0
VERTEX
8
0
10
76.584378125
20
16.483278125000002
30
0
0
VERTEX
8
0
10
75.82935625
20
17.238300000000002
30
0
0
VERTEX
8
0
10
78.447978125
20
19.856921875
30
0
42
0.19891236737965798
0
VERTEX
8
0
10
78.52120000000001
20
20.0337
30
0
0
VERTEX
8
0
10
78.52120000000001
20
35.4084
30
0
42
0.19891236737965798
0
VERTEX
8
0
10
78.447978125
20
35.585178125
30
0
0
VERTEX
8
0
10
77.51617812500001
20
36.516978125
30
0
42
0.19891236737965798
0
VERTEX
8
0
10
77.3394
20
36.5902
30
0
0
VERTEX
8
0
10
75.9417
20
36.5902
30
0
42
0.19891236737965798
0
VERTEX
8
0
10
75.764921875
20
36.516978125
30
0
0
VERTEX
8
0
10
75.0099
20
35.761956250000004
30
0
0
VERTEX
8
0
10
74.254878125
20
36.516978125
30
0
42
0.19891236737965798
0
VERTEX
8
0
10
74.0781
20
36.5902
30
0
0
VERTEX
8
0
10
72.6804
20
36.5902
30
0
42
0.19891236737965798
0
VERTEX
8
0
10
72.50362187500001
20
36.516978125
30
0
0
VERTEX
8
0
10
70.71324375
20
34.726600000000005
30
0
0
VERTEX
8
0
10
67.056
20
34.726600000000005
30
0
0
VERTEX
8
0
10
67.056
20
35.2425
30
0
0
VERTEX
8
0
10
65.786
20
35.2425
30
0
0
VERTEX
8
0
10
65.786
20
33.3375
30
0
0
VERTEX
8
0
10
67.056
20
33.3375
30
0
0
VERTEX
8
0
10
67.056
20
34.226600000000005
30
0
0
VERTEX
8
0
10
70.8168
20
34.226600000000005
30
0
42
0.19891236737965798
0
VERTEX
8
0
10
70.993578125
20
34.299821875
30
0
0
VERTEX
8
0
10
72.78395625
20
36.0902
30
0
0
VERTEX
8
0
10
73.97454375000001
20
36.0902
30
0
0
VERTEX
8
0
10
74.7599
20
35.30484375
30
0
0
VERTEX
8
0
10
74.7599
20
33.18245625
30
0
0
VERTEX
8
0
10
69.78144375000001
20
28.204
30
0
0
VERTEX
8
0
10
67.056
20
28.204
30
0
0
VERTEX
8
0
10
67.056
20
28.892500000000002
30
0
0
VERTEX
8
0
10
65.786
20
28.892500000000002
30
0
0
VERTEX
8
0
10
65.786
20
27.469856250000003
30
0
0
VERTEX
8
0
10
63.185621875
20
24.869478125
30
0
42
0.19891236737965798
0
VERTEX
8
0
10
63.1124
20
24.692700000000002
30
0
0
VERTEX
8
0
10
63.1124
20
22.5425
30
0
0
VERTEX
8
0
10
62.484
20
22.5425
30
0
0
VERTEX
8
0
10
62.484
20
20.6375
30
0
0
VERTEX
8
0
10
63.754000000000005
20
20.6375
30
0
0
VERTEX
8
0
10
63.754000000000005
20
22.5425
30
0
0
VERTEX
8
0
10
63.6124
20
22.5425
30
0
0
VERTEX
8
0
10
63.6124
20
24.58914375
30
0
0
VERTEX
8
0
10
66.01075625
20
26.9875
30
0
0
VERTEX
8
0
10
67.056
20
26.9875
30
0
0
VERTEX
8
0
10
67.056
20
27.704
30
0
0
VERTEX
8
0
10
69.885
20
27.704
30
0
42
0.19891236737965798
0
VERTEX
8
0
10
70.061778125
20
27.777221875000002
30
0
0
VERTEX
8
0
10
75.186678125
20
32.902121875
30
0
42
0.19891236737965798
0
VERTEX
8
0
10
75.2599
20
33.078900000000004
30
0
0
VERTEX
8
0
10
75.2599
20
35.30484375
30
0
0
VERTEX
8
0
10
76.04525625000001
20
36.0902
30
0
0
VERTEX
8
0
10
77.23584375
20
36.0902
30
0
0
VERTEX
8
0
10
78.02120000000001
20
35.30484375
30
0
0
VERTEX
8
0
10
78.02120000000001
20
20.13725625
30
0
0
VERTEX
8
0
10
75.4758
20
17.59185625
30
0
0
VERTEX
8
0
10
73.8622
20
19.20545625
30
0
0
VERTEX
8
0
10
73.8622
20
20.6375
30
0
0
VERTEX
8
0
10
73.914
20
20.6375
30
0
0
VERTEX
8
0
10
73.914
20
22.5425
30
0
0
VERTEX
8
0
10
72.644
20
22.5425
30
0
0
VERTEX
8
0
10
72.644
20
20.6375
30
0
0
VERTEX
8
0
10
73.3622
20
20.6375
30
0
0
VERTEX
8
0
10
73.3622
20
19.1019
30
0
42
0.19891236737965798
0
VERTEX
8
0
10
73.435421875
20
18.925121875000002
30
0
0
VERTEX
8
0
10
76.1576
20
16.20294375
30
0
0
SEQEND
0
POLYLINE
66
1
8
1_copper
10
0.0
20
0.0
30
0.0
70
1
0
VERTEX
8
0
10
43.434000000000005
20
16.1925
30
0
0
VERTEX
8
0
10
42.164
20
16.1925
30
0
0
VERTEX
8
0
10
42.164
20
15.6247
30
0
0
VERTEX
8
0
10
36.909656250000005
20
15.6247
30
0
0
VERTEX
8
0
10
28.956000000000003
20
23.578356250000002
30
0
0
VERTEX
8
0
10
28.956000000000003
20
25.0825
30
0
0
VERTEX
8
0
10
27.686
20
25.0825
30
0
0
VERTEX
8
0
10
27.686
20
23.177500000000002
30
0
0
VERTEX
8
0
10
28.649743750000003
20
23.177500000000002
30
0
0
VERTEX
8
0
10
36.629321875
20
15.197921875
30
0
42
0.19891236737965798
0
VERTEX
8
0
10
36.8061
20
15.1247
30
0
0
VERTEX
8
0
10
42.164
20
15.1247
30
0
0
VERTEX
8
0
10
42.164
20
14.287500000000001
30
0
0
VERTEX
8
0
10
43.434000000000005
20
14.287500000000001
30
0
0
SEQEND
0
POLYLINE
66
1
8
1_copper
10
0.0
20
0.0
30
0.0
70
1
0
VERTEX
8
0
10
53.594
20
22.5425
30
0
0
VERTEX
8
0
10
52.324000000000005
20
22.5425
30
0
0
VERTEX
8
0
10
52.324000000000005
20
20.6375
30
0
0
VERTEX
8
0
10
53.594
20
20.6375
30
0
0
SEQEND
0
POLYLINE
66
1
8
1_copper
10
0.0
20
0.0
30
0.0
70
1
0
VERTEX
8
0
10
61.2488
20
18.1701
30
0
42
0.19891236737965798
0
VERTEX
8
0
10
61.322021875000004
20
17.993321875
30
0
0
VERTEX
8
0
10
62.07704375
20
17.238300000000002
30
0
0
VERTEX
8
0
10
61.322021875000004
20
16.483278125000002
30
0
42
0.19891236737965798
0
VERTEX
8
0
10
61.2488
20
16.3065
30
0
0
VERTEX
8
0
10
61.2488
20
13.977
30
0
42
0.19891236737965798
0
VERTEX
8
0
10
61.322021875000004
20
13.800221875
30
0
0
VERTEX
8
0
10
62.719721875000005
20
12.402521875000001
30
0
42
0.19891236737965798
0
VERTEX
8
0
10
62.8965
20
12.3293
30
0
0
VERTEX
8
0
10
72.11094375
20
12.3293
30
0
0
VERTEX
8
0
10
74.7599
20
9.68034375
30
0
0
VERTEX
8
0
10
74.7599
20
8.02385625
30
0
0
VERTEX
8
0
10
73.97454375000001
20
7.2385
30
0
0
VERTEX
8
0
10
72.31805625
20
7.2385
30
0
0
VERTEX
8
0
10
70.52767812500001
20
9.028878125
30
0
42
0.19891236737965798
0
VERTEX
8
0
10
70.35090000000001
20
9.1021
30
0
0
VERTEX
8
0
10
67.056
20
9.1021
30
0
0
VERTEX
8
0
10
67.056
20
9.842500000000001
30
0
0
VERTEX
8
0
10
65.786
20
9.842500000000001
30
0
0
VERTEX
8
0
10
65.786
20
7.9375
30
0
0
VERTEX
8
0
10
67.056
20
7.9375
30
0
0
VERTEX
8
0
10
67.056
20
8.6021
30
0
0
VERTEX
8
0
10
70.24734375
20
8.6021
30
0
0
VERTEX
8
0
10
72.037721875
20
6.811721875
30
0
42
0.19891236737965798
0
VERTEX
8
0
10
72.2145
20
6.7385
30
0
0
VERTEX
8
0
10
74.0781
20
6.7385
30
0
42
0.19891236737965798
0
VERTEX
8
0
10
74.254878125
20
6.811721875
30
0
0
VERTEX
8
0
10
75.186678125
20
7.743521875000001
30
0
42
0.19891236737965798
0
VERTEX
8
0
10
75.2599
20
7.9203
30
0
0
VERTEX
8
0
10
75.2599
20
9.783900000000001
30
0
42
0.19891236737965798
0
VERTEX
8
0
10
75.186678125
20
9.960678125000001
30
0
0
VERTEX
8
0
10
72.391278125
20
12.756078125
30
0
42
0.19891236737965798
0
VERTEX
8
0
10
72.2145
20
12.8293
30
0
0
VERTEX
8
0
10
63.00005625
20
12.8293
30
0
0
VERTEX
8
0
10
61.7488
20
14.08055625
30
0
0
VERTEX
8
0
10
61.7488
20
16.20294375
30
0
0
VERTEX
8
0
10
62.53415625
20
16.988300000000002
30
0
0
VERTEX
8
0
10
64.19064375
20
16.988300000000002
30
0
0
VERTEX
8
0
10
65.786
20
15.39294375
30
0
0
VERTEX
8
0
10
65.786
20
14.287500000000001
30
0
0
VERTEX
8
0
10
67.056
20
14.287500000000001
30
0
0
VERTEX
8
0
10
67.056
20
16.1925
30
0
0
VERTEX
8
0
10
65.786
20
16.1925
30
0
0
VERTEX
8
0
10
65.786
20
16.10005625
30
0
0
VERTEX
8
0
10
64.64775625
20
17.238300000000002
30
0
0
VERTEX
8
0
10
66.33457812500001
20
18.925121875000002
30
0
42
0.19891236737965798
0
VERTEX
8
0
10
66.40780000000001
20
19.1019
30
0
0
VERTEX
8
0
10
66.40780000000001
20
20.6375
30
0
0
VERTEX
8
0
10
67.056
20
20.6375
30
0
0
VERTEX
8
0
10
67.056
20
21.976043750000002
30
0
0
VERTEX
8
0
10
72.31805625
20
27.238100000000003
30
0
0
VERTEX
8
0
10
72.644
20
27.238100000000003
30
0
0
VERTEX
8
0
10
72.644
20
26.9875
30
0
0
VERTEX
8
0
10
73.914
20
26.9875
30
0
0
VERTEX
8
0
10
73.914
20
28.892500000000002
30
0
0
VERTEX
8
0
10
72.644
20
28.892500000000002
30
0
0
VERTEX
8
0
10
72.644
20
27.738100000000003
30
0
0
VERTEX
8
0
10
72.2145
20
27.738100000000003
30
0
42
0.19891236737965798
0
VERTEX
8
0
10
72.037721875
20
27.664878125
30
0
0
VERTEX
8
0
10
66.91534375
20
22.5425
30
0
0
VERTEX
8
0
10
65.786
20
22.5425
30
0
0
VERTEX
8
0
10
65.786
20
20.6375
30
0
0
VERTEX
8
0
10
65.90780000000001
20
20.6375
30
0
0
VERTEX
8
0
10
65.90780000000001
20
19.20545625
30
0
0
VERTEX
8
0
10
64.19064375
20
17.488300000000002
30
0
0
VERTEX
8
0
10
62.53415625
20
17.488300000000002
30
0
0
VERTEX
8
0
10
61.7488
20
18.273656250000002
30
0
0
VERTEX
8
0
10
61.7488
20
25.986843750000002
30
0
0
VERTEX
8
0
10
62.74945625
20
26.9875
30
0
0
VERTEX
8
0
10
63.754000000000005
20
26.9875
30
0
0
VERTEX
8
0
10
63.754000000000005
20
28.892500000000002
30
0
0
VERTEX
8
0
10
62.484
20
28.892500000000002
30
0
0
VERTEX
8
0
10
62.484
20
27.429156250000002
30
0
0
VERTEX
8
0
10
61.395243750000006
20
26.340400000000002
30
0
0
VERTEX
8
0
10
58.0216
20
26.340400000000002
30
0
0
VERTEX
8
0
10
58.0216
20
30.7494
30
0
42
0.19891236737965798
0
VERTEX
8
0
10
57.948378125000005
20
30.926178125
30
0
0
VERTEX
8
0
10
56.623900000000006
20
32.25065625
30
0
0
VERTEX
8
0
10
56.623900000000006
20
33.3375
30
0
0
VERTEX
8
0
10
56.896
20
33.3375
30
0
0
VERTEX
8
0
10
56.896
20
35.2425
30
0
0
VERTEX
8
0
10
55.626000000000005
20
35.2425
30
0
0
VERTEX
8
0
10
55.626000000000005
20
33.3375
30
0
0
VERTEX
8
0
10
56.123900000000006
20
33.3375
30
0
0
VERTEX
8
0
10
56.123900000000006
20
32.1471
30
0
42
0.19891236737965798
0
VERTEX
8
0
10
56.197121875
20
31.970321875
30
0
0
VERTEX
8
0
10
57.5216
20
30.64584375
30
0
0
VERTEX
8
0
10
57.5216
20
26.340400000000002
30
0
0
VERTEX
8
0
10
55.54565625
20
26.340400000000002
30
0
0
VERTEX
8
0
10
54.221178125
20
27.664878125
30
0
42
0.19891236737965798
0
VERTEX
8
0
10
54.0444
20
27.738100000000003
30
0
0
VERTEX
8
0
10
53.594
20
27.738100000000003
30
0
0
VERTEX
8
0
10
53.594
20
28.892500000000002
30
0
0
VERTEX
8
0
10
52.8967
20
28.892500000000002
30
0
0
VERTEX
8
0
10
52.8967
20
31.6812
30
0
42
0.19891236737965798
0
VERTEX
8
0
10
52.823478125
20
31.857978125000002
30
0
0
VERTEX
8
0
10
47.232678125
20
37.448778125000004
30
0
42
0.19891236737965798
0
VERTEX
8
0
10
47.0559
20
37.522
30
0
0
VERTEX
8
0
10
42.8628
20
37.522
30
0
42
0.19891236737965798
0
VERTEX
8
0
10
42.686021875
20
37.448778125000004
30
0
0
VERTEX
8
0
10
41.288321875
20
36.051078125000004
30
0
42
0.19891236737965798
0
VERTEX
8
0
10
41.2151
20
35.874300000000005
30
0
0
VERTEX
8
0
10
41.2151
20
32.1471
30
0
42
0.19891236737965798
0
VERTEX
8
0
10
41.288321875
20
31.970321875
30
0
0
VERTEX
8
0
10
44.0105
20
29.24814375
30
0
0
VERTEX
8
0
10
44.0105
20
26.65985625
30
0
0
VERTEX
8
0
10
42.686021875
20
25.335378125000002
30
0
42
0.19891236737965798
0
VERTEX
8
0
10
42.6128
20
25.1586
30
0
0
VERTEX
8
0
10
42.6128
20
22.5425
30
0
0
VERTEX
8
0
10
42.164
20
22.5425
30
0
0
VERTEX
8
0
10
42.164
20
22.1473
30
0
0
VERTEX
8
0
10
35.511956250000004
20
22.1473
30
0
0
VERTEX
8
0
10
28.956000000000003
20
28.703256250000003
30
0
0
VERTEX
8
0
10
28.956000000000003
20
30.1625
30
0
0
VERTEX
8
0
10
27.686
20
30.1625
30
0
0
VERTEX
8
0
10
27.686
20
28.2575
30
0
0
VERTEX
8
0
10
28.69464375
20
28.2575
30
0
0
VERTEX
8
0
10
35.231621875
20
21.720521875
30
0
42
0.19891236737965798
0
VERTEX
8
0
10
35.4084
20
21.6473
30
0
0
VERTEX
8
0
10
42.164
20
21.6473
30
0
0
VERTEX
8
0
10
42.164
20
20.6375
30
0
0
VERTEX
8
0
10
43.434000000000005
20
20.6375
30
0
0
VERTEX
8
0
10
43.434000000000005
20
22.5425
30
0
0
VERTEX
8
0
10
43.1128
20
22.5425
30
0
0
VERTEX
8
0
10
43.1128
20
25.055043750000003
30
0
0
VERTEX
8
0
10
44.437278125
20
26.379521875000002
30
0
42
0.19891236737965798
0
VERTEX
8
0
10
44.5105
20
26.5563
30
0
0
VERTEX
8
0
10
44.5105
20
29.3517
30
0
42
0.19891236737965798
0
VERTEX
8
0
10
44.437278125
20
29.528478125000003
30
0
0
VERTEX
8
0
10
41.7151
20
32.25065625
30
0
0
VERTEX
8
0
10
41.7151
20
35.77074375
30
0
0
VERTEX
8
0
10
42.966356250000004
20
37.022
30
0
0
VERTEX
8
0
10
46.952343750000004
20
37.022
30
0
0
VERTEX
8
0
10
52.3967
20
31.57764375
30
0
0
VERTEX
8
0
10
52.3967
20
28.892500000000002
30
0
0
VERTEX
8
0
10
52.324000000000005
20
28.892500000000002
30
0
0
VERTEX
8
0
10
52.324000000000005
20
26.9875
30
0
0
VERTEX
8
0
10
53.594
20
26.9875
30
0
0
VERTEX
8
0
10
53.594
20
27.238100000000003
30
0
0
VERTEX
8
0
10
53.94084375
20
27.238100000000003
30
0
0
VERTEX
8
0
10
55.265321875000005
20
25.913621875
30
0
42
0.19891236737965798
0
VERTEX
8
0
10
55.4421
20
25.840400000000002
30
0
0
VERTEX
8
0
10
61.2488
20
25.840400000000002
30
0
0
SEQEND
0
POLYLINE
66
1
8
1_copper
10
0.0
20
0.0
30
0.0
70
1
0
VERTEX
8
0
10
9.376000000000001
20
26.295
30
0
0
VERTEX
8
0
10
8.291884375
20
26.295
30
0
0
VERTEX
8
0
10
7.951953125
20
26.3383875
30
0
42
0.03174904399347151
0
VERTEX
8
0
10
7.9203
20
26.340400000000002
30
0
0
VERTEX
8
0
10
7.092056250000001
20
26.340400000000002
30
0
0
VERTEX
8
0
10
6.3067
20
27.125756250000002
30
0
0
VERTEX
8
0
10
6.3067
20
27.384543750000002
30
0
0
VERTEX
8
0
10
7.55795625
20
28.6358
30
0
0
VERTEX
8
0
10
24.384
20
28.6358
30
0
0
VERTEX
8
0
10
24.384
20
28.2575
30
0
0
VERTEX
8
0
10
25.654
20
28.2575
30
0
0
VERTEX
8
0
10
25.654
20
30.1625
30
0
0
VERTEX
8
0
10
24.384
20
30.1625
30
0
0
VERTEX
8
0
10
24.384
20
29.1358
30
0
0
VERTEX
8
0
10
7.454400000000001
20
29.1358
30
0
42
0.19891236737965798
0
VERTEX
8
0
10
7.277621875
20
29.062578125
30
0
0
VERTEX
8
0
10
5.879921875
20
27.664878125
30
0
42
0.19891236737965798
0
VERTEX
8
0
10
5.8067
20
27.488100000000003
30
0
0
VERTEX
8
0
10
5.8067
20
27.0222
30
0
42
0.19891236737965798
0
VERTEX
8
0
10
5.879921875
20
26.845421875
30
0
0
VERTEX
8
0
10
6.811721875
20
25.913621875
30
0
42
0.19891236737965798
0
VERTEX
8
0
10
6.9885
20
25.840400000000002
30
0
0
VERTEX
8
0
10
7.176
20
25.840400000000002
30
0
0
VERTEX
8
0
10
7.176
20
25.795
30
0
0
VERTEX
8
0
10
9.376000000000001
20
25.795
30
0
0
SEQEND
0
ENDSEC
0
EOF