0
SECTION
2
HEADER
9
$ANGDIR
70
1
9
$AUNITS
70
0
9
$PROJECTNAME
1
node
9
$TDCREATE
40
2458802.41681940
9
$INSUNITS
70
4
0
ENDSEC
0
SECTION
2
ENTITIES
0
POLYLINE
66
1
8
outline
10
0.0
20
0.0
30
0.0
70
1
0
VERTEX
8
0
10
2.54
20
5.08
30
0
0
VERTEX
8
0
10
46.97
20
5.08
30
0
0
VERTEX
8
0
10
46.97
20
36.5
30
0
0
VERTEX
8
0
10
2.54
20
36.5
30
0
0
VERTEX
8
0
10
2.54
20
5.08
30
0
0
SEQEND
0
POLYLINE
66
1
8
1_copper
10
0.0
20
0.0
30
0.0
70
1
0
VERTEX
8
0
10
24.525000000000002
20
28.523456250000002
30
0
0
VERTEX
8
0
10
24.525000000000002
20
27.454
30
0
0
VERTEX
8
0
10
25.025000000000002
20
27.454
30
0
0
VERTEX
8
0
10
25.025000000000002
20
29.654
30
0
0
VERTEX
8
0
10
24.88265625
20
29.654
30
0
0
VERTEX
8
0
10
27.59165625
20
32.363
30
0
0
VERTEX
8
0
10
29.714043750000002
20
32.363
30
0
0
VERTEX
8
0
10
41.2151
20
20.861943750000002
30
0
0
VERTEX
8
0
10
41.2151
20
10.353356250000001
30
0
0
VERTEX
8
0
10
39.497943750000005
20
8.6362
30
0
0
VERTEX
8
0
10
37.37555625
20
8.6362
30
0
0
VERTEX
8
0
10
36.5902
20
9.42155625
30
0
0
VERTEX
8
0
10
36.5902
20
9.783900000000001
30
0
42
0.19891236737965798
0
VERTEX
8
0
10
36.516978125
20
9.960678125000001
30
0
0
VERTEX
8
0
10
34.653378125
20
11.824278125000001
30
0
42
0.19891236737965798
0
VERTEX
8
0
10
34.476600000000005
20
11.8975
30
0
0
VERTEX
8
0
10
34.114256250000004
20
11.8975
30
0
0
VERTEX
8
0
10
33.94675625
20
12.065000000000001
30
0
0
VERTEX
8
0
10
34.29
20
12.065000000000001
30
0
0
VERTEX
8
0
10
34.29
20
13.335
30
0
0
VERTEX
8
0
10
32.676756250000004
20
13.335
30
0
0
VERTEX
8
0
10
29.528478125000003
20
16.483278125000002
30
0
42
0.19891236737965798
0
VERTEX
8
0
10
29.3517
20
16.5565
30
0
0
VERTEX
8
0
10
28.956000000000003
20
16.5565
30
0
0
VERTEX
8
0
10
28.956000000000003
20
17.462500000000002
30
0
0
VERTEX
8
0
10
27.686
20
17.462500000000002
30
0
0
VERTEX
8
0
10
27.686
20
15.557500000000001
30
0
0
VERTEX
8
0
10
28.956000000000003
20
15.557500000000001
30
0
0
VERTEX
8
0
10
28.956000000000003
20
16.0565
30
0
0
VERTEX
8
0
10
29.24814375
20
16.0565
30
0
0
VERTEX
8
0
10
31.969643750000003
20
13.335
30
0
0
VERTEX
8
0
10
31.75
20
13.335
30
0
0
VERTEX
8
0
10
31.75
20
12.065000000000001
30
0
0
VERTEX
8
0
10
33.23964375
20
12.065000000000001
30
0
0
VERTEX
8
0
10
33.833921875
20
11.470721875
30
0
42
0.19891236737965798
0
VERTEX
8
0
10
34.0107
20
11.3975
30
0
0
VERTEX
8
0
10
34.37304375
20
11.3975
30
0
0
VERTEX
8
0
10
36.0902
20
9.68034375
30
0
0
VERTEX
8
0
10
36.0902
20
9.318
30
0
42
0.19891236737965798
0
VERTEX
8
0
10
36.163421875000004
20
9.141221875000001
30
0
0
VERTEX
8
0
10
37.095221875
20
8.209421875
30
0
42
0.19891236737965798
0
VERTEX
8
0
10
37.272
20
8.1362
30
0
0
VERTEX
8
0
10
39.6015
20
8.1362
30
0
42
0.19891236737965798
0
VERTEX
8
0
10
39.778278125
20
8.209421875
30
0
0
VERTEX
8
0
10
41.641878125000005
20
10.073021875
30
0
42
0.19891236737965798
0
VERTEX
8
0
10
41.7151
20
10.2498
30
0
0
VERTEX
8
0
10
41.7151
20
20.965500000000002
30
0
42
0.19891236737965798
0
VERTEX
8
0
10
41.641878125000005
20
21.142278125
30
0
0
VERTEX
8
0
10
29.994378125
20
32.789778125000005
30
0
42
0.19891236737965798
0
VERTEX
8
0
10
29.817600000000002
20
32.863
30
0
0
VERTEX
8
0
10
27.488100000000003
20
32.863
30
0
42
0.19891236737965798
0
VERTEX
8
0
10
27.311321875
20
32.789778125000005
30
0
0
VERTEX
8
0
10
23.657343750000003
20
29.1358
30
0
0
VERTEX
8
0
10
16.41005625
20
29.1358
30
0
0
VERTEX
8
0
10
16.017378125
20
29.528478125000003
30
0
42
0.19891236737965798
0
VERTEX
8
0
10
15.8406
20
29.6017
30
0
0
VERTEX
8
0
10
10.2498
20
29.6017
30
0
42
0.19891236737965798
0
VERTEX
8
0
10
10.073021875
20
29.528478125000003
30
0
0
VERTEX
8
0
10
9.11954375
20
28.575000000000003
30
0
0
VERTEX
8
0
10
7.24
20
28.575000000000003
30
0
0
VERTEX
8
0
10
7.24
20
27.305
30
0
0
VERTEX
8
0
10
9.780000000000001
20
27.305
30
0
0
VERTEX
8
0
10
9.780000000000001
20
28.52834375
30
0
0
VERTEX
8
0
10
10.353356250000001
20
29.1017
30
0
0
VERTEX
8
0
10
15.737043750000002
20
29.1017
30
0
0
VERTEX
8
0
10
16.129721875
20
28.709021875
30
0
42
0.19891236737965798
0
VERTEX
8
0
10
16.3065
20
28.6358
30
0
0
VERTEX
8
0
10
24.497134375
20
28.6358
30
0
0
SEQEND
0
POLYLINE
66
1
8
1_copper
10
0.0
20
0.0
30
0.0
70
1
0
VERTEX
8
0
10
24.36445625
20
29.1358
30
0
0
VERTEX
8
0
10
24.525000000000002
20
29.296343750000002
30
0
0
VERTEX
8
0
10
24.525000000000002
20
29.1358
30
0
0
SEQEND
0
POLYLINE
66
1
8
1_copper
10
0.0
20
0.0
30
0.0
70
1
0
VERTEX
8
0
10
39.75
20
13.335
30
0
0
VERTEX
8
0
10
38.4538
20
13.335
30
0
0
VERTEX
8
0
10
38.4538
20
21.4314
30
0
42
0.19891236737965798
0
VERTEX
8
0
10
38.380578125
20
21.608178125000002
30
0
0
VERTEX
8
0
10
29.062578125
20
30.926178125
30
0
42
0.19891236737965798
0
VERTEX
8
0
10
28.8858
20
30.9994
30
0
0
VERTEX
8
0
10
28.419900000000002
20
30.9994
30
0
42
0.19891236737965798
0
VERTEX
8
0
10
28.243121875
20
30.926178125
30
0
0
VERTEX
8
0
10
27.311321875
20
29.994378125
30
0
42
0.19891236737965798
0
VERTEX
8
0
10
27.238100000000003
20
29.817600000000002
30
0
0
VERTEX
8
0
10
27.238100000000003
20
29.654
30
0
0
VERTEX
8
0
10
27.065
20
29.654
30
0
0
VERTEX
8
0
10
27.065
20
27.454
30
0
0
VERTEX
8
0
10
27.565
20
27.454
30
0
0
VERTEX
8
0
10
27.565
20
28.49270625
30
0
0
VERTEX
8
0
10
27.70975
20
28.770165625
30
0
42
0.12079619982233403
0
VERTEX
8
0
10
27.738100000000003
20
28.8858
30
0
0
VERTEX
8
0
10
27.738100000000003
20
29.714043750000002
30
0
0
VERTEX
8
0
10
28.523456250000002
20
30.4994
30
0
0
VERTEX
8
0
10
28.782243750000003
20
30.4994
30
0
0
VERTEX
8
0
10
37.9538
20
21.32784375
30
0
0
VERTEX
8
0
10
37.9538
20
13.335
30
0
0
VERTEX
8
0
10
37.21
20
13.335
30
0
0
VERTEX
8
0
10
37.21
20
12.065000000000001
30
0
0
VERTEX
8
0
10
39.75
20
12.065000000000001
30
0
0
SEQEND
0
POLYLINE
66
1
8
1_copper
10
0.0
20
0.0
30
0.0
70
1
0
VERTEX
8
0
10
39.75
20
10.51064375
30
0
0
VERTEX
8
0
10
40.710078125
20
11.470721875
30
0
42
0.19891236737965798
0
VERTEX
8
0
10
40.783300000000004
20
11.6475
30
0
0
VERTEX
8
0
10
40.783300000000004
20
20.4996
30
0
42
0.19891236737965798
0
VERTEX
8
0
10
40.710078125
20
20.676378125
30
0
0
VERTEX
8
0
10
29.528478125000003
20
31.857978125000002
30
0
42
0.19891236737965798
0
VERTEX
8
0
10
29.3517
20
31.9312
30
0
0
VERTEX
8
0
10
27.954
20
31.9312
30
0
42
0.19891236737965798
0
VERTEX
8
0
10
27.777221875000002
20
31.857978125000002
30
0
0
VERTEX
8
0
10
25.913621875
20
29.994378125
30
0
42
0.19891236737965798
0
VERTEX
8
0
10
25.840400000000002
20
29.817600000000002
30
0
0
VERTEX
8
0
10
25.840400000000002
20
29.654
30
0
0
VERTEX
8
0
10
25.795
20
29.654
30
0
0
VERTEX
8
0
10
25.795
20
27.454
30
0
0
VERTEX
8
0
10
26.295
20
27.454
30
0
0
VERTEX
8
0
10
26.295
20
28.536987500000002
30
0
0
VERTEX
8
0
10
26.338090625
20
28.851909375
30
0
42
0.03400861094561452
0
VERTEX
8
0
10
26.340400000000002
20
28.8858
30
0
0
VERTEX
8
0
10
26.340400000000002
20
29.714043750000002
30
0
0
VERTEX
8
0
10
28.05755625
20
31.4312
30
0
0
VERTEX
8
0
10
29.24814375
20
31.4312
30
0
0
VERTEX
8
0
10
40.283300000000004
20
20.39604375
30
0
0
VERTEX
8
0
10
40.283300000000004
20
11.751056250000001
30
0
0
VERTEX
8
0
10
39.32724375
20
10.795
30
0
0
VERTEX
8
0
10
37.21
20
10.795
30
0
0
VERTEX
8
0
10
37.21
20
9.525
30
0
0
VERTEX
8
0
10
39.75
20
9.525
30
0
0
SEQEND
0
POLYLINE
66
1
8
1_copper
10
0.0
20
0.0
30
0.0
70
1
0
VERTEX
8
0
10
12.446
20
17.462500000000002
30
0
0
VERTEX
8
0
10
11.31095625
20
17.462500000000002
30
0
0
VERTEX
8
0
10
6.772600000000001
20
22.000856250000002
30
0
0
VERTEX
8
0
10
6.772600000000001
20
23.657343750000003
30
0
0
VERTEX
8
0
10
7.88025625
20
24.765
30
0
0
VERTEX
8
0
10
9.35804375
20
24.765
30
0
0
VERTEX
8
0
10
10.4657
20
23.657343750000003
30
0
0
VERTEX
8
0
10
10.4657
20
22.8291
30
0
42
0.19891236737965798
0
VERTEX
8
0
10
10.538921875
20
22.652321875000002
30
0
0
VERTEX
8
0
10
11.936621875
20
21.254621875
30
0
42
0.19891236737965798
0
VERTEX
8
0
10
12.1134
20
21.1814
30
0
0
VERTEX
8
0
10
15.3747
20
21.1814
30
0
42
0.19891236737965798
0
VERTEX
8
0
10
15.551478125000001
20
21.254621875
30
0
0
VERTEX
8
0
10
15.94415625
20
21.6473
30
0
0
VERTEX
8
0
10
24.515
20
21.6473
30
0
0
VERTEX
8
0
10
24.515
20
21.146
30
0
0
VERTEX
8
0
10
25.015
20
21.146
30
0
0
VERTEX
8
0
10
25.015
20
23.346
30
0
0
VERTEX
8
0
10
24.515
20
23.346
30
0
0
VERTEX
8
0
10
24.515
20
22.271646875000002
30
0
0
VERTEX
8
0
10
24.489218750000003
20
22.1473
30
0
0
VERTEX
8
0
10
15.8406
20
22.1473
30
0
42
0.19891236737965798
0
VERTEX
8
0
10
15.663821875
20
22.074078125
30
0
0
VERTEX
8
0
10
15.27114375
20
21.6814
30
0
0
VERTEX
8
0
10
12.21695625
20
21.6814
30
0
0
VERTEX
8
0
10
10.9657
20
22.93265625
30
0
0
VERTEX
8
0
10
10.9657
20
23.7609
30
0
42
0.19891236737965798
0
VERTEX
8
0
10
10.892478125
20
23.937678125
30
0
0
VERTEX
8
0
10
9.780000000000001
20
25.05015625
30
0
0
VERTEX
8
0
10
9.780000000000001
20
26.035
30
0
0
VERTEX
8
0
10
7.24
20
26.035
30
0
0
VERTEX
8
0
10
7.24
20
24.83185625
30
0
0
VERTEX
8
0
10
6.345821875
20
23.937678125
30
0
42
0.19891236737965798
0
VERTEX
8
0
10
6.272600000000001
20
23.7609
30
0
0
VERTEX
8
0
10
6.272600000000001
20
21.8973
30
0
42
0.19891236737965798
0
VERTEX
8
0
10
6.345821875
20
21.720521875
30
0
0
VERTEX
8
0
10
11.176
20
16.89034375
30
0
0
VERTEX
8
0
10
11.176
20
15.557500000000001
30
0
0
VERTEX
8
0
10
12.446
20
15.557500000000001
30
0
0
SEQEND
0
POLYLINE
66
1
8
1_copper
10
0.0
20
0.0
30
0.0
70
1
0
VERTEX
8
0
10
26.285
20
22.189884375000002
30
0
42
0.18393605383664263
0
VERTEX
8
0
10
26.340400000000002
20
22.363200000000003
30
0
0
VERTEX
8
0
10
26.340400000000002
20
23.295
30
0
42
0.19891236737965798
0
VERTEX
8
0
10
26.267178125
20
23.471778125
30
0
0
VERTEX
8
0
10
25.335378125000002
20
24.403578125000003
30
0
42
0.19891236737965798
0
VERTEX
8
0
10
25.1586
20
24.4768
30
0
0
VERTEX
8
0
10
15.8406
20
24.4768
30
0
42
0.19891236737965798
0
VERTEX
8
0
10
15.663821875
20
24.403578125000003
30
0
0
VERTEX
8
0
10
14.80524375
20
23.545
30
0
0
VERTEX
8
0
10
13.977
20
23.545
30
0
42
0.1620260334629546
0
VERTEX
8
0
10
13.827306250000001
20
23.495
30
0
0
VERTEX
8
0
10
12.700000000000001
20
23.495
30
0
0
VERTEX
8
0
10
12.700000000000001
20
22.225
30
0
0
VERTEX
8
0
10
15.24
20
22.225
30
0
0
VERTEX
8
0
10
15.24
20
23.27264375
30
0
0
VERTEX
8
0
10
15.94415625
20
23.9768
30
0
0
VERTEX
8
0
10
25.055043750000003
20
23.9768
30
0
0
VERTEX
8
0
10
25.785
20
23.24684375
30
0
0
VERTEX
8
0
10
25.785
20
21.146
30
0
0
VERTEX
8
0
10
26.285
20
21.146
30
0
0
SEQEND
0
POLYLINE
66
1
8
1_copper
10
0.0
20
0.0
30
0.0
70
1
0
VERTEX
8
0
10
27.555
20
22.10919375
30
0
42
0.34064480060834534
0
VERTEX
8
0
10
27.738100000000003
20
22.363200000000003
30
0
0
VERTEX
8
0
10
27.738100000000003
20
23.295
30
0
42
0.19891236737965798
0
VERTEX
8
0
10
27.664878125
20
23.471778125
30
0
0
VERTEX
8
0
10
25.801278125
20
25.335378125000002
30
0
42
0.19891236737965798
0
VERTEX
8
0
10
25.6245
20
25.4086
30
0
0
VERTEX
8
0
10
15.24
20
25.4086
30
0
0
VERTEX
8
0
10
15.24
20
26.035
30
0
0
VERTEX
8
0
10
12.700000000000001
20
26.035
30
0
0
VERTEX
8
0
10
12.700000000000001
20
24.765
30
0
0
VERTEX
8
0
10
15.24
20
24.765
30
0
0
VERTEX
8
0
10
15.24
20
24.9086
30
0
0
VERTEX
8
0
10
25.52094375
20
24.9086
30
0
0
VERTEX
8
0
10
27.08354375
20
23.346
30
0
0
VERTEX
8
0
10
27.055
20
23.346
30
0
0
VERTEX
8
0
10
27.055
20
21.146
30
0
0
VERTEX
8
0
10
27.555
20
21.146
30
0
0
SEQEND
0
POLYLINE
66
1
8
1_copper
10
0.0
20
0.0
30
0.0
70
1
0
VERTEX
8
0
10
30.067440625
20
27.024206250000002
30
0
42
0.19682628245095668
0
VERTEX
8
0
10
29.994378125
20
27.198978125
30
0
0
VERTEX
8
0
10
28.825000000000003
20
28.36835625
30
0
0
VERTEX
8
0
10
28.825000000000003
20
29.654
30
0
0
VERTEX
8
0
10
28.325000000000003
20
29.654
30
0
0
VERTEX
8
0
10
28.325000000000003
20
28.668334375
30
0
42
0.5434842372290972
0
VERTEX
8
0
10
28.243121875
20
28.243121875
30
0
0
VERTEX
8
0
10
28.325000000000003
20
28.16124375
30
0
0
VERTEX
8
0
10
28.325000000000003
20
27.454
30
0
0
VERTEX
8
0
10
28.825000000000003
20
27.454
30
0
0
VERTEX
8
0
10
28.825000000000003
20
27.66124375
30
0
0
VERTEX
8
0
10
29.567600000000002
20
26.91864375
30
0
0
VERTEX
8
0
10
29.567600000000002
20
26.8063
30
0
0
VERTEX
8
0
10
24.33035625
20
26.8063
30
0
0
VERTEX
8
0
10
23.471778125
20
27.664878125
30
0
42
0.19891236737965798
0
VERTEX
8
0
10
23.295
20
27.738100000000003
30
0
0
VERTEX
8
0
10
15.24
20
27.738100000000003
30
0
0
VERTEX
8
0
10
15.24
20
28.575000000000003
30
0
0
VERTEX
8
0
10
12.700000000000001
20
28.575000000000003
30
0
0
VERTEX
8
0
10
12.700000000000001
20
27.305
30
0
0
VERTEX
8
0
10
13.80721875
20
27.305
30
0
42
0.18912603856112478
0
VERTEX
8
0
10
13.977
20
27.238100000000003
30
0
0
VERTEX
8
0
10
23.19144375
20
27.238100000000003
30
0
0
VERTEX
8
0
10
24.050021875000002
20
26.379521875000002
30
0
42
0.19891236737965798
0
VERTEX
8
0
10
24.2268
20
26.3063
30
0
0
VERTEX
8
0
10
29.567600000000002
20
26.3063
30
0
0
VERTEX
8
0
10
29.567600000000002
20
21.069056250000003
30
0
0
VERTEX
8
0
10
27.85044375
20
19.3519
30
0
0
VERTEX
8
0
10
20.0337
20
19.3519
30
0
42
0.19891236737965798
0
VERTEX
8
0
10
19.856921875
20
19.278678125000003
30
0
0
VERTEX
8
0
10
18.034000000000002
20
17.45575625
30
0
0
VERTEX
8
0
10
18.034000000000002
20
17.462500000000002
30
0
0
VERTEX
8
0
10
16.764
20
17.462500000000002
30
0
0
VERTEX
8
0
10
16.764
20
15.557500000000001
30
0
0
VERTEX
8
0
10
18.034000000000002
20
15.557500000000001
30
0
0
VERTEX
8
0
10
18.034000000000002
20
16.74864375
30
0
0
VERTEX
8
0
10
20.13725625
20
18.8519
30
0
0
VERTEX
8
0
10
27.954
20
18.8519
30
0
42
0.19891236737965798
0
VERTEX
8
0
10
28.130778125000003
20
18.925121875000002
30
0
0
VERTEX
8
0
10
29.994378125
20
20.788721875
30
0
42
0.19891236737965798
0
VERTEX
8
0
10
30.067600000000002
20
20.965500000000002
30
0
0
VERTEX
8
0
10
30.067600000000002
20
27.0222
30
0
0
SEQEND
0
POLYLINE
66
1
8
1_copper
10
0.0
20
0.0
30
0.0
70
1
0
VERTEX
8
0
10
9.144
20
11.1125
30
0
0
VERTEX
8
0
10
8.6362
20
11.1125
30
0
0
VERTEX
8
0
10
8.6362
20
15.557500000000001
30
0
0
VERTEX
8
0
10
9.144
20
15.557500000000001
30
0
0
VERTEX
8
0
10
9.144
20
17.462500000000002
30
0
0
VERTEX
8
0
10
7.8740000000000006
20
17.462500000000002
30
0
0
VERTEX
8
0
10
7.8740000000000006
20
15.557500000000001
30
0
0
VERTEX
8
0
10
8.1362
20
15.557500000000001
30
0
0
VERTEX
8
0
10
8.1362
20
11.1125
30
0
0
VERTEX
8
0
10
7.8740000000000006
20
11.1125
30
0
0
VERTEX
8
0
10
7.8740000000000006
20
9.2075
30
0
0
VERTEX
8
0
10
9.144
20
9.2075
30
0
0
SEQEND
0
POLYLINE
66
1
8
1_copper
10
0.0
20
0.0
30
0.0
70
1
0
VERTEX
8
0
10
21.336000000000002
20
15.557500000000001
30
0
0
VERTEX
8
0
10
21.336000000000002
20
16.5224
30
0
0
VERTEX
8
0
10
24.384
20
16.5224
30
0
0
VERTEX
8
0
10
24.384
20
15.557500000000001
30
0
0
VERTEX
8
0
10
25.55404375
20
15.557500000000001
30
0
0
VERTEX
8
0
10
31.038521875
20
10.073021875
30
0
42
0.19891236737965798
0
VERTEX
8
0
10
31.215300000000003
20
9.9998
30
0
0
VERTEX
8
0
10
31.75
20
9.9998
30
0
0
VERTEX
8
0
10
31.75
20
9.525
30
0
0
VERTEX
8
0
10
34.29
20
9.525
30
0
0
VERTEX
8
0
10
34.29
20
10.795
30
0
0
VERTEX
8
0
10
31.75
20
10.795
30
0
0
VERTEX
8
0
10
31.75
20
10.4998
30
0
0
VERTEX
8
0
10
31.318856250000003
20
10.4998
30
0
0
VERTEX
8
0
10
25.654
20
16.16465625
30
0
0
VERTEX
8
0
10
25.654
20
17.462500000000002
30
0
0
VERTEX
8
0
10
24.384
20
17.462500000000002
30
0
0
VERTEX
8
0
10
24.384
20
17.0224
30
0
0
VERTEX
8
0
10
21.336000000000002
20
17.0224
30
0
0
VERTEX
8
0
10
21.336000000000002
20
17.462500000000002
30
0
0
VERTEX
8
0
10
20.066000000000003
20
17.462500000000002
30
0
0
VERTEX
8
0
10
20.066000000000003
20
16.226456250000002
30
0
0
VERTEX
8
0
10
17.7042
20
13.864656250000001
30
0
0
VERTEX
8
0
10
16.090600000000002
20
15.478256250000001
30
0
0
VERTEX
8
0
10
16.090600000000002
20
17.60064375
30
0
0
VERTEX
8
0
10
18.273656250000002
20
19.7837
30
0
0
VERTEX
8
0
10
27.488100000000003
20
19.7837
30
0
42
0.19891236737965798
0
VERTEX
8
0
10
27.664878125
20
19.856921875
30
0
0
VERTEX
8
0
10
28.596678125
20
20.788721875
30
0
42
0.19891236737965798
0
VERTEX
8
0
10
28.669900000000002
20
20.965500000000002
30
0
0
VERTEX
8
0
10
28.669900000000002
20
21.146
30
0
0
VERTEX
8
0
10
28.825000000000003
20
21.146
30
0
0
VERTEX
8
0
10
28.825000000000003
20
23.346
30
0
0
VERTEX
8
0
10
28.325000000000003
20
23.346
30
0
0
VERTEX
8
0
10
28.325000000000003
20
22.299087500000002
30
0
0
VERTEX
8
0
10
28.191478125
20
21.998900000000003
30
0
42
0.10501189845545088
0
VERTEX
8
0
10
28.169900000000002
20
21.8973
30
0
0
VERTEX
8
0
10
28.169900000000002
20
21.069056250000003
30
0
0
VERTEX
8
0
10
27.384543750000002
20
20.2837
30
0
0
VERTEX
8
0
10
18.1701
20
20.2837
30
0
42
0.19891236737965798
0
VERTEX
8
0
10
17.993321875
20
20.210478125
30
0
0
VERTEX
8
0
10
15.737043750000002
20
17.9542
30
0
0
VERTEX
8
0
10
14.08055625
20
17.9542
30
0
0
VERTEX
8
0
10
9.780000000000001
20
22.25475625
30
0
0
VERTEX
8
0
10
9.780000000000001
20
23.495
30
0
0
VERTEX
8
0
10
7.24
20
23.495
30
0
0
VERTEX
8
0
10
7.24
20
22.225
30
0
0
VERTEX
8
0
10
9.10264375
20
22.225
30
0
0
VERTEX
8
0
10
13.800221875
20
17.527421875
30
0
42
0.19891236737965798
0
VERTEX
8
0
10
13.977
20
17.4542
30
0
0
VERTEX
8
0
10
15.5906
20
17.4542
30
0
0
VERTEX
8
0
10
15.5906
20
15.3747
30
0
42
0.19891236737965798
0
VERTEX
8
0
10
15.663821875
20
15.197921875
30
0
0
VERTEX
8
0
10
17.35064375
20
13.5111
30
0
0
VERTEX
8
0
10
14.339343750000001
20
10.4998
30
0
0
VERTEX
8
0
10
12.446
20
10.4998
30
0
0
VERTEX
8
0
10
12.446
20
11.1125
30
0
0
VERTEX
8
0
10
11.176
20
11.1125
30
0
0
VERTEX
8
0
10
11.176
20
9.2075
30
0
0
VERTEX
8
0
10
12.446
20
9.2075
30
0
0
VERTEX
8
0
10
12.446
20
9.9998
30
0
0
VERTEX
8
0
10
14.4429
20
9.9998
30
0
42
0.19891236737965798
0
VERTEX
8
0
10
14.619678125
20
10.073021875
30
0
0
VERTEX
8
0
10
20.104156250000003
20
15.557500000000001
30
0
0
SEQEND
0
ENDSEC
0
EOF