0
SECTION
2
HEADER
9
$ANGDIR
70
1
9
$AUNITS
70
0
9
$PROJECTNAME
1
bridge
9
$TDCREATE
40
2458802.41635911
9
$INSUNITS
70
4
0
ENDSEC
0
SECTION
2
ENTITIES
0
POLYLINE
66
1
8
outline
10
0.0
20
0.0
30
0.0
70
1
0
VERTEX
8
0
10
1.27
20
5.08
30
0
0
VERTEX
8
0
10
46.97
20
5.08
30
0
0
VERTEX
8
0
10
46.97
20
33.96
30
0
0
VERTEX
8
0
10
1.27
20
33.96
30
0
0
VERTEX
8
0
10
1.27
20
5.08
30
0
0
SEQEND
0
POLYLINE
66
1
8
1_copper
10
0.0
20
0.0
30
0.0
70
1
0
VERTEX
8
0
10
44.45
20
26.035
30
0
0
VERTEX
8
0
10
41.910000000000004
20
26.035
30
0
0
VERTEX
8
0
10
41.910000000000004
20
24.765
30
0
0
VERTEX
8
0
10
44.45
20
24.765
30
0
0
SEQEND
0
POLYLINE
66
1
8
1_copper
10
0.0
20
0.0
30
0.0
70
1
0
VERTEX
8
0
10
44.45
20
15.875
30
0
0
VERTEX
8
0
10
41.910000000000004
20
15.875
30
0
0
VERTEX
8
0
10
41.910000000000004
20
14.605
30
0
0
VERTEX
8
0
10
44.45
20
14.605
30
0
0
SEQEND
0
POLYLINE
66
1
8
1_copper
10
0.0
20
0.0
30
0.0
70
1
0
VERTEX
8
0
10
5.0125
20
9.775
30
0
0
VERTEX
8
0
10
5.0125
20
24.66144375
30
0
0
VERTEX
8
0
10
7.656056250000001
20
27.305
30
0
0
VERTEX
8
0
10
9.780000000000001
20
27.305
30
0
0
VERTEX
8
0
10
9.780000000000001
20
28.575000000000003
30
0
0
VERTEX
8
0
10
8.8225
20
28.575000000000003
30
0
0
VERTEX
8
0
10
8.8225
20
29.2775
30
0
0
VERTEX
8
0
10
19.26394375
20
29.2775
30
0
0
VERTEX
8
0
10
20.143221875000002
20
28.398221875
30
0
42
0.19891236737965798
0
VERTEX
8
0
10
20.32
20
28.325000000000003
30
0
0
VERTEX
8
0
10
20.715
20
28.325000000000003
30
0
0
VERTEX
8
0
10
20.715
20
27.454
30
0
0
VERTEX
8
0
10
21.215
20
27.454
30
0
0
VERTEX
8
0
10
21.215
20
29.654
30
0
0
VERTEX
8
0
10
20.715
20
29.654
30
0
0
VERTEX
8
0
10
20.715
20
28.825000000000003
30
0
0
VERTEX
8
0
10
20.42355625
20
28.825000000000003
30
0
0
VERTEX
8
0
10
19.544278125
20
29.704278125000002
30
0
42
0.19891236737965798
0
VERTEX
8
0
10
19.3675
20
29.7775
30
0
0
VERTEX
8
0
10
8.5725
20
29.7775
30
0
42
0.4142135623730951
0
VERTEX
8
0
10
8.3225
20
29.5275
30
0
0
VERTEX
8
0
10
8.3225
20
28.575000000000003
30
0
0
VERTEX
8
0
10
7.24
20
28.575000000000003
30
0
0
VERTEX
8
0
10
7.24
20
27.59605625
30
0
0
VERTEX
8
0
10
4.585721875
20
24.941778125000003
30
0
42
0.19891236737965798
0
VERTEX
8
0
10
4.5125
20
24.765
30
0
0
VERTEX
8
0
10
4.5125
20
9.525
30
0
42
0.4142135623730951
0
VERTEX
8
0
10
4.7625
20
9.275
30
0
0
VERTEX
8
0
10
8.5725
20
9.275
30
0
42
0.06862809722017985
0
VERTEX
8
0
10
8.64
20
9.284921875
30
0
0
VERTEX
8
0
10
8.64
20
8.5725
30
0
42
0.4142135623730951
0
VERTEX
8
0
10
8.89
20
8.3225
30
0
0
VERTEX
8
0
10
30.48
20
8.3225
30
0
42
0.19891236737965798
0
VERTEX
8
0
10
30.656778125000002
20
8.395721875
30
0
0
VERTEX
8
0
10
31.609278125000003
20
9.348221875
30
0
42
0.19891236737965798
0
VERTEX
8
0
10
31.6825
20
9.525
30
0
0
VERTEX
8
0
10
31.6825
20
10.795
30
0
42
0.19891236737965798
0
VERTEX
8
0
10
31.609278125000003
20
10.971778125
30
0
0
VERTEX
8
0
10
30.48
20
12.101056250000001
30
0
0
VERTEX
8
0
10
30.48
20
13.335
30
0
0
VERTEX
8
0
10
30.198556250000003
20
13.335
30
0
0
VERTEX
8
0
10
41.134278125
20
24.270721875
30
0
42
0.19891236737965798
0
VERTEX
8
0
10
41.2075
20
24.4475
30
0
0
VERTEX
8
0
10
41.2075
20
25.93144375
30
0
0
VERTEX
8
0
10
42.58105625
20
27.305
30
0
0
VERTEX
8
0
10
44.45
20
27.305
30
0
0
VERTEX
8
0
10
44.45
20
28.575000000000003
30
0
0
VERTEX
8
0
10
41.910000000000004
20
28.575000000000003
30
0
0
VERTEX
8
0
10
41.910000000000004
20
27.34105625
30
0
0
VERTEX
8
0
10
40.780721875000005
20
26.211778125000002
30
0
42
0.19891236737965798
0
VERTEX
8
0
10
40.7075
20
26.035
30
0
0
VERTEX
8
0
10
40.7075
20
24.551056250000002
30
0
0
VERTEX
8
0
10
29.491443750000002
20
13.335
30
0
0
VERTEX
8
0
10
27.94
20
13.335
30
0
0
VERTEX
8
0
10
27.94
20
12.065000000000001
30
0
0
VERTEX
8
0
10
29.80894375
20
12.065000000000001
30
0
0
VERTEX
8
0
10
31.1825
20
10.691443750000001
30
0
0
VERTEX
8
0
10
31.1825
20
9.62855625
30
0
0
VERTEX
8
0
10
30.37644375
20
8.8225
30
0
0
VERTEX
8
0
10
9.14
20
8.8225
30
0
0
VERTEX
8
0
10
9.14
20
9.525
30
0
42
0.1724440023649723
0
VERTEX
8
0
10
9.083571875
20
9.682515625
30
0
0
VERTEX
8
0
10
9.906
20
10.50494375
30
0
0
VERTEX
8
0
10
9.906
20
10.477500000000001
30
0
0
VERTEX
8
0
10
11.176
20
10.477500000000001
30
0
0
VERTEX
8
0
10
11.176
20
12.3825
30
0
0
VERTEX
8
0
10
9.906
20
12.3825
30
0
0
VERTEX
8
0
10
9.906
20
11.21205625
30
0
0
VERTEX
8
0
10
8.468943750000001
20
9.775
30
0
0
SEQEND
0
POLYLINE
66
1
8
1_copper
10
0.0
20
0.0
30
0.0
70
1
0
VERTEX
8
0
10
45.403853125000005
20
6.41760625
30
0
42
0.4126285070906998
0
VERTEX
8
0
10
45.6525
20
6.6675
30
0
0
VERTEX
8
0
10
45.6525
20
18.415
30
0
42
0.19891236737965798
0
VERTEX
8
0
10
45.579278125
20
18.591778125
30
0
0
VERTEX
8
0
10
44.45
20
19.72105625
30
0
0
VERTEX
8
0
10
44.45
20
20.955000000000002
30
0
0
VERTEX
8
0
10
41.910000000000004
20
20.955000000000002
30
0
0
VERTEX
8
0
10
41.910000000000004
20
20.57
30
0
0
VERTEX
8
0
10
41.5925
20
20.57
30
0
42
0.19891236737965798
0
VERTEX
8
0
10
41.415721875
20
20.496778125000002
30
0
0
VERTEX
8
0
10
39.510721875
20
18.591778125
30
0
42
0.19891236737965798
0
VERTEX
8
0
10
39.4375
20
18.415
30
0
0
VERTEX
8
0
10
39.4375
20
17.566056250000003
30
0
0
VERTEX
8
0
10
35.20644375
20
13.335
30
0
0
VERTEX
8
0
10
33.4
20
13.335
30
0
0
VERTEX
8
0
10
33.4
20
12.065000000000001
30
0
0
VERTEX
8
0
10
35.940000000000005
20
12.065000000000001
30
0
0
VERTEX
8
0
10
35.940000000000005
20
13.335
30
0
0
VERTEX
8
0
10
35.91355625
20
13.335
30
0
0
VERTEX
8
0
10
39.864278125
20
17.285721875
30
0
42
0.19891236737965798
0
VERTEX
8
0
10
39.9375
20
17.462500000000002
30
0
0
VERTEX
8
0
10
39.9375
20
18.311443750000002
30
0
0
VERTEX
8
0
10
41.696056250000005
20
20.07
30
0
0
VERTEX
8
0
10
41.910000000000004
20
20.07
30
0
0
VERTEX
8
0
10
41.910000000000004
20
19.685000000000002
30
0
0
VERTEX
8
0
10
43.77894375
20
19.685000000000002
30
0
0
VERTEX
8
0
10
45.1525
20
18.311443750000002
30
0
0
VERTEX
8
0
10
45.1525
20
6.9175
30
0
0
VERTEX
8
0
10
4.54855625
20
6.9175
30
0
0
VERTEX
8
0
10
3.1075
20
8.358556250000001
30
0
0
VERTEX
8
0
10
3.1075
20
31.1825
30
0
0
VERTEX
8
0
10
22.12144375
20
31.1825
30
0
0
VERTEX
8
0
10
22.927500000000002
20
30.37644375
30
0
0
VERTEX
8
0
10
22.927500000000002
20
28.892500000000002
30
0
42
0.19891236737965798
0
VERTEX
8
0
10
23.000721875
20
28.715721875
30
0
0
VERTEX
8
0
10
23.255000000000003
20
28.46144375
30
0
0
VERTEX
8
0
10
23.255000000000003
20
27.454
30
0
0
VERTEX
8
0
10
23.755000000000003
20
27.454
30
0
0
VERTEX
8
0
10
23.755000000000003
20
29.654
30
0
0
VERTEX
8
0
10
23.427500000000002
20
29.654
30
0
0
VERTEX
8
0
10
23.427500000000002
20
30.48
30
0
42
0.19891236737965798
0
VERTEX
8
0
10
23.354278125
20
30.656778125000002
30
0
0
VERTEX
8
0
10
22.401778125
20
31.609278125000003
30
0
42
0.19891236737965798
0
VERTEX
8
0
10
22.225
20
31.6825
30
0
0
VERTEX
8
0
10
2.8575
20
31.6825
30
0
42
0.4142135623730951
0
VERTEX
8
0
10
2.6075
20
31.4325
30
0
0
VERTEX
8
0
10
2.6075
20
8.255
30
0
42
0.19891236737965798
0
VERTEX
8
0
10
2.680721875
20
8.078221875
30
0
0
VERTEX
8
0
10
4.268221875
20
6.490721875
30
0
42
0.19891236737965798
0
VERTEX
8
0
10
4.445
20
6.4175
30
0
0
VERTEX
8
0
10
45.4025
20
6.4175
30
0
0
SEQEND
0
POLYLINE
66
1
8
1_copper
10
0.0
20
0.0
30
0.0
70
1
0
VERTEX
8
0
10
34.608853125
20
7.37010625
30
0
42
0.4126285070906998
0
VERTEX
8
0
10
34.8575
20
7.62
30
0
0
VERTEX
8
0
10
34.8575
20
9.42144375
30
0
0
VERTEX
8
0
10
34.96105625
20
9.525
30
0
0
VERTEX
8
0
10
35.940000000000005
20
9.525
30
0
0
VERTEX
8
0
10
35.940000000000005
20
10.503943750000001
30
0
0
VERTEX
8
0
10
40.816778125
20
15.380721875
30
0
42
0.19891236737965798
0
VERTEX
8
0
10
40.89
20
15.557500000000001
30
0
0
VERTEX
8
0
10
40.89
20
17.53
30
0
0
VERTEX
8
0
10
41.910000000000004
20
17.53
30
0
0
VERTEX
8
0
10
41.910000000000004
20
17.145
30
0
0
VERTEX
8
0
10
44.45
20
17.145
30
0
0
VERTEX
8
0
10
44.45
20
18.415
30
0
0
VERTEX
8
0
10
41.910000000000004
20
18.415
30
0
0
VERTEX
8
0
10
41.910000000000004
20
18.03
30
0
0
VERTEX
8
0
10
40.64
20
18.03
30
0
42
0.4142135623730951
0
VERTEX
8
0
10
40.39
20
17.78
30
0
0
VERTEX
8
0
10
40.39
20
15.661056250000001
30
0
0
VERTEX
8
0
10
35.52394375
20
10.795
30
0
0
VERTEX
8
0
10
33.4
20
10.795
30
0
0
VERTEX
8
0
10
33.4
20
9.525
30
0
0
VERTEX
8
0
10
34.3575
20
9.525
30
0
0
VERTEX
8
0
10
34.3575
20
7.87
30
0
0
VERTEX
8
0
10
5.1835562500000005
20
7.87
30
0
0
VERTEX
8
0
10
4.0600000000000005
20
8.993556250000001
30
0
0
VERTEX
8
0
10
4.0600000000000005
20
30.23
30
0
0
VERTEX
8
0
10
21.48644375
20
30.23
30
0
0
VERTEX
8
0
10
21.657500000000002
20
30.05894375
30
0
0
VERTEX
8
0
10
21.657500000000002
20
28.892500000000002
30
0
42
0.19891236737965798
0
VERTEX
8
0
10
21.730721875
20
28.715721875
30
0
0
VERTEX
8
0
10
21.985
20
28.46144375
30
0
0
VERTEX
8
0
10
21.985
20
27.454
30
0
0
VERTEX
8
0
10
22.485
20
27.454
30
0
0
VERTEX
8
0
10
22.485
20
29.654
30
0
0
VERTEX
8
0
10
22.157500000000002
20
29.654
30
0
0
VERTEX
8
0
10
22.157500000000002
20
30.1625
30
0
42
0.19891236737965798
0
VERTEX
8
0
10
22.084278125
20
30.339278125
30
0
0
VERTEX
8
0
10
21.766778125000002
20
30.656778125000002
30
0
42
0.19891236737965798
0
VERTEX
8
0
10
21.59
20
30.73
30
0
0
VERTEX
8
0
10
3.81
20
30.73
30
0
42
0.4142135623730951
0
VERTEX
8
0
10
3.56
20
30.48
30
0
0
VERTEX
8
0
10
3.56
20
8.89
30
0
42
0.19891236737965798
0
VERTEX
8
0
10
3.6332218750000003
20
8.713221875
30
0
0
VERTEX
8
0
10
4.903221875
20
7.443221875000001
30
0
42
0.19891236737965798
0
VERTEX
8
0
10
5.08
20
7.37
30
0
0
VERTEX
8
0
10
34.6075
20
7.37
30
0
0
SEQEND
0
POLYLINE
66
1
8
1_copper
10
0.0
20
0.0
30
0.0
70
1
0
VERTEX
8
0
10
8.07690625
20
19.8602375
30
0
42
0.19681235001734676
0
VERTEX
8
0
10
8.005
20
19.685000000000002
30
0
0
VERTEX
8
0
10
8.005
20
16.29605625
30
0
0
VERTEX
8
0
10
7.8740000000000006
20
16.16505625
30
0
0
VERTEX
8
0
10
7.8740000000000006
20
16.1925
30
0
0
VERTEX
8
0
10
6.604
20
16.1925
30
0
0
VERTEX
8
0
10
6.604
20
14.287500000000001
30
0
0
VERTEX
8
0
10
7.8740000000000006
20
14.287500000000001
30
0
0
VERTEX
8
0
10
7.8740000000000006
20
15.45794375
30
0
0
VERTEX
8
0
10
8.431778125000001
20
16.015721875
30
0
42
0.19891236737965798
0
VERTEX
8
0
10
8.505
20
16.1925
30
0
0
VERTEX
8
0
10
8.505
20
19.581443750000002
30
0
0
VERTEX
8
0
10
10.002678125000001
20
21.079121875000002
30
0
42
0.172415095314269
0
VERTEX
8
0
10
10.16
20
21.0225
30
0
0
VERTEX
8
0
10
15.24
20
21.0225
30
0
42
0.19891236737965798
0
VERTEX
8
0
10
15.416778125
20
21.095721875000002
30
0
0
VERTEX
8
0
10
16.29605625
20
21.975
30
0
0
VERTEX
8
0
10
20.705000000000002
20
21.975
30
0
0
VERTEX
8
0
10
20.705000000000002
20
21.146
30
0
0
VERTEX
8
0
10
21.205000000000002
20
21.146
30
0
0
VERTEX
8
0
10
21.205000000000002
20
23.346
30
0
0
VERTEX
8
0
10
20.705000000000002
20
23.346
30
0
0
VERTEX
8
0
10
20.705000000000002
20
22.475
30
0
0
VERTEX
8
0
10
16.1925
20
22.475
30
0
42
0.19891236737965798
0
VERTEX
8
0
10
16.015721875
20
22.401778125
30
0
0
VERTEX
8
0
10
15.136443750000002
20
21.5225
30
0
0
VERTEX
8
0
10
10.44605625
20
21.5225
30
0
0
VERTEX
8
0
10
10.654278125000001
20
21.730721875
30
0
42
0.19891236737965798
0
VERTEX
8
0
10
10.727500000000001
20
21.907500000000002
30
0
0
VERTEX
8
0
10
10.727500000000001
20
23.8125
30
0
42
0.19891236737965798
0
VERTEX
8
0
10
10.654278125000001
20
23.989278125000002
30
0
0
VERTEX
8
0
10
9.780000000000001
20
24.863556250000002
30
0
0
VERTEX
8
0
10
9.780000000000001
20
26.035
30
0
0
VERTEX
8
0
10
7.24
20
26.035
30
0
0
VERTEX
8
0
10
7.24
20
24.765
30
0
0
VERTEX
8
0
10
9.17144375
20
24.765
30
0
0
VERTEX
8
0
10
10.227500000000001
20
23.70894375
30
0
0
VERTEX
8
0
10
10.227500000000001
20
22.01105625
30
0
0
VERTEX
8
0
10
8.078221875
20
19.861778125
30
0
0
SEQEND
0
POLYLINE
66
1
8
1_copper
10
0.0
20
0.0
30
0.0
70
1
0
VERTEX
8
0
10
22.475
20
23.346
30
0
0
VERTEX
8
0
10
22.157500000000002
20
23.346
30
0
0
VERTEX
8
0
10
22.157500000000002
20
23.8125
30
0
42
0.19891236737965798
0
VERTEX
8
0
10
22.084278125
20
23.989278125000002
30
0
0
VERTEX
8
0
10
21.766778125000002
20
24.306778125
30
0
42
0.19891236737965798
0
VERTEX
8
0
10
21.59
20
24.380000000000003
30
0
0
VERTEX
8
0
10
15.557500000000001
20
24.380000000000003
30
0
42
0.19891236737965798
0
VERTEX
8
0
10
15.380721875
20
24.306778125
30
0
0
VERTEX
8
0
10
14.56894375
20
23.495
30
0
0
VERTEX
8
0
10
12.700000000000001
20
23.495
30
0
0
VERTEX
8
0
10
12.700000000000001
20
22.225
30
0
0
VERTEX
8
0
10
15.24
20
22.225
30
0
0
VERTEX
8
0
10
15.24
20
23.45894375
30
0
0
VERTEX
8
0
10
15.661056250000001
20
23.880000000000003
30
0
0
VERTEX
8
0
10
21.48644375
20
23.880000000000003
30
0
0
VERTEX
8
0
10
21.657500000000002
20
23.70894375
30
0
0
VERTEX
8
0
10
21.657500000000002
20
22.86
30
0
42
0.19891236737965798
0
VERTEX
8
0
10
21.730721875
20
22.683221875
30
0
0
VERTEX
8
0
10
21.975
20
22.43894375
30
0
0
VERTEX
8
0
10
21.975
20
21.146
30
0
0
VERTEX
8
0
10
22.475
20
21.146
30
0
0
SEQEND
0
POLYLINE
66
1
8
1_copper
10
0.0
20
0.0
30
0.0
70
1
0
VERTEX
8
0
10
23.745
20
23.346
30
0
0
VERTEX
8
0
10
23.427500000000002
20
23.346
30
0
0
VERTEX
8
0
10
23.427500000000002
20
24.130000000000003
30
0
42
0.19891236737965798
0
VERTEX
8
0
10
23.354278125
20
24.306778125
30
0
0
VERTEX
8
0
10
22.084278125
20
25.576778125
30
0
42
0.19891236737965798
0
VERTEX
8
0
10
21.907500000000002
20
25.650000000000002
30
0
0
VERTEX
8
0
10
15.24
20
25.650000000000002
30
0
0
VERTEX
8
0
10
15.24
20
26.035
30
0
0
VERTEX
8
0
10
12.700000000000001
20
26.035
30
0
0
VERTEX
8
0
10
12.700000000000001
20
24.765
30
0
0
VERTEX
8
0
10
15.24
20
24.765
30
0
0
VERTEX
8
0
10
15.24
20
25.150000000000002
30
0
0
VERTEX
8
0
10
21.803943750000002
20
25.150000000000002
30
0
0
VERTEX
8
0
10
22.927500000000002
20
24.026443750000002
30
0
0
VERTEX
8
0
10
22.927500000000002
20
22.86
30
0
42
0.19891236737965798
0
VERTEX
8
0
10
23.000721875
20
22.683221875
30
0
0
VERTEX
8
0
10
23.245
20
22.43894375
30
0
0
VERTEX
8
0
10
23.245
20
21.146
30
0
0
VERTEX
8
0
10
23.745
20
21.146
30
0
0
SEQEND
0
POLYLINE
66
1
8
1_copper
10
0.0
20
0.0
30
0.0
70
1
0
VERTEX
8
0
10
24.515
20
29.654
30
0
0
VERTEX
8
0
10
24.515
20
26.92
30
0
0
VERTEX
8
0
10
20.42355625
20
26.92
30
0
0
VERTEX
8
0
10
19.6175
20
27.726056250000003
30
0
0
VERTEX
8
0
10
19.6175
20
27.94
30
0
42
0.4142135623730951
0
VERTEX
8
0
10
19.3675
20
28.19
30
0
0
VERTEX
8
0
10
15.24
20
28.19
30
0
0
VERTEX
8
0
10
15.24
20
28.575000000000003
30
0
0
VERTEX
8
0
10
12.700000000000001
20
28.575000000000003
30
0
0
VERTEX
8
0
10
12.700000000000001
20
27.305
30
0
0
VERTEX
8
0
10
15.24
20
27.305
30
0
0
VERTEX
8
0
10
15.24
20
27.69
30
0
0
VERTEX
8
0
10
19.1175
20
27.69
30
0
42
0.268461696665854
0
VERTEX
8
0
10
19.190721875
20
27.445721875
30
0
0
VERTEX
8
0
10
20.143221875000002
20
26.493221875
30
0
42
0.19891236737965798
0
VERTEX
8
0
10
20.32
20
26.42
30
0
0
VERTEX
8
0
10
32.004000000000005
20
26.42
30
0
0
VERTEX
8
0
10
32.004000000000005
20
25.7175
30
0
0
VERTEX
8
0
10
33.274
20
25.7175
30
0
0
VERTEX
8
0
10
33.274
20
27.622500000000002
30
0
0
VERTEX
8
0
10
32.004000000000005
20
27.622500000000002
30
0
0
VERTEX
8
0
10
32.004000000000005
20
26.92
30
0
0
VERTEX
8
0
10
25.015
20
26.92
30
0
0
VERTEX
8
0
10
25.015
20
29.654
30
0
0
SEQEND
0
POLYLINE
66
1
8
1_copper
10
0.0
20
0.0
30
0.0
70
1
0
VERTEX
8
0
10
15.494000000000002
20
12.3825
30
0
0
VERTEX
8
0
10
14.224
20
12.3825
30
0
0
VERTEX
8
0
10
14.224
20
12.16455625
30
0
0
VERTEX
8
0
10
11.176
20
15.21255625
30
0
0
VERTEX
8
0
10
11.176
20
16.1925
30
0
0
VERTEX
8
0
10
9.906
20
16.1925
30
0
0
VERTEX
8
0
10
9.906
20
14.287500000000001
30
0
0
VERTEX
8
0
10
11.176
20
14.287500000000001
30
0
0
VERTEX
8
0
10
11.176
20
14.505443750000001
30
0
0
VERTEX
8
0
10
14.224
20
11.457443750000001
30
0
0
VERTEX
8
0
10
14.224
20
10.477500000000001
30
0
0
VERTEX
8
0
10
15.494000000000002
20
10.477500000000001
30
0
0
SEQEND
0
POLYLINE
66
1
8
1_copper
10
0.0
20
0.0
30
0.0
70
1
0
VERTEX
8
0
10
24.943093750000003
20
17.6047625
30
0
42
0.19681235001734676
0
VERTEX
8
0
10
25.015
20
17.78
30
0
0
VERTEX
8
0
10
25.015
20
22.2925
30
0
0
VERTEX
8
0
10
31.75
20
22.2925
30
0
42
0.19891236737965798
0
VERTEX
8
0
10
31.926778125000002
20
22.365721875000002
30
0
0
VERTEX
8
0
10
35.306000000000004
20
25.74494375
30
0
0
VERTEX
8
0
10
35.306000000000004
20
25.7175
30
0
0
VERTEX
8
0
10
36.576
20
25.7175
30
0
0
VERTEX
8
0
10
36.576
20
27.622500000000002
30
0
0
VERTEX
8
0
10
36.445
20
27.622500000000002
30
0
0
VERTEX
8
0
10
36.445
20
29.2775
30
0
0
VERTEX
8
0
10
44.34644375
20
29.2775
30
0
0
VERTEX
8
0
10
45.1525
20
28.471443750000002
30
0
0
VERTEX
8
0
10
45.1525
20
23.11
30
0
0
VERTEX
8
0
10
44.45
20
23.11
30
0
0
VERTEX
8
0
10
44.45
20
23.495
30
0
0
VERTEX
8
0
10
41.910000000000004
20
23.495
30
0
0
VERTEX
8
0
10
41.910000000000004
20
22.225
30
0
0
VERTEX
8
0
10
44.45
20
22.225
30
0
0
VERTEX
8
0
10
44.45
20
22.61
30
0
0
VERTEX
8
0
10
45.4025
20
22.61
30
0
42
0.4142135623730951
0
VERTEX
8
0
10
45.6525
20
22.86
30
0
0
VERTEX
8
0
10
45.6525
20
28.575000000000003
30
0
42
0.19891236737965798
0
VERTEX
8
0
10
45.579278125
20
28.751778125
30
0
0
VERTEX
8
0
10
44.626778125
20
29.704278125000002
30
0
42
0.19891236737965798
0
VERTEX
8
0
10
44.45
20
29.7775
30
0
0
VERTEX
8
0
10
36.195
20
29.7775
30
0
42
0.4142135623730951
0
VERTEX
8
0
10
35.945
20
29.5275
30
0
0
VERTEX
8
0
10
35.945
20
27.622500000000002
30
0
0
VERTEX
8
0
10
35.306000000000004
20
27.622500000000002
30
0
0
VERTEX
8
0
10
35.306000000000004
20
26.452056250000002
30
0
0
VERTEX
8
0
10
31.646443750000003
20
22.7925
30
0
0
VERTEX
8
0
10
25.015
20
22.7925
30
0
0
VERTEX
8
0
10
25.015
20
23.346
30
0
0
VERTEX
8
0
10
24.515
20
23.346
30
0
0
VERTEX
8
0
10
24.515
20
17.88355625
30
0
0
VERTEX
8
0
10
23.969821875
20
17.338378125000002
30
0
42
0.172415095314269
0
VERTEX
8
0
10
23.8125
20
17.395
30
0
0
VERTEX
8
0
10
9.842500000000001
20
17.395
30
0
42
0.19891236737965798
0
VERTEX
8
0
10
9.665721875000001
20
17.321778125
30
0
0
VERTEX
8
0
10
9.030721875000001
20
16.686778125
30
0
42
0.19891236737965798
0
VERTEX
8
0
10
8.9575
20
16.51
30
0
0
VERTEX
8
0
10
8.9575
20
14.70855625
30
0
0
VERTEX
8
0
10
6.631443750000001
20
12.3825
30
0
0
VERTEX
8
0
10
6.604
20
12.3825
30
0
0
VERTEX
8
0
10
6.604
20
12.35505625
30
0
0
VERTEX
8
0
10
6.50875
20
12.25980625
30
0
0
VERTEX
8
0
10
5.965
20
12.80355625
30
0
0
VERTEX
8
0
10
5.965
20
20.21644375
30
0
0
VERTEX
8
0
10
7.973556250000001
20
22.225
30
0
0
VERTEX
8
0
10
9.780000000000001
20
22.225
30
0
0
VERTEX
8
0
10
9.780000000000001
20
23.495
30
0
0
VERTEX
8
0
10
7.24
20
23.495
30
0
0
VERTEX
8
0
10
7.24
20
22.225
30
0
0
VERTEX
8
0
10
7.2664437500000005
20
22.225
30
0
0
VERTEX
8
0
10
5.5382218750000005
20
20.496778125000002
30
0
42
0.19891236737965798
0
VERTEX
8
0
10
5.465
20
20.32
30
0
0
VERTEX
8
0
10
5.465
20
12.700000000000001
30
0
42
0.19891236737965798
0
VERTEX
8
0
10
5.5382218750000005
20
12.523221875
30
0
0
VERTEX
8
0
10
6.604
20
11.457443750000001
30
0
0
VERTEX
8
0
10
6.604
20
10.477500000000001
30
0
0
VERTEX
8
0
10
7.8740000000000006
20
10.477500000000001
30
0
0
VERTEX
8
0
10
7.8740000000000006
20
12.3825
30
0
0
VERTEX
8
0
10
7.338556250000001
20
12.3825
30
0
0
VERTEX
8
0
10
9.384278125
20
14.428221875
30
0
42
0.19891236737965798
0
VERTEX
8
0
10
9.4575
20
14.605
30
0
0
VERTEX
8
0
10
9.4575
20
16.40644375
30
0
0
VERTEX
8
0
10
9.94605625
20
16.895
30
0
0
VERTEX
8
0
10
23.526443750000002
20
16.895
30
0
0
VERTEX
8
0
10
18.796
20
12.16455625
30
0
0
VERTEX
8
0
10
18.796
20
12.3825
30
0
0
VERTEX
8
0
10
17.526
20
12.3825
30
0
0
VERTEX
8
0
10
17.526
20
10.477500000000001
30
0
0
VERTEX
8
0
10
18.4825
20
10.477500000000001
30
0
0
VERTEX
8
0
10
18.4825
20
10.16
30
0
42
0.4142135623730951
0
VERTEX
8
0
10
18.7325
20
9.91
30
0
0
VERTEX
8
0
10
27.94
20
9.91
30
0
0
VERTEX
8
0
10
27.94
20
9.525
30
0
0
VERTEX
8
0
10
30.48
20
9.525
30
0
0
VERTEX
8
0
10
30.48
20
10.795
30
0
0
VERTEX
8
0
10
27.94
20
10.795
30
0
0
VERTEX
8
0
10
27.94
20
10.41
30
0
0
VERTEX
8
0
10
18.9825
20
10.41
30
0
0
VERTEX
8
0
10
18.9825
20
11.43
30
0
42
0.17242815790045016
0
VERTEX
8
0
10
18.925965625
20
11.587409375
30
0
0
VERTEX
8
0
10
24.941778125000003
20
17.603221875
30
0
0
SEQEND
0
ENDSEC
0
EOF