0
SECTION
2
HEADER
9
$ANGDIR
70
1
9
$AUNITS
70
0
9
$PROJECTNAME
1
input_device
9
$TDCREATE
40
2458800.80890079
9
$INSUNITS
70
4
0
ENDSEC
0
SECTION
2
ENTITIES
0
POLYLINE
66
1
8
outline
10
0.0
20
0.0
30
0.0
70
1
0
VERTEX
8
0
10
16.51
20
4.8260000000000005
30
0
0
VERTEX
8
0
10
41.128
20
4.8260000000000005
30
0
0
VERTEX
8
0
10
41.255
20
47.422000000000004
30
0
0
VERTEX
8
0
10
16.637
20
47.422000000000004
30
0
0
VERTEX
8
0
10
16.51
20
4.8260000000000005
30
0
0
SEQEND
0
POLYLINE
66
1
8
1_copper
10
0.0
20
0.0
30
0.0
70
1
0
VERTEX
8
0
10
39.370000000000005
20
32.385
30
0
0
VERTEX
8
0
10
36.83
20
32.385
30
0
0
VERTEX
8
0
10
36.83
20
31.115000000000002
30
0
0
VERTEX
8
0
10
39.370000000000005
20
31.115000000000002
30
0
0
SEQEND
0
POLYLINE
66
1
8
1_copper
10
0.0
20
0.0
30
0.0
70
1
0
VERTEX
8
0
10
39.370000000000005
20
27.305
30
0
0
VERTEX
8
0
10
36.83
20
27.305
30
0
0
VERTEX
8
0
10
36.83
20
26.035
30
0
0
VERTEX
8
0
10
39.370000000000005
20
26.035
30
0
0
SEQEND
0
POLYLINE
66
1
8
1_copper
10
0.0
20
0.0
30
0.0
70
1
0
VERTEX
8
0
10
39.370000000000005
20
22.225
30
0
0
VERTEX
8
0
10
36.83
20
22.225
30
0
0
VERTEX
8
0
10
36.83
20
20.955000000000002
30
0
0
VERTEX
8
0
10
39.370000000000005
20
20.955000000000002
30
0
0
SEQEND
0
POLYLINE
66
1
8
1_copper
10
0.0
20
0.0
30
0.0
70
1
0
VERTEX
8
0
10
23.497006250000002
20
25.467659375
30
0
42
0.19682628245095668
0
VERTEX
8
0
10
23.671778125
20
25.540721875000003
30
0
0
VERTEX
8
0
10
24.941778125000003
20
26.810721875000002
30
0
42
0.19891236737965798
0
VERTEX
8
0
10
25.015
20
26.9875
30
0
0
VERTEX
8
0
10
25.015
20
29.654
30
0
0
VERTEX
8
0
10
24.515
20
29.654
30
0
0
VERTEX
8
0
10
24.515
20
27.09105625
30
0
0
VERTEX
8
0
10
23.39144375
20
25.9675
30
0
0
VERTEX
8
0
10
19.3
20
25.9675
30
0
0
VERTEX
8
0
10
19.3
20
43.71144375
30
0
0
VERTEX
8
0
10
21.058556250000002
20
45.47
30
0
0
VERTEX
8
0
10
33.405
20
45.47
30
0
0
VERTEX
8
0
10
33.405
20
41.06105625
30
0
0
VERTEX
8
0
10
31.96794375
20
39.624
30
0
0
VERTEX
8
0
10
30.797500000000003
20
39.624
30
0
0
VERTEX
8
0
10
30.797500000000003
20
38.354
30
0
0
VERTEX
8
0
10
32.7025
20
38.354
30
0
0
VERTEX
8
0
10
32.7025
20
39.624
30
0
0
VERTEX
8
0
10
32.675056250000004
20
39.624
30
0
0
VERTEX
8
0
10
33.831778125
20
40.780721875000005
30
0
42
0.19891236737965798
0
VERTEX
8
0
10
33.905
20
40.9575
30
0
0
VERTEX
8
0
10
33.905
20
45.72
30
0
42
0.4142135623730951
0
VERTEX
8
0
10
33.655
20
45.97
30
0
0
VERTEX
8
0
10
20.955000000000002
20
45.97
30
0
42
0.19891236737965798
0
VERTEX
8
0
10
20.778221875
20
45.896778125000004
30
0
0
VERTEX
8
0
10
18.873221875000002
20
43.991778125
30
0
42
0.19891236737965798
0
VERTEX
8
0
10
18.8
20
43.815000000000005
30
0
0
VERTEX
8
0
10
18.8
20
25.9675
30
0
0
VERTEX
8
0
10
18.0975
20
25.9675
30
0
42
0.4142135623730951
0
VERTEX
8
0
10
17.8475
20
25.7175
30
0
0
VERTEX
8
0
10
17.8475
20
10.795
30
0
42
0.19891236737965798
0
VERTEX
8
0
10
17.920721875
20
10.618221875
30
0
0
VERTEX
8
0
10
18.873221875000002
20
9.665721875000001
30
0
42
0.19891236737965798
0
VERTEX
8
0
10
19.05
20
9.592500000000001
30
0
0
VERTEX
8
0
10
19.26394375
20
9.592500000000001
30
0
0
VERTEX
8
0
10
19.331443750000002
20
9.525
30
0
0
VERTEX
8
0
10
19.05
20
9.525
30
0
0
VERTEX
8
0
10
19.05
20
8.255
30
0
0
VERTEX
8
0
10
21.59
20
8.255
30
0
0
VERTEX
8
0
10
21.59
20
9.525
30
0
0
VERTEX
8
0
10
20.038556250000003
20
9.525
30
0
0
VERTEX
8
0
10
19.544278125
20
10.019278125000001
30
0
42
0.19891236737965798
0
VERTEX
8
0
10
19.3675
20
10.092500000000001
30
0
0
VERTEX
8
0
10
19.15355625
20
10.092500000000001
30
0
0
VERTEX
8
0
10
18.3475
20
10.89855625
30
0
0
VERTEX
8
0
10
18.3475
20
25.4675
30
0
0
VERTEX
8
0
10
23.495
20
25.4675
30
0
0
SEQEND
0
POLYLINE
66
1
8
1_copper
10
0.0
20
0.0
30
0.0
70
1
0
VERTEX
8
0
10
23.493646875
20
34.539893750000005
30
0
42
0.4126285070906998
0
VERTEX
8
0
10
23.245
20
34.29
30
0
0
VERTEX
8
0
10
23.245
20
28.575000000000003
30
0
42
0.06262388129792994
0
VERTEX
8
0
10
23.253484375000003
20
28.5132875
30
0
0
VERTEX
8
0
10
23.245140625
20
28.265928125000002
30
0
42
0.008429872004382636
0
VERTEX
8
0
10
23.245
20
28.2575
30
0
0
VERTEX
8
0
10
23.245
20
27.40855625
30
0
0
VERTEX
8
0
10
22.756443750000003
20
26.92
30
0
0
VERTEX
8
0
10
21.205000000000002
20
26.92
30
0
0
VERTEX
8
0
10
21.205000000000002
20
27.454
30
0
0
VERTEX
8
0
10
21.215
20
27.454
30
0
0
VERTEX
8
0
10
21.215
20
29.654
30
0
0
VERTEX
8
0
10
21.205000000000002
20
29.654
30
0
0
VERTEX
8
0
10
21.205000000000002
20
37.465
30
0
42
0.1564118437226154
0
VERTEX
8
0
10
21.1582
20
37.61025625
30
0
0
VERTEX
8
0
10
21.1582
20
38.6588
30
0
0
VERTEX
8
0
10
19.939
20
38.6588
30
0
0
VERTEX
8
0
10
19.939
20
36.4236
30
0
0
VERTEX
8
0
10
20.705000000000002
20
36.4236
30
0
0
VERTEX
8
0
10
20.705000000000002
20
28.575000000000003
30
0
42
0.06262388129792994
0
VERTEX
8
0
10
20.713484375
20
28.5132875
30
0
0
VERTEX
8
0
10
20.705140625000002
20
28.265928125000002
30
0
42
0.008429872004382636
0
VERTEX
8
0
10
20.705000000000002
20
28.2575
30
0
0
VERTEX
8
0
10
20.705000000000002
20
26.67
30
0
42
0.4142135623730951
0
VERTEX
8
0
10
20.955000000000002
20
26.42
30
0
0
VERTEX
8
0
10
22.86
20
26.42
30
0
42
0.19891236737965798
0
VERTEX
8
0
10
23.036778125
20
26.493221875
30
0
0
VERTEX
8
0
10
23.671778125
20
27.128221875
30
0
42
0.19891236737965798
0
VERTEX
8
0
10
23.745
20
27.305
30
0
0
VERTEX
8
0
10
23.745
20
27.454
30
0
0
VERTEX
8
0
10
23.755000000000003
20
27.454
30
0
0
VERTEX
8
0
10
23.755000000000003
20
29.654
30
0
0
VERTEX
8
0
10
23.745
20
29.654
30
0
0
VERTEX
8
0
10
23.745
20
34.04
30
0
0
VERTEX
8
0
10
28.642500000000002
20
34.04
30
0
0
VERTEX
8
0
10
28.642500000000002
20
10.89855625
30
0
0
VERTEX
8
0
10
28.15394375
20
10.41
30
0
0
VERTEX
8
0
10
27.305
20
10.41
30
0
42
0.19891236737965798
0
VERTEX
8
0
10
27.128221875
20
10.336778125
30
0
0
VERTEX
8
0
10
26.31644375
20
9.525
30
0
0
VERTEX
8
0
10
24.51
20
9.525
30
0
0
VERTEX
8
0
10
24.51
20
8.255
30
0
0
VERTEX
8
0
10
27.05
20
8.255
30
0
0
VERTEX
8
0
10
27.05
20
9.525
30
0
0
VERTEX
8
0
10
27.023556250000002
20
9.525
30
0
0
VERTEX
8
0
10
27.40855625
20
9.91
30
0
0
VERTEX
8
0
10
28.2575
20
9.91
30
0
42
0.19891236737965798
0
VERTEX
8
0
10
28.434278125000002
20
9.983221875
30
0
0
VERTEX
8
0
10
29.069278125
20
10.618221875
30
0
42
0.19891236737965798
0
VERTEX
8
0
10
29.142500000000002
20
10.795
30
0
0
VERTEX
8
0
10
29.142500000000002
20
34.04
30
0
0
VERTEX
8
0
10
30.797500000000003
20
34.04
30
0
0
VERTEX
8
0
10
30.797500000000003
20
34.036
30
0
0
VERTEX
8
0
10
32.7025
20
34.036
30
0
0
VERTEX
8
0
10
32.7025
20
34.04
30
0
0
VERTEX
8
0
10
36.83
20
34.04
30
0
0
VERTEX
8
0
10
36.83
20
33.655
30
0
0
VERTEX
8
0
10
39.370000000000005
20
33.655
30
0
0
VERTEX
8
0
10
39.370000000000005
20
34.925000000000004
30
0
0
VERTEX
8
0
10
36.83
20
34.925000000000004
30
0
0
VERTEX
8
0
10
36.83
20
34.54
30
0
0
VERTEX
8
0
10
32.7025
20
34.54
30
0
0
VERTEX
8
0
10
32.7025
20
35.306000000000004
30
0
0
VERTEX
8
0
10
30.797500000000003
20
35.306000000000004
30
0
0
VERTEX
8
0
10
30.797500000000003
20
34.54
30
0
0
VERTEX
8
0
10
23.495
20
34.54
30
0
0
SEQEND
0
POLYLINE
66
1
8
1_copper
10
0.0
20
0.0
30
0.0
70
1
0
VERTEX
8
0
10
23.245
20
23.346
30
0
0
VERTEX
8
0
10
23.245
20
14.39105625
30
0
0
VERTEX
8
0
10
20.91894375
20
12.065000000000001
30
0
0
VERTEX
8
0
10
19.05
20
12.065000000000001
30
0
0
VERTEX
8
0
10
19.05
20
10.795
30
0
0
VERTEX
8
0
10
21.59
20
10.795
30
0
0
VERTEX
8
0
10
21.59
20
11.18
30
0
0
VERTEX
8
0
10
22.2925
20
11.18
30
0
0
VERTEX
8
0
10
22.2925
20
7.3025
30
0
42
0.19891236737965798
0
VERTEX
8
0
10
22.365721875000002
20
7.125721875
30
0
0
VERTEX
8
0
10
23.318221875000003
20
6.173221875
30
0
42
0.19891236737965798
0
VERTEX
8
0
10
23.495
20
6.1000000000000005
30
0
0
VERTEX
8
0
10
31.4325
20
6.1000000000000005
30
0
42
0.4142135623730951
0
VERTEX
8
0
10
31.6825
20
6.3500000000000005
30
0
0
VERTEX
8
0
10
31.6825
20
17.67644375
30
0
0
VERTEX
8
0
10
36.93355625
20
22.927500000000002
30
0
0
VERTEX
8
0
10
37.1475
20
22.927500000000002
30
0
42
0.19891236737965798
0
VERTEX
8
0
10
37.324278125
20
23.000721875
30
0
0
VERTEX
8
0
10
37.81855625
20
23.495
30
0
0
VERTEX
8
0
10
39.370000000000005
20
23.495
30
0
0
VERTEX
8
0
10
39.370000000000005
20
24.765
30
0
0
VERTEX
8
0
10
36.83
20
24.765
30
0
0
VERTEX
8
0
10
36.83
20
23.495
30
0
0
VERTEX
8
0
10
37.11144375
20
23.495
30
0
0
VERTEX
8
0
10
37.043943750000004
20
23.427500000000002
30
0
0
VERTEX
8
0
10
36.83
20
23.427500000000002
30
0
42
0.19891236737965798
0
VERTEX
8
0
10
36.653221875
20
23.354278125
30
0
0
VERTEX
8
0
10
31.255721875000003
20
17.956778125
30
0
42
0.19891236737965798
0
VERTEX
8
0
10
31.1825
20
17.78
30
0
0
VERTEX
8
0
10
31.1825
20
6.6000000000000005
30
0
0
VERTEX
8
0
10
23.59855625
20
6.6000000000000005
30
0
0
VERTEX
8
0
10
22.7925
20
7.406056250000001
30
0
0
VERTEX
8
0
10
22.7925
20
11.43
30
0
42
0.4142135623730951
0
VERTEX
8
0
10
22.5425
20
11.68
30
0
0
VERTEX
8
0
10
21.59
20
11.68
30
0
0
VERTEX
8
0
10
21.59
20
12.02894375
30
0
0
VERTEX
8
0
10
23.671778125
20
14.110721875000001
30
0
42
0.19891236737965798
0
VERTEX
8
0
10
23.745
20
14.287500000000001
30
0
0
VERTEX
8
0
10
23.745
20
23.346
30
0
0
SEQEND
0
POLYLINE
66
1
8
1_copper
10
0.0
20
0.0
30
0.0
70
1
0
VERTEX
8
0
10
21.975
20
23.346
30
0
0
VERTEX
8
0
10
21.975
20
14.855
30
0
0
VERTEX
8
0
10
20.955000000000002
20
14.855
30
0
42
0.19891236737965798
0
VERTEX
8
0
10
20.778221875
20
14.781778125
30
0
0
VERTEX
8
0
10
20.60144375
20
14.605
30
0
0
VERTEX
8
0
10
19.05
20
14.605
30
0
0
VERTEX
8
0
10
19.05
20
13.335
30
0
0
VERTEX
8
0
10
21.59
20
13.335
30
0
0
VERTEX
8
0
10
21.59
20
14.355
30
0
0
VERTEX
8
0
10
22.225
20
14.355
30
0
42
0.4142135623730951
0
VERTEX
8
0
10
22.475
20
14.605
30
0
0
VERTEX
8
0
10
22.475
20
23.346
30
0
0
SEQEND
0
POLYLINE
66
1
8
1_copper
10
0.0
20
0.0
30
0.0
70
1
0
VERTEX
8
0
10
21.205000000000002
20
21.146
30
0
0
VERTEX
8
0
10
21.205000000000002
20
23.880000000000003
30
0
0
VERTEX
8
0
10
25.29644375
20
23.880000000000003
30
0
0
VERTEX
8
0
10
27.69
20
21.48644375
30
0
0
VERTEX
8
0
10
27.69
20
11.68
30
0
0
VERTEX
8
0
10
27.05
20
11.68
30
0
0
VERTEX
8
0
10
27.05
20
12.065000000000001
30
0
0
VERTEX
8
0
10
24.51
20
12.065000000000001
30
0
0
VERTEX
8
0
10
24.51
20
10.795
30
0
0
VERTEX
8
0
10
27.05
20
10.795
30
0
0
VERTEX
8
0
10
27.05
20
11.18
30
0
0
VERTEX
8
0
10
27.94
20
11.18
30
0
42
0.4142135623730951
0
VERTEX
8
0
10
28.19
20
11.43
30
0
0
VERTEX
8
0
10
28.19
20
21.59
30
0
42
0.19891236737965798
0
VERTEX
8
0
10
28.116778125
20
21.766778125000002
30
0
0
VERTEX
8
0
10
25.576778125
20
24.306778125
30
0
42
0.19891236737965798
0
VERTEX
8
0
10
25.400000000000002
20
24.380000000000003
30
0
0
VERTEX
8
0
10
20.955000000000002
20
24.380000000000003
30
0
42
0.4142135623730951
0
VERTEX
8
0
10
20.705000000000002
20
24.130000000000003
30
0
0
VERTEX
8
0
10
20.705000000000002
20
21.146
30
0
0
SEQEND
0
POLYLINE
66
1
8
1_copper
10
0.0
20
0.0
30
0.0
70
1
0
VERTEX
8
0
10
24.515
20
23.346
30
0
0
VERTEX
8
0
10
24.515
20
14.605
30
0
0
VERTEX
8
0
10
24.51
20
14.605
30
0
0
VERTEX
8
0
10
24.51
20
14.06855625
30
0
0
VERTEX
8
0
10
23.635721875
20
13.194278125
30
0
42
0.19891236737965798
0
VERTEX
8
0
10
23.5625
20
13.0175
30
0
0
VERTEX
8
0
10
23.5625
20
7.62
30
0
42
0.4142135623730951
0
VERTEX
8
0
10
23.8125
20
7.37
30
0
0
VERTEX
8
0
10
24.026443750000002
20
7.37
30
0
0
VERTEX
8
0
10
24.270721875
20
7.125721875
30
0
42
0.19891236737965798
0
VERTEX
8
0
10
24.4475
20
7.0525
30
0
0
VERTEX
8
0
10
27.305
20
7.0525
30
0
42
0.19891236737965798
0
VERTEX
8
0
10
27.481778125
20
7.125721875
30
0
0
VERTEX
8
0
10
30.656778125000002
20
10.300721875
30
0
42
0.19891236737965798
0
VERTEX
8
0
10
30.73
20
10.477500000000001
30
0
0
VERTEX
8
0
10
30.73
20
30.547500000000003
30
0
0
VERTEX
8
0
10
31.75
20
30.547500000000003
30
0
42
0.17242815790045016
0
VERTEX
8
0
10
31.907409375
20
30.604034375
30
0
0
VERTEX
8
0
10
33.478221875
20
29.033221875000002
30
0
42
0.19891236737965798
0
VERTEX
8
0
10
33.655
20
28.96
30
0
0
VERTEX
8
0
10
36.83
20
28.96
30
0
0
VERTEX
8
0
10
36.83
20
28.575000000000003
30
0
0
VERTEX
8
0
10
39.370000000000005
20
28.575000000000003
30
0
0
VERTEX
8
0
10
39.370000000000005
20
29.845000000000002
30
0
0
VERTEX
8
0
10
39.08855625
20
29.845000000000002
30
0
0
VERTEX
8
0
10
39.15605625
20
29.9125
30
0
0
VERTEX
8
0
10
39.370000000000005
20
29.9125
30
0
42
0.19891236737965798
0
VERTEX
8
0
10
39.546778125
20
29.985721875000003
30
0
0
VERTEX
8
0
10
40.499278125000004
20
30.938221875
30
0
42
0.19891236737965798
0
VERTEX
8
0
10
40.572500000000005
20
31.115000000000002
30
0
0
VERTEX
8
0
10
40.572500000000005
20
37.465
30
0
42
0.4142135623730951
0
VERTEX
8
0
10
40.322500000000005
20
37.715
30
0
0
VERTEX
8
0
10
27.59105625
20
37.715
30
0
0
VERTEX
8
0
10
31.53205625
20
41.656
30
0
0
VERTEX
8
0
10
32.7025
20
41.656
30
0
0
VERTEX
8
0
10
32.7025
20
42.926
30
0
0
VERTEX
8
0
10
30.797500000000003
20
42.926
30
0
0
VERTEX
8
0
10
30.797500000000003
20
41.656
30
0
0
VERTEX
8
0
10
30.824943750000003
20
41.656
30
0
0
VERTEX
8
0
10
27.201443750000003
20
38.0325
30
0
0
VERTEX
8
0
10
25.781000000000002
20
38.0325
30
0
0
VERTEX
8
0
10
25.781000000000002
20
38.6588
30
0
0
VERTEX
8
0
10
24.5618
20
38.6588
30
0
0
VERTEX
8
0
10
24.5618
20
36.4236
30
0
0
VERTEX
8
0
10
25.781000000000002
20
36.4236
30
0
0
VERTEX
8
0
10
25.781000000000002
20
37.215
30
0
0
VERTEX
8
0
10
40.072500000000005
20
37.215
30
0
0
VERTEX
8
0
10
40.072500000000005
20
31.218556250000002
30
0
0
VERTEX
8
0
10
39.26644375
20
30.4125
30
0
0
VERTEX
8
0
10
39.0525
20
30.4125
30
0
42
0.19891236737965798
0
VERTEX
8
0
10
38.875721875
20
30.339278125
30
0
0
VERTEX
8
0
10
38.38144375
20
29.845000000000002
30
0
0
VERTEX
8
0
10
36.83
20
29.845000000000002
30
0
0
VERTEX
8
0
10
36.83
20
29.46
30
0
0
VERTEX
8
0
10
33.758556250000005
20
29.46
30
0
0
VERTEX
8
0
10
32.484556250000004
20
30.734
30
0
0
VERTEX
8
0
10
32.7025
20
30.734
30
0
0
VERTEX
8
0
10
32.7025
20
32.004000000000005
30
0
0
VERTEX
8
0
10
30.797500000000003
20
32.004000000000005
30
0
0
VERTEX
8
0
10
30.797500000000003
20
31.047500000000003
30
0
0
VERTEX
8
0
10
30.48
20
31.047500000000003
30
0
42
0.4142135623730951
0
VERTEX
8
0
10
30.23
20
30.797500000000003
30
0
0
VERTEX
8
0
10
30.23
20
10.581056250000001
30
0
0
VERTEX
8
0
10
27.201443750000003
20
7.5525
30
0
0
VERTEX
8
0
10
24.551056250000002
20
7.5525
30
0
0
VERTEX
8
0
10
24.306778125
20
7.796778125
30
0
42
0.268461696665854
0
VERTEX
8
0
10
24.0625
20
7.87
30
0
0
VERTEX
8
0
10
24.0625
20
12.913943750000001
30
0
0
VERTEX
8
0
10
24.51
20
13.361443750000001
30
0
0
VERTEX
8
0
10
24.51
20
13.335
30
0
0
VERTEX
8
0
10
27.05
20
13.335
30
0
0
VERTEX
8
0
10
27.05
20
14.605
30
0
0
VERTEX
8
0
10
25.015
20
14.605
30
0
0
VERTEX
8
0
10
25.015
20
23.346
30
0
0
SEQEND
0
POLYLINE
66
1
8
1_copper
10
0.0
20
0.0
30
0.0
70
1
0
VERTEX
8
0
10
22.485
20
29.654
30
0
0
VERTEX
8
0
10
22.475
20
29.654
30
0
0
VERTEX
8
0
10
22.475
20
36.4236
30
0
0
VERTEX
8
0
10
23.4696
20
36.4236
30
0
0
VERTEX
8
0
10
23.4696
20
38.6588
30
0
0
VERTEX
8
0
10
23.11
20
38.6588
30
0
0
VERTEX
8
0
10
23.11
20
42.639
30
0
0
VERTEX
8
0
10
24.66
20
42.639
30
0
0
VERTEX
8
0
10
24.66
20
44.839
30
0
0
VERTEX
8
0
10
21.060000000000002
20
44.839
30
0
0
VERTEX
8
0
10
21.060000000000002
20
42.639
30
0
0
VERTEX
8
0
10
22.61
20
42.639
30
0
0
VERTEX
8
0
10
22.61
20
38.6588
30
0
0
VERTEX
8
0
10
22.250400000000003
20
38.6588
30
0
0
VERTEX
8
0
10
22.250400000000003
20
37.715
30
0
42
0.4441904622509215
0
VERTEX
8
0
10
21.975
20
37.465
30
0
0
VERTEX
8
0
10
21.975
20
28.575000000000003
30
0
42
0.06935505364508704
0
VERTEX
8
0
10
21.985
20
28.506771875000002
30
0
0
VERTEX
8
0
10
21.985
20
27.454
30
0
0
VERTEX
8
0
10
22.485
20
27.454
30
0
0
SEQEND
0
ENDSEC
0
EOF