ISO-10303-21;
HEADER;
/* Generated by software containing ST-Developer
 * from STEP Tools, Inc. (www.steptools.com) 
 */

FILE_DESCRIPTION(
/* description */ (''),
/* implementation_level */ '2;1');

FILE_NAME(
/* name */ 'C:/Users/Gleb/Desktop/mounting plate v3.step',
/* time_stamp */ '2019-05-28T09:36:34+03:00',
/* author */ (''),
/* organization */ (''),
/* preprocessor_version */ 'ST-DEVELOPER v18',
/* originating_system */ 'Autodesk Translation Framework v8.2.0.1029',
/* authorisation */ '');

FILE_SCHEMA (('AUTOMOTIVE_DESIGN { 1 0 10303 214 3 1 1 }'));
ENDSEC;

DATA;
#10=MECHANICAL_DESIGN_GEOMETRIC_PRESENTATION_REPRESENTATION('',(#13),#633);
#11=SHAPE_REPRESENTATION_RELATIONSHIP('SRR','None',#640,#12);
#12=ADVANCED_BREP_SHAPE_REPRESENTATION('',(#14),#632);
#13=STYLED_ITEM('',(#649),#14);
#14=MANIFOLD_SOLID_BREP('Body1',#369);
#15=FACE_BOUND('',#73,.T.);
#16=FACE_BOUND('',#74,.T.);
#17=FACE_BOUND('',#75,.T.);
#18=FACE_BOUND('',#76,.T.);
#19=FACE_BOUND('',#77,.T.);
#20=FACE_BOUND('',#78,.T.);
#21=FACE_BOUND('',#79,.T.);
#22=FACE_BOUND('',#80,.T.);
#23=FACE_BOUND('',#82,.T.);
#24=FACE_BOUND('',#83,.T.);
#25=FACE_BOUND('',#84,.T.);
#26=FACE_BOUND('',#85,.T.);
#27=FACE_BOUND('',#86,.T.);
#28=FACE_BOUND('',#87,.T.);
#29=FACE_BOUND('',#88,.T.);
#30=FACE_BOUND('',#89,.T.);
#31=PLANE('',#410);
#32=PLANE('',#414);
#33=PLANE('',#415);
#34=PLANE('',#416);
#35=PLANE('',#420);
#36=PLANE('',#421);
#37=PLANE('',#422);
#38=FACE_OUTER_BOUND('',#56,.T.);
#39=FACE_OUTER_BOUND('',#57,.T.);
#40=FACE_OUTER_BOUND('',#58,.T.);
#41=FACE_OUTER_BOUND('',#59,.T.);
#42=FACE_OUTER_BOUND('',#60,.T.);
#43=FACE_OUTER_BOUND('',#61,.T.);
#44=FACE_OUTER_BOUND('',#62,.T.);
#45=FACE_OUTER_BOUND('',#63,.T.);
#46=FACE_OUTER_BOUND('',#64,.T.);
#47=FACE_OUTER_BOUND('',#65,.T.);
#48=FACE_OUTER_BOUND('',#66,.T.);
#49=FACE_OUTER_BOUND('',#67,.T.);
#50=FACE_OUTER_BOUND('',#68,.T.);
#51=FACE_OUTER_BOUND('',#69,.T.);
#52=FACE_OUTER_BOUND('',#70,.T.);
#53=FACE_OUTER_BOUND('',#71,.T.);
#54=FACE_OUTER_BOUND('',#72,.T.);
#55=FACE_OUTER_BOUND('',#81,.T.);
#56=EDGE_LOOP('',(#244,#245,#246,#247));
#57=EDGE_LOOP('',(#248,#249,#250,#251));
#58=EDGE_LOOP('',(#252,#253,#254,#255));
#59=EDGE_LOOP('',(#256,#257,#258,#259));
#60=EDGE_LOOP('',(#260,#261,#262,#263));
#61=EDGE_LOOP('',(#264,#265,#266,#267));
#62=EDGE_LOOP('',(#268,#269,#270,#271));
#63=EDGE_LOOP('',(#272,#273,#274,#275));
#64=EDGE_LOOP('',(#276,#277,#278,#279));
#65=EDGE_LOOP('',(#280,#281,#282,#283));
#66=EDGE_LOOP('',(#284,#285,#286,#287));
#67=EDGE_LOOP('',(#288,#289,#290,#291));
#68=EDGE_LOOP('',(#292,#293,#294,#295));
#69=EDGE_LOOP('',(#296,#297,#298,#299));
#70=EDGE_LOOP('',(#300,#301,#302,#303));
#71=EDGE_LOOP('',(#304,#305,#306,#307));
#72=EDGE_LOOP('',(#308,#309,#310,#311,#312,#313,#314,#315));
#73=EDGE_LOOP('',(#316));
#74=EDGE_LOOP('',(#317));
#75=EDGE_LOOP('',(#318));
#76=EDGE_LOOP('',(#319));
#77=EDGE_LOOP('',(#320));
#78=EDGE_LOOP('',(#321));
#79=EDGE_LOOP('',(#322));
#80=EDGE_LOOP('',(#323));
#81=EDGE_LOOP('',(#324,#325,#326,#327,#328,#329,#330,#331));
#82=EDGE_LOOP('',(#332));
#83=EDGE_LOOP('',(#333));
#84=EDGE_LOOP('',(#334));
#85=EDGE_LOOP('',(#335));
#86=EDGE_LOOP('',(#336));
#87=EDGE_LOOP('',(#337));
#88=EDGE_LOOP('',(#338));
#89=EDGE_LOOP('',(#339));
#90=LINE('',#536,#116);
#91=LINE('',#542,#117);
#92=LINE('',#548,#118);
#93=LINE('',#554,#119);
#94=LINE('',#560,#120);
#95=LINE('',#566,#121);
#96=LINE('',#572,#122);
#97=LINE('',#578,#123);
#98=LINE('',#585,#124);
#99=LINE('',#588,#125);
#100=LINE('',#591,#126);
#101=LINE('',#593,#127);
#102=LINE('',#594,#128);
#103=LINE('',#600,#129);
#104=LINE('',#603,#130);
#105=LINE('',#605,#131);
#106=LINE('',#606,#132);
#107=LINE('',#609,#133);
#108=LINE('',#611,#134);
#109=LINE('',#612,#135);
#110=LINE('',#615,#136);
#111=LINE('',#617,#137);
#112=LINE('',#618,#138);
#113=LINE('',#624,#139);
#114=LINE('',#626,#140);
#115=LINE('',#627,#141);
#116=VECTOR('',#429,1.99999999999999);
#117=VECTOR('',#436,1.99999999999999);
#118=VECTOR('',#443,1.99999999999999);
#119=VECTOR('',#450,1.99999999999999);
#120=VECTOR('',#457,1.99999999999999);
#121=VECTOR('',#464,1.99999999999999);
#122=VECTOR('',#471,2.);
#123=VECTOR('',#478,2.);
#124=VECTOR('',#485,10.);
#125=VECTOR('',#488,10.);
#126=VECTOR('',#491,10.);
#127=VECTOR('',#492,10.);
#128=VECTOR('',#493,10.);
#129=VECTOR('',#500,10.);
#130=VECTOR('',#503,10.);
#131=VECTOR('',#504,10.);
#132=VECTOR('',#505,10.);
#133=VECTOR('',#508,10.);
#134=VECTOR('',#509,10.);
#135=VECTOR('',#510,10.);
#136=VECTOR('',#513,10.);
#137=VECTOR('',#514,10.);
#138=VECTOR('',#515,10.);
#139=VECTOR('',#522,10.);
#140=VECTOR('',#525,10.);
#141=VECTOR('',#526,10.);
#142=CIRCLE('',#384,1.99999999999999);
#143=CIRCLE('',#385,1.99999999999999);
#144=CIRCLE('',#387,1.99999999999999);
#145=CIRCLE('',#388,1.99999999999999);
#146=CIRCLE('',#390,1.99999999999999);
#147=CIRCLE('',#391,1.99999999999999);
#148=CIRCLE('',#393,1.99999999999999);
#149=CIRCLE('',#394,1.99999999999999);
#150=CIRCLE('',#396,1.99999999999999);
#151=CIRCLE('',#397,1.99999999999999);
#152=CIRCLE('',#399,1.99999999999999);
#153=CIRCLE('',#400,1.99999999999999);
#154=CIRCLE('',#402,2.);
#155=CIRCLE('',#403,2.);
#156=CIRCLE('',#405,2.);
#157=CIRCLE('',#406,2.);
#158=CIRCLE('',#408,286.893800472501);
#159=CIRCLE('',#409,286.893800472501);
#160=CIRCLE('',#412,297.693800472501);
#161=CIRCLE('',#413,297.693800472501);
#162=CIRCLE('',#418,297.693800472501);
#163=CIRCLE('',#419,297.693800472501);
#164=VERTEX_POINT('',#533);
#165=VERTEX_POINT('',#535);
#166=VERTEX_POINT('',#539);
#167=VERTEX_POINT('',#541);
#168=VERTEX_POINT('',#545);
#169=VERTEX_POINT('',#547);
#170=VERTEX_POINT('',#551);
#171=VERTEX_POINT('',#553);
#172=VERTEX_POINT('',#557);
#173=VERTEX_POINT('',#559);
#174=VERTEX_POINT('',#563);
#175=VERTEX_POINT('',#565);
#176=VERTEX_POINT('',#569);
#177=VERTEX_POINT('',#571);
#178=VERTEX_POINT('',#575);
#179=VERTEX_POINT('',#577);
#180=VERTEX_POINT('',#581);
#181=VERTEX_POINT('',#582);
#182=VERTEX_POINT('',#584);
#183=VERTEX_POINT('',#586);
#184=VERTEX_POINT('',#590);
#185=VERTEX_POINT('',#592);
#186=VERTEX_POINT('',#596);
#187=VERTEX_POINT('',#598);
#188=VERTEX_POINT('',#602);
#189=VERTEX_POINT('',#604);
#190=VERTEX_POINT('',#608);
#191=VERTEX_POINT('',#610);
#192=VERTEX_POINT('',#614);
#193=VERTEX_POINT('',#616);
#194=VERTEX_POINT('',#620);
#195=VERTEX_POINT('',#622);
#196=EDGE_CURVE('',#164,#164,#142,.T.);
#197=EDGE_CURVE('',#164,#165,#90,.T.);
#198=EDGE_CURVE('',#165,#165,#143,.T.);
#199=EDGE_CURVE('',#166,#166,#144,.T.);
#200=EDGE_CURVE('',#166,#167,#91,.T.);
#201=EDGE_CURVE('',#167,#167,#145,.T.);
#202=EDGE_CURVE('',#168,#168,#146,.T.);
#203=EDGE_CURVE('',#168,#169,#92,.T.);
#204=EDGE_CURVE('',#169,#169,#147,.T.);
#205=EDGE_CURVE('',#170,#170,#148,.T.);
#206=EDGE_CURVE('',#170,#171,#93,.T.);
#207=EDGE_CURVE('',#171,#171,#149,.T.);
#208=EDGE_CURVE('',#172,#172,#150,.T.);
#209=EDGE_CURVE('',#172,#173,#94,.T.);
#210=EDGE_CURVE('',#173,#173,#151,.T.);
#211=EDGE_CURVE('',#174,#174,#152,.T.);
#212=EDGE_CURVE('',#174,#175,#95,.T.);
#213=EDGE_CURVE('',#175,#175,#153,.T.);
#214=EDGE_CURVE('',#176,#176,#154,.T.);
#215=EDGE_CURVE('',#176,#177,#96,.T.);
#216=EDGE_CURVE('',#177,#177,#155,.T.);
#217=EDGE_CURVE('',#178,#178,#156,.T.);
#218=EDGE_CURVE('',#178,#179,#97,.T.);
#219=EDGE_CURVE('',#179,#179,#157,.T.);
#220=EDGE_CURVE('',#180,#181,#158,.T.);
#221=EDGE_CURVE('',#180,#182,#98,.T.);
#222=EDGE_CURVE('',#183,#182,#159,.T.);
#223=EDGE_CURVE('',#181,#183,#99,.T.);
#224=EDGE_CURVE('',#181,#184,#100,.T.);
#225=EDGE_CURVE('',#185,#183,#101,.T.);
#226=EDGE_CURVE('',#184,#185,#102,.T.);
#227=EDGE_CURVE('',#186,#184,#160,.T.);
#228=EDGE_CURVE('',#187,#185,#161,.T.);
#229=EDGE_CURVE('',#186,#187,#103,.T.);
#230=EDGE_CURVE('',#188,#186,#104,.T.);
#231=EDGE_CURVE('',#189,#187,#105,.T.);
#232=EDGE_CURVE('',#188,#189,#106,.T.);
#233=EDGE_CURVE('',#190,#188,#107,.T.);
#234=EDGE_CURVE('',#191,#189,#108,.T.);
#235=EDGE_CURVE('',#190,#191,#109,.T.);
#236=EDGE_CURVE('',#192,#190,#110,.T.);
#237=EDGE_CURVE('',#193,#191,#111,.T.);
#238=EDGE_CURVE('',#192,#193,#112,.T.);
#239=EDGE_CURVE('',#194,#192,#162,.T.);
#240=EDGE_CURVE('',#195,#193,#163,.T.);
#241=EDGE_CURVE('',#194,#195,#113,.T.);
#242=EDGE_CURVE('',#180,#194,#114,.T.);
#243=EDGE_CURVE('',#182,#195,#115,.T.);
#244=ORIENTED_EDGE('',*,*,#196,.F.);
#245=ORIENTED_EDGE('',*,*,#197,.T.);
#246=ORIENTED_EDGE('',*,*,#198,.T.);
#247=ORIENTED_EDGE('',*,*,#197,.F.);
#248=ORIENTED_EDGE('',*,*,#199,.F.);
#249=ORIENTED_EDGE('',*,*,#200,.T.);
#250=ORIENTED_EDGE('',*,*,#201,.T.);
#251=ORIENTED_EDGE('',*,*,#200,.F.);
#252=ORIENTED_EDGE('',*,*,#202,.F.);
#253=ORIENTED_EDGE('',*,*,#203,.T.);
#254=ORIENTED_EDGE('',*,*,#204,.T.);
#255=ORIENTED_EDGE('',*,*,#203,.F.);
#256=ORIENTED_EDGE('',*,*,#205,.F.);
#257=ORIENTED_EDGE('',*,*,#206,.T.);
#258=ORIENTED_EDGE('',*,*,#207,.T.);
#259=ORIENTED_EDGE('',*,*,#206,.F.);
#260=ORIENTED_EDGE('',*,*,#208,.F.);
#261=ORIENTED_EDGE('',*,*,#209,.T.);
#262=ORIENTED_EDGE('',*,*,#210,.T.);
#263=ORIENTED_EDGE('',*,*,#209,.F.);
#264=ORIENTED_EDGE('',*,*,#211,.F.);
#265=ORIENTED_EDGE('',*,*,#212,.T.);
#266=ORIENTED_EDGE('',*,*,#213,.T.);
#267=ORIENTED_EDGE('',*,*,#212,.F.);
#268=ORIENTED_EDGE('',*,*,#214,.F.);
#269=ORIENTED_EDGE('',*,*,#215,.T.);
#270=ORIENTED_EDGE('',*,*,#216,.T.);
#271=ORIENTED_EDGE('',*,*,#215,.F.);
#272=ORIENTED_EDGE('',*,*,#217,.F.);
#273=ORIENTED_EDGE('',*,*,#218,.T.);
#274=ORIENTED_EDGE('',*,*,#219,.T.);
#275=ORIENTED_EDGE('',*,*,#218,.F.);
#276=ORIENTED_EDGE('',*,*,#220,.F.);
#277=ORIENTED_EDGE('',*,*,#221,.T.);
#278=ORIENTED_EDGE('',*,*,#222,.F.);
#279=ORIENTED_EDGE('',*,*,#223,.F.);
#280=ORIENTED_EDGE('',*,*,#224,.F.);
#281=ORIENTED_EDGE('',*,*,#223,.T.);
#282=ORIENTED_EDGE('',*,*,#225,.F.);
#283=ORIENTED_EDGE('',*,*,#226,.F.);
#284=ORIENTED_EDGE('',*,*,#227,.T.);
#285=ORIENTED_EDGE('',*,*,#226,.T.);
#286=ORIENTED_EDGE('',*,*,#228,.F.);
#287=ORIENTED_EDGE('',*,*,#229,.F.);
#288=ORIENTED_EDGE('',*,*,#230,.T.);
#289=ORIENTED_EDGE('',*,*,#229,.T.);
#290=ORIENTED_EDGE('',*,*,#231,.F.);
#291=ORIENTED_EDGE('',*,*,#232,.F.);
#292=ORIENTED_EDGE('',*,*,#233,.T.);
#293=ORIENTED_EDGE('',*,*,#232,.T.);
#294=ORIENTED_EDGE('',*,*,#234,.F.);
#295=ORIENTED_EDGE('',*,*,#235,.F.);
#296=ORIENTED_EDGE('',*,*,#236,.T.);
#297=ORIENTED_EDGE('',*,*,#235,.T.);
#298=ORIENTED_EDGE('',*,*,#237,.F.);
#299=ORIENTED_EDGE('',*,*,#238,.F.);
#300=ORIENTED_EDGE('',*,*,#239,.T.);
#301=ORIENTED_EDGE('',*,*,#238,.T.);
#302=ORIENTED_EDGE('',*,*,#240,.F.);
#303=ORIENTED_EDGE('',*,*,#241,.F.);
#304=ORIENTED_EDGE('',*,*,#242,.T.);
#305=ORIENTED_EDGE('',*,*,#241,.T.);
#306=ORIENTED_EDGE('',*,*,#243,.F.);
#307=ORIENTED_EDGE('',*,*,#221,.F.);
#308=ORIENTED_EDGE('',*,*,#243,.T.);
#309=ORIENTED_EDGE('',*,*,#240,.T.);
#310=ORIENTED_EDGE('',*,*,#237,.T.);
#311=ORIENTED_EDGE('',*,*,#234,.T.);
#312=ORIENTED_EDGE('',*,*,#231,.T.);
#313=ORIENTED_EDGE('',*,*,#228,.T.);
#314=ORIENTED_EDGE('',*,*,#225,.T.);
#315=ORIENTED_EDGE('',*,*,#222,.T.);
#316=ORIENTED_EDGE('',*,*,#217,.T.);
#317=ORIENTED_EDGE('',*,*,#214,.T.);
#318=ORIENTED_EDGE('',*,*,#211,.T.);
#319=ORIENTED_EDGE('',*,*,#208,.T.);
#320=ORIENTED_EDGE('',*,*,#205,.T.);
#321=ORIENTED_EDGE('',*,*,#202,.T.);
#322=ORIENTED_EDGE('',*,*,#199,.T.);
#323=ORIENTED_EDGE('',*,*,#196,.T.);
#324=ORIENTED_EDGE('',*,*,#242,.F.);
#325=ORIENTED_EDGE('',*,*,#220,.T.);
#326=ORIENTED_EDGE('',*,*,#224,.T.);
#327=ORIENTED_EDGE('',*,*,#227,.F.);
#328=ORIENTED_EDGE('',*,*,#230,.F.);
#329=ORIENTED_EDGE('',*,*,#233,.F.);
#330=ORIENTED_EDGE('',*,*,#236,.F.);
#331=ORIENTED_EDGE('',*,*,#239,.F.);
#332=ORIENTED_EDGE('',*,*,#219,.F.);
#333=ORIENTED_EDGE('',*,*,#216,.F.);
#334=ORIENTED_EDGE('',*,*,#213,.F.);
#335=ORIENTED_EDGE('',*,*,#210,.F.);
#336=ORIENTED_EDGE('',*,*,#207,.F.);
#337=ORIENTED_EDGE('',*,*,#204,.F.);
#338=ORIENTED_EDGE('',*,*,#201,.F.);
#339=ORIENTED_EDGE('',*,*,#198,.F.);
#340=CYLINDRICAL_SURFACE('',#383,1.99999999999999);
#341=CYLINDRICAL_SURFACE('',#386,1.99999999999999);
#342=CYLINDRICAL_SURFACE('',#389,1.99999999999999);
#343=CYLINDRICAL_SURFACE('',#392,1.99999999999999);
#344=CYLINDRICAL_SURFACE('',#395,1.99999999999999);
#345=CYLINDRICAL_SURFACE('',#398,1.99999999999999);
#346=CYLINDRICAL_SURFACE('',#401,2.);
#347=CYLINDRICAL_SURFACE('',#404,2.);
#348=CYLINDRICAL_SURFACE('',#407,286.893800472501);
#349=CYLINDRICAL_SURFACE('',#411,297.693800472501);
#350=CYLINDRICAL_SURFACE('',#417,297.693800472501);
#351=ADVANCED_FACE('',(#38),#340,.F.);
#352=ADVANCED_FACE('',(#39),#341,.F.);
#353=ADVANCED_FACE('',(#40),#342,.F.);
#354=ADVANCED_FACE('',(#41),#343,.F.);
#355=ADVANCED_FACE('',(#42),#344,.F.);
#356=ADVANCED_FACE('',(#43),#345,.F.);
#357=ADVANCED_FACE('',(#44),#346,.F.);
#358=ADVANCED_FACE('',(#45),#347,.F.);
#359=ADVANCED_FACE('',(#46),#348,.F.);
#360=ADVANCED_FACE('',(#47),#31,.T.);
#361=ADVANCED_FACE('',(#48),#349,.T.);
#362=ADVANCED_FACE('',(#49),#32,.T.);
#363=ADVANCED_FACE('',(#50),#33,.T.);
#364=ADVANCED_FACE('',(#51),#34,.T.);
#365=ADVANCED_FACE('',(#52),#350,.T.);
#366=ADVANCED_FACE('',(#53),#35,.T.);
#367=ADVANCED_FACE('',(#54,#15,#16,#17,#18,#19,#20,#21,#22),#36,.T.);
#368=ADVANCED_FACE('',(#55,#23,#24,#25,#26,#27,#28,#29,#30),#37,.F.);
#369=CLOSED_SHELL('',(#351,#352,#353,#354,#355,#356,#357,#358,#359,#360,
#361,#362,#363,#364,#365,#366,#367,#368));
#370=DERIVED_UNIT_ELEMENT(#372,1.);
#371=DERIVED_UNIT_ELEMENT(#635,3.);
#372=(
MASS_UNIT()
NAMED_UNIT(*)
SI_UNIT(.KILO.,.GRAM.)
);
#373=DERIVED_UNIT((#370,#371));
#374=MEASURE_REPRESENTATION_ITEM('density measure',
POSITIVE_RATIO_MEASURE(7850.),#373);
#375=PROPERTY_DEFINITION_REPRESENTATION(#380,#377);
#376=PROPERTY_DEFINITION_REPRESENTATION(#381,#378);
#377=REPRESENTATION('material name',(#379),#632);
#378=REPRESENTATION('density',(#374),#632);
#379=DESCRIPTIVE_REPRESENTATION_ITEM('Steel','Steel');
#380=PROPERTY_DEFINITION('material property','material name',#642);
#381=PROPERTY_DEFINITION('material property','density of part',#642);
#382=AXIS2_PLACEMENT_3D('placement',#531,#423,#424);
#383=AXIS2_PLACEMENT_3D('',#532,#425,#426);
#384=AXIS2_PLACEMENT_3D('',#534,#427,#428);
#385=AXIS2_PLACEMENT_3D('',#537,#430,#431);
#386=AXIS2_PLACEMENT_3D('',#538,#432,#433);
#387=AXIS2_PLACEMENT_3D('',#540,#434,#435);
#388=AXIS2_PLACEMENT_3D('',#543,#437,#438);
#389=AXIS2_PLACEMENT_3D('',#544,#439,#440);
#390=AXIS2_PLACEMENT_3D('',#546,#441,#442);
#391=AXIS2_PLACEMENT_3D('',#549,#444,#445);
#392=AXIS2_PLACEMENT_3D('',#550,#446,#447);
#393=AXIS2_PLACEMENT_3D('',#552,#448,#449);
#394=AXIS2_PLACEMENT_3D('',#555,#451,#452);
#395=AXIS2_PLACEMENT_3D('',#556,#453,#454);
#396=AXIS2_PLACEMENT_3D('',#558,#455,#456);
#397=AXIS2_PLACEMENT_3D('',#561,#458,#459);
#398=AXIS2_PLACEMENT_3D('',#562,#460,#461);
#399=AXIS2_PLACEMENT_3D('',#564,#462,#463);
#400=AXIS2_PLACEMENT_3D('',#567,#465,#466);
#401=AXIS2_PLACEMENT_3D('',#568,#467,#468);
#402=AXIS2_PLACEMENT_3D('',#570,#469,#470);
#403=AXIS2_PLACEMENT_3D('',#573,#472,#473);
#404=AXIS2_PLACEMENT_3D('',#574,#474,#475);
#405=AXIS2_PLACEMENT_3D('',#576,#476,#477);
#406=AXIS2_PLACEMENT_3D('',#579,#479,#480);
#407=AXIS2_PLACEMENT_3D('',#580,#481,#482);
#408=AXIS2_PLACEMENT_3D('',#583,#483,#484);
#409=AXIS2_PLACEMENT_3D('',#587,#486,#487);
#410=AXIS2_PLACEMENT_3D('',#589,#489,#490);
#411=AXIS2_PLACEMENT_3D('',#595,#494,#495);
#412=AXIS2_PLACEMENT_3D('',#597,#496,#497);
#413=AXIS2_PLACEMENT_3D('',#599,#498,#499);
#414=AXIS2_PLACEMENT_3D('',#601,#501,#502);
#415=AXIS2_PLACEMENT_3D('',#607,#506,#507);
#416=AXIS2_PLACEMENT_3D('',#613,#511,#512);
#417=AXIS2_PLACEMENT_3D('',#619,#516,#517);
#418=AXIS2_PLACEMENT_3D('',#621,#518,#519);
#419=AXIS2_PLACEMENT_3D('',#623,#520,#521);
#420=AXIS2_PLACEMENT_3D('',#625,#523,#524);
#421=AXIS2_PLACEMENT_3D('',#628,#527,#528);
#422=AXIS2_PLACEMENT_3D('',#629,#529,#530);
#423=DIRECTION('axis',(0.,0.,1.));
#424=DIRECTION('refdir',(1.,0.,0.));
#425=DIRECTION('center_axis',(0.,0.,1.));
#426=DIRECTION('ref_axis',(1.,0.,0.));
#427=DIRECTION('center_axis',(0.,0.,-1.));
#428=DIRECTION('ref_axis',(1.,0.,0.));
#429=DIRECTION('',(0.,0.,-1.));
#430=DIRECTION('center_axis',(0.,0.,-1.));
#431=DIRECTION('ref_axis',(1.,0.,0.));
#432=DIRECTION('center_axis',(0.,0.,1.));
#433=DIRECTION('ref_axis',(1.,0.,0.));
#434=DIRECTION('center_axis',(0.,0.,-1.));
#435=DIRECTION('ref_axis',(1.,0.,0.));
#436=DIRECTION('',(0.,0.,-1.));
#437=DIRECTION('center_axis',(0.,0.,-1.));
#438=DIRECTION('ref_axis',(1.,0.,0.));
#439=DIRECTION('center_axis',(0.,0.,1.));
#440=DIRECTION('ref_axis',(1.,0.,0.));
#441=DIRECTION('center_axis',(0.,0.,-1.));
#442=DIRECTION('ref_axis',(1.,0.,0.));
#443=DIRECTION('',(0.,0.,-1.));
#444=DIRECTION('center_axis',(0.,0.,-1.));
#445=DIRECTION('ref_axis',(1.,0.,0.));
#446=DIRECTION('center_axis',(0.,0.,1.));
#447=DIRECTION('ref_axis',(1.,0.,0.));
#448=DIRECTION('center_axis',(0.,0.,-1.));
#449=DIRECTION('ref_axis',(1.,0.,0.));
#450=DIRECTION('',(0.,0.,-1.));
#451=DIRECTION('center_axis',(0.,0.,-1.));
#452=DIRECTION('ref_axis',(1.,0.,0.));
#453=DIRECTION('center_axis',(0.,0.,1.));
#454=DIRECTION('ref_axis',(1.,0.,0.));
#455=DIRECTION('center_axis',(0.,0.,-1.));
#456=DIRECTION('ref_axis',(1.,0.,0.));
#457=DIRECTION('',(0.,0.,-1.));
#458=DIRECTION('center_axis',(0.,0.,-1.));
#459=DIRECTION('ref_axis',(1.,0.,0.));
#460=DIRECTION('center_axis',(0.,0.,1.));
#461=DIRECTION('ref_axis',(1.,0.,0.));
#462=DIRECTION('center_axis',(0.,0.,-1.));
#463=DIRECTION('ref_axis',(1.,0.,0.));
#464=DIRECTION('',(0.,0.,-1.));
#465=DIRECTION('center_axis',(0.,0.,-1.));
#466=DIRECTION('ref_axis',(1.,0.,0.));
#467=DIRECTION('center_axis',(0.,0.,1.));
#468=DIRECTION('ref_axis',(1.,0.,0.));
#469=DIRECTION('center_axis',(0.,0.,-1.));
#470=DIRECTION('ref_axis',(1.,0.,0.));
#471=DIRECTION('',(0.,0.,-1.));
#472=DIRECTION('center_axis',(0.,0.,-1.));
#473=DIRECTION('ref_axis',(1.,0.,0.));
#474=DIRECTION('center_axis',(0.,0.,1.));
#475=DIRECTION('ref_axis',(1.,0.,0.));
#476=DIRECTION('center_axis',(0.,0.,-1.));
#477=DIRECTION('ref_axis',(1.,0.,0.));
#478=DIRECTION('',(0.,0.,-1.));
#479=DIRECTION('center_axis',(0.,0.,-1.));
#480=DIRECTION('ref_axis',(1.,0.,0.));
#481=DIRECTION('center_axis',(0.,0.,1.));
#482=DIRECTION('ref_axis',(-0.000382919322991417,-0.999999926686393,0.));
#483=DIRECTION('center_axis',(0.,0.,1.));
#484=DIRECTION('ref_axis',(-0.000382919322991417,-0.999999926686393,0.));
#485=DIRECTION('',(0.,0.,1.));
#486=DIRECTION('center_axis',(0.,0.,-1.));
#487=DIRECTION('ref_axis',(-0.000382919322991417,-0.999999926686393,0.));
#488=DIRECTION('',(0.,0.,1.));
#489=DIRECTION('center_axis',(0.707106781184347,0.707106781188748,0.));
#490=DIRECTION('ref_axis',(-0.707106781188748,0.707106781184347,0.));
#491=DIRECTION('',(0.707106781188748,-0.707106781184347,0.));
#492=DIRECTION('',(-0.707106781188748,0.707106781184347,0.));
#493=DIRECTION('',(0.,0.,1.));
#494=DIRECTION('center_axis',(0.,0.,1.));
#495=DIRECTION('ref_axis',(0.473838967677373,-0.880611510662018,0.));
#496=DIRECTION('center_axis',(0.,0.,1.));
#497=DIRECTION('ref_axis',(0.473838967677373,-0.880611510662018,0.));
#498=DIRECTION('center_axis',(0.,0.,1.));
#499=DIRECTION('ref_axis',(0.473838967677373,-0.880611510662018,0.));
#500=DIRECTION('',(0.,0.,1.));
#501=DIRECTION('center_axis',(0.923879532511284,0.382683432365096,0.));
#502=DIRECTION('ref_axis',(-0.382683432365096,0.923879532511284,0.));
#503=DIRECTION('',(-0.382683432365096,0.923879532511284,0.));
#504=DIRECTION('',(-0.382683432365096,0.923879532511284,0.));
#505=DIRECTION('',(0.,0.,1.));
#506=DIRECTION('center_axis',(0.382683432365086,-0.923879532511288,0.));
#507=DIRECTION('ref_axis',(0.923879532511288,0.382683432365086,0.));
#508=DIRECTION('',(0.923879532511288,0.382683432365086,0.));
#509=DIRECTION('',(0.923879532511288,0.382683432365086,0.));
#510=DIRECTION('',(0.,0.,1.));
#511=DIRECTION('center_axis',(-0.923879532511289,-0.382683432365085,0.));
#512=DIRECTION('ref_axis',(0.382683432365085,-0.923879532511289,0.));
#513=DIRECTION('',(0.382683432365085,-0.923879532511289,0.));
#514=DIRECTION('',(0.382683432365085,-0.923879532511289,0.));
#515=DIRECTION('',(0.,0.,1.));
#516=DIRECTION('center_axis',(0.,0.,1.));
#517=DIRECTION('ref_axis',(-0.000369027435932317,-0.999999931909373,0.));
#518=DIRECTION('center_axis',(0.,0.,1.));
#519=DIRECTION('ref_axis',(-0.000369027435932317,-0.999999931909373,0.));
#520=DIRECTION('center_axis',(0.,0.,1.));
#521=DIRECTION('ref_axis',(-0.000369027435932317,-0.999999931909373,0.));
#522=DIRECTION('',(0.,0.,1.));
#523=DIRECTION('center_axis',(-1.,3.14343918328188E-12,0.));
#524=DIRECTION('ref_axis',(-3.14343918328188E-12,-1.,0.));
#525=DIRECTION('',(-3.14343918328188E-12,-1.,0.));
#526=DIRECTION('',(-3.14343918328188E-12,-1.,0.));
#527=DIRECTION('center_axis',(0.,0.,1.));
#528=DIRECTION('ref_axis',(1.,0.,0.));
#529=DIRECTION('center_axis',(0.,0.,1.));
#530=DIRECTION('ref_axis',(1.,0.,0.));
#531=CARTESIAN_POINT('',(0.,0.,0.));
#532=CARTESIAN_POINT('Origin',(136.723384488192,-277.816930529894,0.));
#533=CARTESIAN_POINT('',(134.723384488192,-277.816930529894,2.));
#534=CARTESIAN_POINT('Origin',(136.723384488192,-277.816930529894,2.));
#535=CARTESIAN_POINT('',(134.723384488192,-277.816930529894,0.));
#536=CARTESIAN_POINT('',(134.723384488192,-277.816930529894,0.));
#537=CARTESIAN_POINT('Origin',(136.723384488192,-277.816930529894,0.));
#538=CARTESIAN_POINT('Origin',(99.7682031877409,-293.124267824497,0.));
#539=CARTESIAN_POINT('',(97.7682031877409,-293.124267824497,2.));
#540=CARTESIAN_POINT('Origin',(99.7682031877409,-293.124267824497,2.));
#541=CARTESIAN_POINT('',(97.7682031877409,-293.124267824497,0.));
#542=CARTESIAN_POINT('',(97.7682031877409,-293.124267824497,0.));
#543=CARTESIAN_POINT('Origin',(99.7682031877409,-293.124267824497,0.));
#544=CARTESIAN_POINT('Origin',(132.131183299811,-266.730376139758,0.));
#545=CARTESIAN_POINT('',(130.131183299811,-266.730376139758,2.));
#546=CARTESIAN_POINT('Origin',(132.131183299811,-266.730376139758,2.));
#547=CARTESIAN_POINT('',(130.131183299811,-266.730376139758,0.));
#548=CARTESIAN_POINT('',(130.131183299811,-266.730376139758,0.));
#549=CARTESIAN_POINT('Origin',(132.131183299811,-266.730376139758,0.));
#550=CARTESIAN_POINT('Origin',(95.1760019993599,-282.037713434361,0.));
#551=CARTESIAN_POINT('',(93.1760019993599,-282.037713434361,2.));
#552=CARTESIAN_POINT('Origin',(95.1760019993599,-282.037713434361,2.));
#553=CARTESIAN_POINT('',(93.1760019993599,-282.037713434361,0.));
#554=CARTESIAN_POINT('',(93.1760019993599,-282.037713434361,0.));
#555=CARTESIAN_POINT('Origin',(95.1760019993599,-282.037713434361,0.));
#556=CARTESIAN_POINT('Origin',(199.571192277513,-213.55796638756,0.));
#557=CARTESIAN_POINT('',(197.571192277513,-213.55796638756,2.));
#558=CARTESIAN_POINT('Origin',(199.571192277513,-213.55796638756,2.));
#559=CARTESIAN_POINT('',(197.571192277513,-213.55796638756,0.));
#560=CARTESIAN_POINT('',(197.571192277513,-213.55796638756,0.));
#561=CARTESIAN_POINT('Origin',(199.571192277513,-213.55796638756,0.));
#562=CARTESIAN_POINT('Origin',(168.372334877033,-238.927651482021,0.));
#563=CARTESIAN_POINT('',(166.372334877033,-238.927651482021,2.));
#564=CARTESIAN_POINT('Origin',(168.372334877033,-238.927651482021,2.));
#565=CARTESIAN_POINT('',(166.372334877033,-238.927651482021,0.));
#566=CARTESIAN_POINT('',(166.372334877033,-238.927651482021,0.));
#567=CARTESIAN_POINT('Origin',(168.372334877033,-238.927651482021,0.));
#568=CARTESIAN_POINT('Origin',(9.89014282013619,-292.126429597966,0.));
#569=CARTESIAN_POINT('',(7.89014282013619,-292.126429597966,2.));
#570=CARTESIAN_POINT('Origin',(9.89014282013619,-292.126429597966,2.));
#571=CARTESIAN_POINT('',(7.89014282013619,-292.126429597966,0.));
#572=CARTESIAN_POINT('',(7.89014282013619,-292.126429597966,0.));
#573=CARTESIAN_POINT('Origin',(9.89014282013619,-292.126429597966,0.));
#574=CARTESIAN_POINT('Origin',(49.8901428201491,-288.004582331676,0.));
#575=CARTESIAN_POINT('',(47.8901428201491,-288.004582331676,2.));
#576=CARTESIAN_POINT('Origin',(49.8901428201491,-288.004582331676,2.));
#577=CARTESIAN_POINT('',(47.8901428201491,-288.004582331676,0.));
#578=CARTESIAN_POINT('',(47.8901428201491,-288.004582331676,0.));
#579=CARTESIAN_POINT('Origin',(49.8901428201491,-288.004582331676,0.));
#580=CARTESIAN_POINT('Origin',(0.,0.,0.));
#581=CARTESIAN_POINT('',(-0.109857179847365,-286.893779439282,0.));
#582=CARTESIAN_POINT('',(202.942217678584,-202.786856164923,0.));
#583=CARTESIAN_POINT('Origin',(0.,0.,0.));
#584=CARTESIAN_POINT('',(-0.109857179847364,-286.893779439282,2.));
#585=CARTESIAN_POINT('',(-0.109857179847365,-286.893779439282,0.));
#586=CARTESIAN_POINT('',(202.942217678584,-202.786856164923,2.));
#587=CARTESIAN_POINT('Origin',(0.,0.,2.));
#588=CARTESIAN_POINT('',(202.942217678584,-202.786856164923,0.));
#589=CARTESIAN_POINT('Origin',(210.578971454989,-210.42360994128,0.));
#590=CARTESIAN_POINT('',(210.578971454989,-210.42360994128,0.));
#591=CARTESIAN_POINT('',(202.942217678584,-202.786856164923,0.));
#592=CARTESIAN_POINT('',(210.578971454989,-210.42360994128,2.));
#593=CARTESIAN_POINT('',(202.942217678584,-202.786856164923,2.));
#594=CARTESIAN_POINT('',(210.578971454989,-210.42360994128,0.));
#595=CARTESIAN_POINT('Origin',(0.,0.,0.));
#596=CARTESIAN_POINT('',(141.058923099844,-262.152587348806,0.));
#597=CARTESIAN_POINT('Origin',(0.,0.,0.));
#598=CARTESIAN_POINT('',(141.058923099844,-262.152587348806,2.));
#599=CARTESIAN_POINT('Origin',(0.,0.,2.));
#600=CARTESIAN_POINT('',(141.058923099844,-262.152587348806,0.));
#601=CARTESIAN_POINT('Origin',(148.258280407496,-279.53337340131,0.));
#602=CARTESIAN_POINT('',(148.258280407496,-279.53337340131,0.));
#603=CARTESIAN_POINT('',(148.258280407496,-279.53337340131,0.));
#604=CARTESIAN_POINT('',(148.258280407496,-279.53337340131,2.));
#605=CARTESIAN_POINT('',(148.258280407496,-279.53337340131,2.));
#606=CARTESIAN_POINT('',(148.258280407496,-279.53337340131,0.));
#607=CARTESIAN_POINT('Origin',(92.8255084568184,-302.494379343216,0.));
#608=CARTESIAN_POINT('',(92.8255084568184,-302.494379343216,0.));
#609=CARTESIAN_POINT('',(92.8255084568184,-302.494379343216,0.));
#610=CARTESIAN_POINT('',(92.8255084568184,-302.494379343216,2.));
#611=CARTESIAN_POINT('',(92.8255084568184,-302.494379343216,2.));
#612=CARTESIAN_POINT('',(92.8255084568184,-302.494379343216,0.));
#613=CARTESIAN_POINT('Origin',(85.6261511491662,-285.113593290711,0.));
#614=CARTESIAN_POINT('',(85.6261511491662,-285.113593290711,0.));
#615=CARTESIAN_POINT('',(85.6261511491662,-285.113593290711,0.));
#616=CARTESIAN_POINT('',(85.6261511491662,-285.113593290711,2.));
#617=CARTESIAN_POINT('',(85.6261511491662,-285.113593290711,2.));
#618=CARTESIAN_POINT('',(85.6261511491662,-285.113593290711,0.));
#619=CARTESIAN_POINT('Origin',(0.,0.,0.));
#620=CARTESIAN_POINT('',(-0.109857179881314,-297.693780202343,0.));
#621=CARTESIAN_POINT('Origin',(0.,0.,0.));
#622=CARTESIAN_POINT('',(-0.10985717988131,-297.693780202343,2.));
#623=CARTESIAN_POINT('Origin',(0.,0.,2.));
#624=CARTESIAN_POINT('',(-0.109857179881314,-297.693780202343,0.));
#625=CARTESIAN_POINT('Origin',(-0.109857179847365,-286.893779439282,0.));
#626=CARTESIAN_POINT('',(-0.109857179847365,-286.893779439282,0.));
#627=CARTESIAN_POINT('',(-0.109857179847365,-286.893779439282,2.));
#628=CARTESIAN_POINT('Origin',(105.234557137554,-252.640617754069,2.));
#629=CARTESIAN_POINT('Origin',(105.234557137554,-252.640617754069,0.));
#630=UNCERTAINTY_MEASURE_WITH_UNIT(LENGTH_MEASURE(0.01),#634,
'DISTANCE_ACCURACY_VALUE',
'Maximum model space distance between geometric entities at asserted c
onnectivities');
#631=UNCERTAINTY_MEASURE_WITH_UNIT(LENGTH_MEASURE(0.01),#634,
'DISTANCE_ACCURACY_VALUE',
'Maximum model space distance between geometric entities at asserted c
onnectivities');
#632=(
GEOMETRIC_REPRESENTATION_CONTEXT(3)
GLOBAL_UNCERTAINTY_ASSIGNED_CONTEXT((#630))
GLOBAL_UNIT_ASSIGNED_CONTEXT((#634,#636,#637))
REPRESENTATION_CONTEXT('','3D')
);
#633=(
GEOMETRIC_REPRESENTATION_CONTEXT(3)
GLOBAL_UNCERTAINTY_ASSIGNED_CONTEXT((#631))
GLOBAL_UNIT_ASSIGNED_CONTEXT((#634,#636,#637))
REPRESENTATION_CONTEXT('','3D')
);
#634=(
LENGTH_UNIT()
NAMED_UNIT(*)
SI_UNIT(.MILLI.,.METRE.)
);
#635=(
LENGTH_UNIT()
NAMED_UNIT(*)
SI_UNIT($,.METRE.)
);
#636=(
NAMED_UNIT(*)
PLANE_ANGLE_UNIT()
SI_UNIT($,.RADIAN.)
);
#637=(
NAMED_UNIT(*)
SI_UNIT($,.STERADIAN.)
SOLID_ANGLE_UNIT()
);
#638=SHAPE_DEFINITION_REPRESENTATION(#639,#640);
#639=PRODUCT_DEFINITION_SHAPE('',$,#642);
#640=SHAPE_REPRESENTATION('',(#382),#632);
#641=PRODUCT_DEFINITION_CONTEXT('part definition',#646,'design');
#642=PRODUCT_DEFINITION('mounting plate','mounting plate v3',#643,#641);
#643=PRODUCT_DEFINITION_FORMATION('',$,#648);
#644=PRODUCT_RELATED_PRODUCT_CATEGORY('mounting plate v3',
'mounting plate v3',(#648));
#645=APPLICATION_PROTOCOL_DEFINITION('international standard',
'automotive_design',2009,#646);
#646=APPLICATION_CONTEXT(
'Core Data for Automotive Mechanical Design Process');
#647=PRODUCT_CONTEXT('part definition',#646,'mechanical');
#648=PRODUCT('mounting plate','mounting plate v3',$,(#647));
#649=PRESENTATION_STYLE_ASSIGNMENT((#650));
#650=SURFACE_STYLE_USAGE(.BOTH.,#651);
#651=SURFACE_SIDE_STYLE('',(#652));
#652=SURFACE_STYLE_FILL_AREA(#653);
#653=FILL_AREA_STYLE('Steel - Satin',(#654));
#654=FILL_AREA_STYLE_COLOUR('Steel - Satin',#655);
#655=COLOUR_RGB('Steel - Satin',0.627450980392157,0.627450980392157,0.627450980392157);
ENDSEC;
END-ISO-10303-21;
