0
SECTION
2
HEADER
9
$INSUNITS
70
4
9
$ACADVER
1
AC1014
9
$HANDSEED
5
FFFF
0
ENDSEC
0
SECTION
2
TABLES
0
TABLE
2
VPORT
5
8
100
AcDbSymbolTable
0
ENDTAB
0
TABLE
2
LTYPE
5
5
100
AcDbSymbolTable
0
LTYPE
5
14
100
AcDbSymbolTableRecord
100
AcDbLinetypeTableRecord
2
BYBLOCK
70
0
0
LTYPE
5
15
100
AcDbSymbolTableRecord
100
AcDbLinetypeTableRecord
2
BYLAYER
70
0
0
ENDTAB
0
TABLE
2
LAYER
5
2
100
AcDbSymbolTable
70
2
0
LAYER
5
50
100
AcDbSymbolTableRecord
100
AcDbLayerTableRecord
2
0
70
0
6
CONTINUOUS
0
ENDTAB
0
TABLE
2
STYLE
5
3
100
AcDbSymbolTable
70
1
0
STYLE
5
11
100
AcDbSymbolTableRecord
100
AcDbTextStyleTableRecord
2
STANDARD
70
0
0
ENDTAB
0
TABLE
2
VIEW
5
6
100
AcDbSymbolTable
70
0
0
ENDTAB
0
TABLE
2
UCS
5
7
100
AcDbSymbolTable
70
0
0
ENDTAB
0
TABLE
2
APPID
5
9
100
AcDbSymbolTable
70
2
0
APPID
5
12
100
AcDbSymbolTableRecord
100
AcDbRegAppTableRecord
2
ACAD
70
0
0
ENDTAB
0
TABLE
2
DIMSTYLE
5
A
100
AcDbSymbolTable
70
1
0
ENDTAB
0
TABLE
2
BLOCK_RECORD
5
1
100
AcDbSymbolTable
70
1
0
BLOCK_RECORD
5
1F
100
AcDbSymbolTableRecord
100
AcDbBlockTableRecord
2
*MODEL_SPACE
0
BLOCK_RECORD
5
1B
100
AcDbSymbolTableRecord
100
AcDbBlockTableRecord
2
*PAPER_SPACE
0
ENDTAB
0
ENDSEC
0
SECTION
2
BLOCKS
0
BLOCK
5
20
100
AcDbEntity
100
AcDbBlockBegin
2
*MODEL_SPACE
0
ENDBLK
5
21
100
AcDbEntity
100
AcDbBlockEnd
0
BLOCK
5
1C
100
AcDbEntity
100
AcDbBlockBegin
2
*PAPER_SPACE
0
ENDBLK
5
1D
100
AcDbEntity
100
AcDbBlockEnd
0
ENDSEC
0
SECTION
2
ENTITIES
0
LWPOLYLINE
5
100
100
AcDbEntity
8
0
100
AcDbPolyline
90
4
70
1
43
0.0
10
18.189676690201473
20
84.246639355308361
10
16.453194913532151
20
74.398561825186277
10
18.189676690201342
20
64.550484295065004
10
19.926158466870788
20
74.398561825186277
0
LWPOLYLINE
5
101
100
AcDbEntity
8
0
100
AcDbPolyline
90
4
70
1
43
0.0
10
10.896453228190408
20
74.398561825186277
10
9.1599714515210948
20
84.246639355308361
10
7.4234896748517709
20
74.398561825186277
10
9.1599714515209598
20
64.550484295065004
0
LWPOLYLINE
5
102
100
AcDbEntity
8
0
100
AcDbPolyline
90
4
70
1
43
0.0
10
-37.725036518550127
20
74.398561825186277
10
-35.98855474188094
20
64.550484295065004
10
-34.252072965211489
20
74.398561825186277
10
-35.988554741880804
20
84.246639355308361
0
LWPOLYLINE
5
103
100
AcDbEntity
8
0
100
AcDbPolyline
90
4
70
1
43
0.0
10
0.13026621284071283
20
84.246639355308361
10
-1.6062155638286102
20
74.398561825186277
10
0.1302662128405796
20
64.550484295065004
10
1.866747989510027
20
74.398561825186277
0
LWPOLYLINE
5
104
100
AcDbEntity
8
0
100
AcDbPolyline
90
4
70
1
43
0.0
10
25.482900152212533
20
74.398561825186277
10
27.219381928881724
20
64.550484295065004
10
28.95586370555117
20
74.398561825186277
10
27.219381928881855
20
84.246639355308361
0
LWPOLYLINE
5
105
100
AcDbEntity
8
0
100
AcDbPolyline
90
4
70
1
43
0.0
10
-17.929144264520179
20
64.550484295065004
10
-16.192662487850733
20
74.398561825186277
10
-17.929144264520044
20
84.246639355308361
10
-19.66562604118937
20
74.398561825186277
0
LWPOLYLINE
5
106
100
AcDbEntity
8
0
100
AcDbPolyline
90
4
70
1
43
0.0
10
-25.222367726531111
20
74.398561825186277
10
-26.958849503200423
20
84.246639355308361
10
-28.695331279869748
20
74.398561825186277
10
-26.958849503200565
20
64.550484295065004
0
LWPOLYLINE
5
107
100
AcDbEntity
8
0
100
AcDbPolyline
90
4
70
1
43
0.0
10
-31.357936670762797
20
72.398561825187087
10
-33.094418447431991
20
62.5504842950658
10
-31.357936670762662
20
52.702406764943731
10
-29.621454894093354
20
62.5504842950658
0
LWPOLYLINE
5
108
100
AcDbEntity
8
0
100
AcDbPolyline
90
4
70
1
43
0.0
10
55.699999999999861
20
77.461507897759375
10
55.699999999999861
20
71.061507897759398
10
58.964101615137622
20
71.061507897759398
10
58.964101615137622
20
77.461507897759375
0
LWPOLYLINE
5
109
100
AcDbEntity
8
0
100
AcDbPolyline
90
4
70
1
43
0.0
10
47.037053927427586
20
79.99856182518711
10
53.437053927427584
20
79.99856182518711
10
53.437053927427584
20
83.262663440324872
10
47.037053927427586
20
83.262663440324872
0
LWPOLYLINE
5
110
100
AcDbEntity
8
0
100
AcDbPolyline
90
4
70
1
43
0.0
10
53.16294607257214
20
68.798561825187093
10
46.762946072572134
20
68.798561825187093
10
46.762946072572127
20
65.53446021004936
10
53.16294607257214
20
65.53446021004936
0
LWPOLYLINE
5
111
100
AcDbEntity
8
0
100
AcDbPolyline
90
4
70
1
43
0.0
10
-56.762946072572404
20
68.798561825187093
10
-56.762946072572404
20
65.53446021004936
10
-50.362946072572399
20
65.53446021004936
10
-50.362946072572413
20
68.798561825187093
0
LWPOLYLINE
5
112
100
AcDbEntity
8
0
100
AcDbPolyline
90
4
70
1
43
0.0
10
-62.564101615137879
20
71.061507897759398
10
-59.300000000000125
20
71.061507897759398
10
-59.300000000000125
20
77.461507897759375
10
-62.564101615137879
20
77.461507897759375
0
LWPOLYLINE
5
113
100
AcDbEntity
8
0
100
AcDbPolyline
90
4
70
1
43
0.0
10
-57.037053927427849
20
83.262663440324872
10
-57.037053927427849
20
79.99856182518711
10
-50.637053927427843
20
79.99856182518711
10
-50.637053927427843
20
83.262663440324872
0
LWPOLYLINE
5
114
100
AcDbEntity
8
0
100
AcDbPolyline
90
4
70
1
43
0.0
10
-8.8994390258398006
20
64.550484295065004
10
-7.1629572491703497
20
74.398561825186277
10
-8.8994390258396692
20
84.246639355308361
10
-10.635920802508988
20
74.398561825186277
0
LWPOLYLINE
5
115
100
AcDbEntity
8
0
100
AcDbPolyline
90
4
70
1
43
0.0
10
-22.328231432082283
20
96.094716885430444
10
-24.064713208751606
20
86.246639355308361
10
-22.328231432082415
20
76.398561825187087
10
-20.591749655412968
20
86.246639355308361
0
LWPOLYLINE
5
116
100
AcDbEntity
8
0
100
AcDbPolyline
90
4
70
1
43
0.0
10
-22.328231432082283
20
52.702406764943731
10
-20.591749655412968
20
62.5504842950658
10
-22.328231432082415
20
72.398561825187087
10
-24.064713208751606
20
62.5504842950658
0
LWPOLYLINE
5
117
100
AcDbEntity
8
0
100
AcDbPolyline
90
4
70
1
43
0.0
10
-15.035007970071224
20
62.5504842950658
10
-13.298526193401901
20
52.702406764943731
10
-11.562044416732586
20
62.5504842950658
10
-13.298526193402033
20
72.398561825187087
0
LWPOLYLINE
5
118
100
AcDbEntity
8
0
100
AcDbPolyline
90
4
70
1
43
0.0
10
-15.035007970071224
20
86.246639355308361
10
-13.298526193402033
20
76.398561825187087
10
-11.562044416732586
20
86.246639355308361
10
-13.298526193401901
20
96.094716885430444
0
LWPOLYLINE
5
119
100
AcDbEntity
8
0
100
AcDbPolyline
90
4
70
1
43
0.0
10
-4.2688209547216571
20
72.398561825187087
10
-6.0053027313908425
20
62.5504842950658
10
-4.2688209547215239
20
52.702406764943731
10
-2.5323391780522075
20
62.5504842950658
0
LWPOLYLINE
5
120
100
AcDbEntity
8
0
100
AcDbPolyline
90
4
70
1
43
0.0
10
-4.2688209547215239
20
96.094716885430444
10
-6.0053027313908425
20
86.246639355308361
10
-4.2688209547216571
20
76.398561825187087
10
-2.5323391780522075
20
86.246639355308361
0
LWPOLYLINE
5
121
100
AcDbEntity
8
0
100
AcDbPolyline
90
4
70
1
43
0.0
10
3.0244025072895342
20
86.246639355308361
10
4.760884283958724
20
76.398561825187087
10
6.4973660606281722
20
86.246639355308361
10
4.7608842839588572
20
96.094716885430444
0
LWPOLYLINE
5
122
100
AcDbEntity
8
0
100
AcDbPolyline
90
4
70
1
43
0.0
10
3.0244025072895342
20
62.5504842950658
10
4.7608842839588572
20
52.702406764943731
10
6.4973660606281722
20
62.5504842950658
10
4.760884283958724
20
72.398561825187087
0
LWPOLYLINE
5
123
100
AcDbEntity
8
0
100
AcDbPolyline
90
4
70
1
43
0.0
10
13.790589522639237
20
52.702406764943731
10
15.527071299308552
20
62.5504842950658
10
13.790589522639106
20
72.398561825187087
10
12.054107745969915
20
62.5504842950658
0
LWPOLYLINE
5
124
100
AcDbEntity
8
0
100
AcDbPolyline
90
4
70
1
43
0.0
10
15.527071299308552
20
86.246639355308361
10
13.790589522639237
20
96.094716885430444
10
12.054107745969915
20
86.246639355308361
10
13.790589522639106
20
76.398561825187087
0
LWPOLYLINE
5
125
100
AcDbEntity
8
0
100
AcDbPolyline
90
4
70
1
43
0.0
10
21.083812984650297
20
62.5504842950658
10
22.820294761319619
20
52.702406764943731
10
24.556776537988934
20
62.5504842950658
10
22.820294761319488
20
72.398561825187087
0
LWPOLYLINE
5
126
100
AcDbEntity
8
0
100
AcDbPolyline
90
4
70
1
43
0.0
10
24.556776537988934
20
86.246639355308361
10
22.820294761319619
20
96.094716885430444
10
21.083812984650297
20
86.246639355308361
10
22.820294761319488
20
76.398561825187087
0
LWPOLYLINE
5
127
100
AcDbEntity
8
0
100
AcDbPolyline
90
4
70
1
43
0.0
10
31.849999999999866
20
72.398561825187087
10
30.113518223330679
20
62.5504842950658
10
31.850000000000001
20
52.702406764943731
10
33.586481776669316
20
62.5504842950658
0
LWPOLYLINE
5
128
100
AcDbEntity
8
0
100
AcDbPolyline
90
4
70
1
43
0.0
10
33.586481776669316
20
86.246639355308361
10
31.850000000000001
20
96.094716885430444
10
30.113518223330679
20
86.246639355308361
10
31.849999999999866
20
76.398561825187087
0
LWPOLYLINE
5
129
100
AcDbEntity
8
0
100
AcDbPolyline
90
4
70
1
43
0.0
10
-29.621454894093354
20
86.246639355308361
10
-31.357936670762662
20
96.094716885430444
10
-33.094418447431991
20
86.246639355308361
10
-31.357936670762797
20
76.398561825187087
0
LWPOLYLINE
5
130
100
AcDbEntity
8
0
100
AcDbPolyline
90
136
70
1
43
0.0
10
-37.725036518550127
20
50.702406764942118
10
-37.477500778940268
20
49.298561825187086
10
-48.500000000000142
20
49.298561825187043
10
-50.500000000000128
20
51.298561825187072
10
-50.500000000000128
20
60.148561825187116
10
-56.900000000000134
20
60.148561825187116
10
-56.900000000000134
20
54.762663440324786
10
-55.900000000000141
20
53.030612632755947
10
-56.900000000000134
20
51.298561825187079
10
-58.900000000000148
20
49.298561825187086
10
-75.800000000000111
20
49.298561825187079
42
-0.41421356237309503
10
-78.800000000000125
20
52.298561825187093
10
-78.800000000000125
20
69.198561825187085
10
-76.800000000000125
20
71.198561825187085
10
-67.950000000000131
20
71.198561825187085
10
-67.950000000000131
20
77.598561825187105
10
-73.335898384862361
20
77.598561825187105
10
-75.067949192431257
20
76.598561825187105
10
-76.800000000000125
20
77.598561825187105
10
-78.800000000000125
20
79.598561825187119
10
-78.800000000000125
20
96.49856182518711
42
-0.4142135623730942
10
-75.800000000000153
20
99.498561825187082
10
-58.900000000000134
20
99.498561825187068
10
-56.900000000000119
20
97.498561825187068
10
-56.900000000000119
20
88.648561825187087
10
-50.500000000000128
20
88.648561825187087
10
-50.500000000000114
20
94.034460210049275
10
-51.500000000000128
20
95.766511017618186
10
-50.500000000000114
20
97.49856182518711
10
-48.500000000000121
20
99.498561825187068
10
-37.477500778939984
20
99.498561825187082
10
-37.725036518550127
20
98.094716885430444
10
-35.98855474188094
20
88.246639355309185
10
-34.252072965211489
20
98.094716885430444
10
-34.49960870482164
20
99.498561825187082
10
-28.447795540259598
20
99.498561825187082
10
-28.695331279869748
20
98.094716885430444
10
-26.958849503200565
20
88.246639355309185
10
-25.222367726531111
20
98.094716885430444
10
-25.469903466141265
20
99.498561825187082
10
-19.41809030157922
20
99.498561825187082
10
-19.66562604118937
20
98.094716885430444
10
-17.929144264520179
20
88.246639355309185
10
-16.192662487850733
20
98.094716885430444
10
-16.440198227460879
20
99.498561825187082
10
-10.388385062898845
20
99.498561825187082
10
-10.635920802508988
20
98.094716885430444
10
-8.8994390258398006
20
88.246639355309185
10
-7.1629572491703497
20
98.094716885430444
10
-7.4104929887804971
20
99.498561825187082
10
-1.3586798242184628
20
99.498561825187082
10
-1.6062155638286102
20
98.094716885430444
10
0.1302662128405796
20
88.246639355309185
10
1.866747989510027
20
98.094716885430444
10
1.6192122498998818
20
99.498561825187082
10
7.6710254144619174
20
99.498561825187082
10
7.4234896748517709
20
98.094716885430444
10
9.1599714515209598
20
88.246639355309185
10
10.896453228190408
20
98.094716885430444
10
10.648917488580263
20
99.498561825187082
10
16.700730653142301
20
99.498561825187082
10
16.453194913532151
20
98.094716885430444
10
18.189676690201342
20
88.246639355309185
10
19.926158466870788
20
98.094716885430444
10
19.678622727260645
20
99.498561825187082
10
25.73043589182268
20
99.498561825187082
10
25.482900152212533
20
98.094716885430444
10
27.219381928881724
20
88.246639355309185
10
28.95586370555117
20
98.094716885430444
10
28.708327965941024
20
99.498561825187082
10
44.899999999999849
20
99.498561825187068
10
46.899999999999849
20
97.498561825187068
10
47.899999999999864
20
95.766511017618186
10
46.899999999999842
20
94.034460210049275
10
46.899999999999864
20
88.648561825187087
10
53.299999999999855
20
88.648561825187087
10
53.299999999999855
20
97.498561825187096
10
55.299999999999862
20
99.498561825187082
10
72.199999999999889
20
99.498561825187082
42
-0.41421356237309503
10
75.199999999999847
20
96.49856182518711
10
75.199999999999847
20
79.598561825187119
10
73.199999999999847
20
77.598561825187105
10
71.467949192430993
20
76.598561825187105
10
69.735898384862111
20
77.598561825187119
10
64.349999999999866
20
77.598561825187105
10
64.349999999999866
20
71.198561825187085
10
73.199999999999861
20
71.198561825187085
10
75.199999999999847
20
69.198561825187085
10
75.199999999999861
20
52.298561825187093
42
-0.41421356237309592
10
72.199999999999847
20
49.298561825187086
10
55.299999999999876
20
49.298561825187065
10
53.299999999999869
20
51.298561825187079
10
52.299999999999862
20
53.03061263275594
10
53.299999999999869
20
54.762663440324786
10
53.299999999999869
20
60.148561825187116
10
46.899999999999871
20
60.148561825187116
10
46.899999999999871
20
51.298561825187072
10
44.899999999999864
20
49.298561825187086
10
28.708327965941265
20
49.298561825187086
10
28.95586370555117
20
50.702406764942118
10
27.219381928881855
20
60.550484295064194
10
25.482900152212533
20
50.702406764942118
10
25.730435891822403
20
49.298561825187086
10
19.678622727260887
20
49.298561825187086
10
19.926158466870788
20
50.702406764942118
10
18.189676690201473
20
60.550484295064194
10
16.453194913532151
20
50.702406764942118
10
16.700730653142017
20
49.298561825187086
10
10.648917488580505
20
49.298561825187086
10
10.896453228190408
20
50.702406764942118
10
9.1599714515210948
20
60.550484295064194
10
7.4234896748517709
20
50.702406764942118
10
7.6710254144616368
20
49.298561825187086
10
1.619212249900126
20
49.298561825187086
10
1.866747989510027
20
50.702406764942118
10
0.13026621284071283
20
60.550484295064194
10
-1.6062155638286102
20
50.702406764942118
10
-1.3586798242187426
20
49.298561825187086
10
-7.4104929887802529
20
49.298561825187086
10
-7.1629572491703497
20
50.702406764942118
10
-8.8994390258396692
20
60.550484295064194
10
-10.635920802508988
20
50.702406764942118
10
-10.388385062899124
20
49.298561825187086
10
-16.440198227460634
20
49.298561825187086
10
-16.192662487850733
20
50.702406764942118
10
-17.929144264520044
20
60.550484295064194
10
-19.66562604118937
20
50.702406764942118
10
-19.418090301579504
20
49.298561825187086
10
-25.469903466141016
20
49.298561825187086
10
-25.222367726531111
20
50.702406764942118
10
-26.958849503200423
20
60.550484295064194
10
-28.695331279869748
20
50.702406764942118
10
-28.447795540259882
20
49.298561825187086
10
-34.499608704821398
20
49.298561825187086
10
-34.252072965211489
20
50.702406764942118
10
-35.988554741880804
20
60.550484295064194
0
ENDSEC
0
SECTION
2
OBJECTS
0
DICTIONARY
5
C
100
AcDbDictionary
3
ACAD_GROUP
350
D
3
ACAD_MLINESTYLE
350
17
0
DICTIONARY
5
D
100
AcDbDictionary
0
DICTIONARY
5
1A
330
C
100
AcDbDictionary
0
DICTIONARY
5
17
100
AcDbDictionary
0
ENDSEC
0
EOF
