  0
SECTION
  2
HEADER
  9
$ACADVER
  1
AC1002
  9
$INSBASE
 10
0.0
 20
0.0
  9
$EXTMIN
 10
-15.15268897637795
 20
1.403437007874016
  9
$EXTMAX
 10
0.1410590551181102
 20
11.18681496062992
  9
$LIMMIN
 10
0.0
 20
0.0
  9
$LIMMAX
 10
12.0
 20
9.0
  9
$ORTHOMODE
 70
     0
  9
$REGENMODE
 70
     1
  9
$FILLMODE
 70
     1
  9
$QTEXTMODE
 70
     0
  9
$DRAGMODE
 70
     2
  9
$LTSCALE
 40
1.0
  9
$OSMODE
 70
    37
  9
$ATTMODE
 70
     1
  9
$TEXTSIZE
 40
0.2
  9
$TRACEWID
 40
0.05
  9
$TEXTSTYLE
  7
STANDARD
  9
$CLAYER
  8
0
  9
$CELTYPE
  6
BYLAYER
  9
$CECOLOR
 62
   256
  9
$DIMSCALE
 40
1.0
  9
$DIMASZ
 40
0.18
  9
$DIMEXO
 40
0.0625
  9
$DIMDLI
 40
0.38
  9
$DIMRND
 40
0.0
  9
$DIMDLE
 40
0.0
  9
$DIMEXE
 40
0.18
  9
$DIMTP
 40
0.0
  9
$DIMTM
 40
0.0
  9
$DIMTXT
 40
0.18
  9
$DIMCEN
 40
0.09
  9
$DIMTSZ
 40
0.0
  9
$DIMTOL
 70
     0
  9
$DIMLIM
 70
     0
  9
$DIMTIH
 70
     1
  9
$DIMTOH
 70
     1
  9
$DIMSE1
 70
     0
  9
$DIMSE2
 70
     0
  9
$DIMTAD
 70
     0
  9
$DIMZIN
 70
     0
  9
$DIMBLK
  1

  9
$LUNITS
 70
     2
  9
$LUPREC
 70
     4
  9
$SKETCHINC
 40
0.1
  9
$FILLETRAD
 40
0.5
  9
$AUNITS
 70
     0
  9
$AUPREC
 70
     0
  9
$MENU
  1
.
  9
$ELEVATION
 40
0.0
  9
$THICKNESS
 40
0.0
  9
$LIMCHECK
 70
     0
  9
$CHAMFERA
 40
0.0
  9
$CHAMFERB
 40
0.0
  9
$SKPOLY
 70
     0
  9
$TDCREATE
 40
2458674.638618773
  9
$TDUPDATE
 40
2458674.638618808
  9
$TDINDWG
 40
0.0000000116
  9
$TDUSRTIMER
 40
0.0000000116
  9
$USRTIMER
 70
     1
  9
$ANGBASE
 50
0.0
  9
$ANGDIR
 70
     0
  9
$PDMODE
 70
     0
  9
$PDSIZE
 40
0.0
  9
$PLINEWID
 40
0.0
  9
$COORDS
 70
     1
  9
$SURFTAB1
 70
     6
  9
$SURFTAB2
 70
     6
  9
$SURFTYPE
 70
     6
  9
$SURFU
 70
     6
  9
$SURFV
 70
     6
  9
$UCSNAME
  2

  9
$UCSORG
 10
0.0
 20
0.0
 30
0.0
  9
$UCSXDIR
 10
1.0
 20
0.0
 30
0.0
  9
$UCSYDIR
 10
0.0
 20
1.0
 30
0.0
  9
$USERI1
 70
     0
  9
$USERI2
 70
     0
  9
$USERI3
 70
     0
  9
$USERI4
 70
     0
  9
$USERI5
 70
     0
  9
$USERR1
 40
0.0
  9
$USERR2
 40
0.0
  9
$USERR3
 40
0.0
  9
$USERR4
 40
0.0
  9
$USERR5
 40
0.0
  0
ENDSEC
  0
SECTION
  2
TABLES
  0
TABLE
  2
LTYPE
 70
     1
  0
LTYPE
  2
CONTINUOUS
 70
     0
  3
Solid line
 72
    65
 73
     0
 40
0.0
  0
ENDTAB
  0
TABLE
  2
LAYER
 70
     2
  0
LAYER
  2
0
 70
     0
 62
     7
  6
CONTINUOUS
  0
LAYER
  2
LAYER_1
 70
     0
 62
     7
  6
CONTINUOUS
  0
ENDTAB
  0
TABLE
  2
STYLE
 70
     1
  0
STYLE
  2
STANDARD
 70
     0
 40
0.0
 41
1.0
 50
0.0
 71
     0
 42
0.2
  3
txt
  4

  0
ENDTAB
  0
TABLE
  2
VIEW
 70
     0
  0
ENDTAB
  0
ENDSEC
  0
SECTION
  2
BLOCKS
  0
ENDSEC
  0
SECTION
  2
ENTITIES
  0
POLYLINE
  8
LAYER_1
 66
     1
 70
     1
  0
VERTEX
  8
LAYER_1
 10
-11.86044094488189
 20
7.185314960629921
  0
VERTEX
  8
LAYER_1
 10
0.1395590551181102
 20
7.185314960629921
  0
VERTEX
  8
LAYER_1
 10
0.1395590551181102
 20
11.18531496062992
  0
VERTEX
  8
LAYER_1
 10
-11.86044094488189
 20
11.18531496062992
  0
VERTEX
  8
LAYER_1
 10
-11.86044094488189
 20
7.185314960629921
  0
SEQEND
  8
LAYER_1
  0
POLYLINE
  8
LAYER_1
 66
     1
 70
     1
  0
VERTEX
  8
LAYER_1
 10
-8.135444881889764
 20
9.273854330708662
  0
VERTEX
  8
LAYER_1
 10
-8.147638027015773
 20
9.272653410733865
  0
VERTEX
  8
LAYER_1
 10
-8.159362596412583
 20
9.269096801490617
  0
VERTEX
  8
LAYER_1
 10
-8.17016802145349
 20
9.263321181477572
  0
VERTEX
  8
LAYER_1
 10
-8.179639055713924
 20
9.255548504532822
  0
VERTEX
  8
LAYER_1
 10
-8.187411732658674
 20
9.246077470272388
  0
VERTEX
  8
LAYER_1
 10
-8.19318735267172
 20
9.235272045231481
  0
VERTEX
  8
LAYER_1
 10
-8.196743961914967
 20
9.223547475834671
  0
VERTEX
  8
LAYER_1
 10
-8.197944881889764
 20
9.211354330708662
  0
VERTEX
  8
LAYER_1
 10
-8.196743961914967
 20
9.199161185582653
  0
VERTEX
  8
LAYER_1
 10
-8.19318735267172
 20
9.187436616185844
  0
VERTEX
  8
LAYER_1
 10
-8.187411732658674
 20
9.176631191144937
  0
VERTEX
  8
LAYER_1
 10
-8.179639055713924
 20
9.167160156884503
  0
VERTEX
  8
LAYER_1
 10
-8.17016802145349
 20
9.159387479939753
  0
VERTEX
  8
LAYER_1
 10
-8.159362596412583
 20
9.153611859926707
  0
VERTEX
  8
LAYER_1
 10
-8.147638027015772
 20
9.15005525068346
  0
VERTEX
  8
LAYER_1
 10
-8.135444881889764
 20
9.148854330708662
  0
VERTEX
  8
LAYER_1
 10
-8.123251736763756
 20
9.15005525068346
  0
VERTEX
  8
LAYER_1
 10
-8.111527167366946
 20
9.153611859926707
  0
VERTEX
  8
LAYER_1
 10
-8.100721742326039
 20
9.159387479939753
  0
VERTEX
  8
LAYER_1
 10
-8.091250708065605
 20
9.167160156884503
  0
VERTEX
  8
LAYER_1
 10
-8.083478031120855
 20
9.176631191144937
  0
VERTEX
  8
LAYER_1
 10
-8.07770241110781
 20
9.187436616185844
  0
VERTEX
  8
LAYER_1
 10
-8.074145801864562
 20
9.199161185582655
  0
VERTEX
  8
LAYER_1
 10
-8.072944881889764
 20
9.211354330708662
  0
VERTEX
  8
LAYER_1
 10
-8.074145801864562
 20
9.223547475834671
  0
VERTEX
  8
LAYER_1
 10
-8.07770241110781
 20
9.235272045231481
  0
VERTEX
  8
LAYER_1
 10
-8.083478031120855
 20
9.246077470272388
  0
VERTEX
  8
LAYER_1
 10
-8.091250708065605
 20
9.255548504532822
  0
VERTEX
  8
LAYER_1
 10
-8.100721742326039
 20
9.263321181477572
  0
VERTEX
  8
LAYER_1
 10
-8.111527167366946
 20
9.269096801490617
  0
VERTEX
  8
LAYER_1
 10
-8.123251736763757
 20
9.272653410733865
  0
SEQEND
  8
LAYER_1
  0
POLYLINE
  8
LAYER_1
 66
     1
 70
     1
  0
VERTEX
  8
LAYER_1
 10
-3.58544094488189
 20
9.273854330708662
  0
VERTEX
  8
LAYER_1
 10
-3.597634090007898
 20
9.272653410733865
  0
VERTEX
  8
LAYER_1
 10
-3.609358659404708
 20
9.269096801490617
  0
VERTEX
  8
LAYER_1
 10
-3.620164084445615
 20
9.263321181477572
  0
VERTEX
  8
LAYER_1
 10
-3.629635118706049
 20
9.255548504532822
  0
VERTEX
  8
LAYER_1
 10
-3.637407795650799
 20
9.246077470272388
  0
VERTEX
  8
LAYER_1
 10
-3.643183415663845
 20
9.235272045231481
  0
VERTEX
  8
LAYER_1
 10
-3.646740024907092
 20
9.223547475834671
  0
VERTEX
  8
LAYER_1
 10
-3.64794094488189
 20
9.211354330708662
  0
VERTEX
  8
LAYER_1
 10
-3.646740024907092
 20
9.199161185582653
  0
VERTEX
  8
LAYER_1
 10
-3.643183415663845
 20
9.187436616185844
  0
VERTEX
  8
LAYER_1
 10
-3.637407795650799
 20
9.176631191144937
  0
VERTEX
  8
LAYER_1
 10
-3.629635118706049
 20
9.167160156884503
  0
VERTEX
  8
LAYER_1
 10
-3.620164084445615
 20
9.159387479939753
  0
VERTEX
  8
LAYER_1
 10
-3.609358659404708
 20
9.153611859926707
  0
VERTEX
  8
LAYER_1
 10
-3.597634090007898
 20
9.15005525068346
  0
VERTEX
  8
LAYER_1
 10
-3.58544094488189
 20
9.148854330708662
  0
VERTEX
  8
LAYER_1
 10
-3.573247799755882
 20
9.15005525068346
  0
VERTEX
  8
LAYER_1
 10
-3.561523230359072
 20
9.153611859926707
  0
VERTEX
  8
LAYER_1
 10
-3.550717805318165
 20
9.159387479939753
  0
VERTEX
  8
LAYER_1
 10
-3.541246771057731
 20
9.167160156884503
  0
VERTEX
  8
LAYER_1
 10
-3.533474094112981
 20
9.176631191144937
  0
VERTEX
  8
LAYER_1
 10
-3.527698474099934
 20
9.187436616185844
  0
VERTEX
  8
LAYER_1
 10
-3.524141864856688
 20
9.199161185582655
  0
VERTEX
  8
LAYER_1
 10
-3.52294094488189
 20
9.211354330708662
  0
VERTEX
  8
LAYER_1
 10
-3.524141864856688
 20
9.223547475834671
  0
VERTEX
  8
LAYER_1
 10
-3.527698474099934
 20
9.235272045231481
  0
VERTEX
  8
LAYER_1
 10
-3.533474094112981
 20
9.246077470272388
  0
VERTEX
  8
LAYER_1
 10
-3.541246771057731
 20
9.255548504532822
  0
VERTEX
  8
LAYER_1
 10
-3.550717805318165
 20
9.263321181477572
  0
VERTEX
  8
LAYER_1
 10
-3.561523230359072
 20
9.269096801490617
  0
VERTEX
  8
LAYER_1
 10
-3.573247799755882
 20
9.272653410733865
  0
SEQEND
  8
LAYER_1
  0
POLYLINE
  8
LAYER_1
 66
     1
 70
     1
  0
VERTEX
  8
LAYER_1
 10
-14.35118897637795
 20
6.291555118110236
  0
VERTEX
  8
LAYER_1
 10
-14.50726123399086
 20
6.27618334243282
  0
VERTEX
  8
LAYER_1
 10
-14.65733572227002
 20
6.230658744119266
  0
VERTEX
  8
LAYER_1
 10
-14.79564516279363
 20
6.156730807952273
  0
VERTEX
  8
LAYER_1
 10
-14.91687440132719
 20
6.057240543059474
  0
VERTEX
  8
LAYER_1
 10
-15.01636466621999
 20
5.936011304525918
  0
VERTEX
  8
LAYER_1
 10
-15.09029260238698
 20
5.797701864002308
  0
VERTEX
  8
LAYER_1
 10
-15.13581720070054
 20
5.647627375723139
  0
VERTEX
  8
LAYER_1
 10
-15.15118897637795
 20
5.491555118110236
  0
VERTEX
  8
LAYER_1
 10
-15.13581720070054
 20
5.335482860497334
  0
VERTEX
  8
LAYER_1
 10
-15.09029260238698
 20
5.185408372218165
  0
VERTEX
  8
LAYER_1
 10
-15.01636466621999
 20
5.047098931694554
  0
VERTEX
  8
LAYER_1
 10
-14.91687440132719
 20
4.925869693160998
  0
VERTEX
  8
LAYER_1
 10
-14.79564516279363
 20
4.8263794282682
  0
VERTEX
  8
LAYER_1
 10
-14.65733572227002
 20
4.752451492101207
  0
VERTEX
  8
LAYER_1
 10
-14.50726123399085
 20
4.706926893787652
  0
VERTEX
  8
LAYER_1
 10
-14.35118897637795
 20
4.691555118110236
  0
VERTEX
  8
LAYER_1
 10
-14.19511671876505
 20
4.706926893787652
  0
VERTEX
  8
LAYER_1
 10
-14.04504223048588
 20
4.752451492101207
  0
VERTEX
  8
LAYER_1
 10
-13.90673278996227
 20
4.826379428268201
  0
VERTEX
  8
LAYER_1
 10
-13.78550355142871
 20
4.925869693160999
  0
VERTEX
  8
LAYER_1
 10
-13.68601328653592
 20
5.047098931694555
  0
VERTEX
  8
LAYER_1
 10
-13.61208535036892
 20
5.185408372218166
  0
VERTEX
  8
LAYER_1
 10
-13.56656075205537
 20
5.335482860497335
  0
VERTEX
  8
LAYER_1
 10
-13.55118897637795
 20
5.491555118110238
  0
VERTEX
  8
LAYER_1
 10
-13.56656075205537
 20
5.647627375723141
  0
VERTEX
  8
LAYER_1
 10
-13.61208535036893
 20
5.797701864002311
  0
VERTEX
  8
LAYER_1
 10
-13.68601328653592
 20
5.93601130452592
  0
VERTEX
  8
LAYER_1
 10
-13.78550355142872
 20
6.057240543059476
  0
VERTEX
  8
LAYER_1
 10
-13.90673278996227
 20
6.156730807952274
  0
VERTEX
  8
LAYER_1
 10
-14.04504223048588
 20
6.230658744119267
  0
VERTEX
  8
LAYER_1
 10
-14.19511671876505
 20
6.276183342432821
  0
SEQEND
  8
LAYER_1
  0
POLYLINE
  8
LAYER_1
 66
     1
 70
     1
  0
VERTEX
  8
LAYER_1
 10
-14.35118897637795
 20
5.941555118110236
  0
VERTEX
  8
LAYER_1
 10
-14.43897962128521
 20
5.93290849429169
  0
VERTEX
  8
LAYER_1
 10
-14.52339652094224
 20
5.907300907740315
  0
VERTEX
  8
LAYER_1
 10
-14.60119558123677
 20
5.865716443646382
  0
VERTEX
  8
LAYER_1
 10
-14.6693870279119
 20
5.809753169644183
  0
VERTEX
  8
LAYER_1
 10
-14.7253503019141
 20
5.741561722969057
  0
VERTEX
  8
LAYER_1
 10
-14.76693476600803
 20
5.663762662674527
  0
VERTEX
  8
LAYER_1
 10
-14.79254235255941
 20
5.579345763017494
  0
VERTEX
  8
LAYER_1
 10
-14.80118897637795
 20
5.491555118110236
  0
VERTEX
  8
LAYER_1
 10
-14.79254235255941
 20
5.403764473202979
  0
VERTEX
  8
LAYER_1
 10
-14.76693476600803
 20
5.319347573545945
  0
VERTEX
  8
LAYER_1
 10
-14.7253503019141
 20
5.241548513251415
  0
VERTEX
  8
LAYER_1
 10
-14.6693870279119
 20
5.17335706657629
  0
VERTEX
  8
LAYER_1
 10
-14.60119558123677
 20
5.117393792574091
  0
VERTEX
  8
LAYER_1
 10
-14.52339652094224
 20
5.075809328480157
  0
VERTEX
  8
LAYER_1
 10
-14.43897962128521
 20
5.050201741928783
  0
VERTEX
  8
LAYER_1
 10
-14.35118897637795
 20
5.041555118110236
  0
VERTEX
  8
LAYER_1
 10
-14.26339833147069
 20
5.050201741928783
  0
VERTEX
  8
LAYER_1
 10
-14.17898143181366
 20
5.075809328480157
  0
VERTEX
  8
LAYER_1
 10
-14.10118237151913
 20
5.117393792574092
  0
VERTEX
  8
LAYER_1
 10
-14.03299092484401
 20
5.17335706657629
  0
VERTEX
  8
LAYER_1
 10
-13.97702765084181
 20
5.241548513251416
  0
VERTEX
  8
LAYER_1
 10
-13.93544318674787
 20
5.319347573545946
  0
VERTEX
  8
LAYER_1
 10
-13.9098356001965
 20
5.40376447320298
  0
VERTEX
  8
LAYER_1
 10
-13.90118897637795
 20
5.491555118110237
  0
VERTEX
  8
LAYER_1
 10
-13.9098356001965
 20
5.579345763017495
  0
VERTEX
  8
LAYER_1
 10
-13.93544318674788
 20
5.663762662674528
  0
VERTEX
  8
LAYER_1
 10
-13.97702765084181
 20
5.741561722969059
  0
VERTEX
  8
LAYER_1
 10
-14.03299092484401
 20
5.809753169644184
  0
VERTEX
  8
LAYER_1
 10
-14.10118237151913
 20
5.865716443646383
  0
VERTEX
  8
LAYER_1
 10
-14.17898143181366
 20
5.907300907740316
  0
VERTEX
  8
LAYER_1
 10
-14.2633983314707
 20
5.932908494291691
  0
SEQEND
  8
LAYER_1
  0
POLYLINE
  8
LAYER_1
 66
     1
 70
     1
  0
VERTEX
  8
LAYER_1
 10
-8.343102362204725
 20
3.303779527559055
  0
VERTEX
  8
LAYER_1
 10
-8.430629921259843
 20
3.312984251968504
  0
VERTEX
  8
LAYER_1
 10
-8.512082677165354
 20
3.338653543307087
  0
VERTEX
  8
LAYER_1
 10
-8.58571653543307
 20
3.379031496062992
  0
VERTEX
  8
LAYER_1
 10
-8.649791338582677
 20
3.432362204724409
  0
VERTEX
  8
LAYER_1
 10
-8.702566929133859
 20
3.496893700787401
  0
VERTEX
  8
LAYER_1
 10
-8.742311023622047
 20
3.570874015748032
  0
VERTEX
  8
LAYER_1
 10
-8.767275590551181
 20
3.652543307086614
  0
VERTEX
  8
LAYER_1
 10
-8.775724409448818
 20
3.740145669291338
  0
VERTEX
  8
LAYER_1
 10
-8.76651968503937
 20
3.827673228346457
  0
VERTEX
  8
LAYER_1
 10
-8.740850393700788
 20
3.909125984251968
  0
VERTEX
  8
LAYER_1
 10
-8.700472440944882
 20
3.982759842519685
  0
VERTEX
  8
LAYER_1
 10
-8.647141732283465
 20
4.046834645669291
  0
VERTEX
  8
LAYER_1
 10
-8.582606299212598
 20
4.099614173228346
  0
VERTEX
  8
LAYER_1
 10
-8.508629921259843
 20
4.139354330708661
  0
VERTEX
  8
LAYER_1
 10
-8.42696062992126
 20
4.164322834645669
  0
VERTEX
  8
LAYER_1
 10
-8.339358267716536
 20
4.172771653543307
  0
VERTEX
  8
LAYER_1
 10
-8.251830708661418
 20
4.163566929133858
  0
VERTEX
  8
LAYER_1
 10
-8.170377952755906
 20
4.137897637795276
  0
VERTEX
  8
LAYER_1
 10
-8.096744094488189
 20
4.09751968503937
  0
VERTEX
  8
LAYER_1
 10
-8.032669291338582
 20
4.044185039370078
  0
VERTEX
  8
LAYER_1
 10
-7.979893700787402
 20
3.979653543307087
  0
VERTEX
  8
LAYER_1
 10
-7.940149606299213
 20
3.905673228346457
  0
VERTEX
  8
LAYER_1
 10
-7.915185039370079
 20
3.824003937007874
  0
VERTEX
  8
LAYER_1
 10
-7.906736220472441
 20
3.73640157480315
  0
VERTEX
  8
LAYER_1
 10
-7.91594094488189
 20
3.648874015748031
  0
VERTEX
  8
LAYER_1
 10
-7.941610236220472
 20
3.567425196850394
  0
VERTEX
  8
LAYER_1
 10
-7.981988188976378
 20
3.493791338582677
  0
VERTEX
  8
LAYER_1
 10
-8.035322834645669
 20
3.429716535433071
  0
VERTEX
  8
LAYER_1
 10
-8.099854330708661
 20
3.376937007874016
  0
VERTEX
  8
LAYER_1
 10
-8.173830708661418
 20
3.337196850393701
  0
VERTEX
  8
LAYER_1
 10
-8.2555
 20
3.312228346456693
  0
VERTEX
  8
LAYER_1
 10
-8.343102362204725
 20
3.303779527559055
  0
SEQEND
  8
LAYER_1
  0
POLYLINE
  8
LAYER_1
 62
     1
 66
     1
 70
     1
  0
VERTEX
  8
LAYER_1
 62
     1
 10
-8.344948818897638
 20
2.875783464566929
  0
VERTEX
  8
LAYER_1
 62
     1
 10
-8.5186968503937
 20
2.894055118110236
  0
VERTEX
  8
LAYER_1
 62
     1
 10
-8.680377952755906
 20
2.945007874015748
  0
VERTEX
  8
LAYER_1
 62
     1
 10
-8.826543307086615
 20
3.025161417322835
  0
VERTEX
  8
LAYER_1
 62
     1
 10
-8.953732283464566
 20
3.131031496062992
  0
VERTEX
  8
LAYER_1
 62
     1
 10
-9.0585
 20
3.259129921259842
  0
VERTEX
  8
LAYER_1
 62
     1
 10
-9.137389763779527
 20
3.40598031496063
  0
VERTEX
  8
LAYER_1
 62
     1
 10
-9.186948818897637
 20
3.568094488188976
  0
VERTEX
  8
LAYER_1
 62
     1
 10
-9.203720472440946
 20
3.741992125984252
  0
VERTEX
  8
LAYER_1
 62
     1
 10
-9.185448818897639
 20
3.915740157480315
  0
VERTEX
  8
LAYER_1
 62
     1
 10
-9.134496062992126
 20
4.077421259842519
  0
VERTEX
  8
LAYER_1
 62
     1
 10
-9.05434251968504
 20
4.223586614173229
  0
VERTEX
  8
LAYER_1
 62
     1
 10
-8.948472440944881
 20
4.350779527559055
  0
VERTEX
  8
LAYER_1
 62
     1
 10
-8.820374015748031
 20
4.455547244094488
  0
VERTEX
  8
LAYER_1
 62
     1
 10
-8.673523622047243
 20
4.534437007874016
  0
VERTEX
  8
LAYER_1
 62
     1
 10
-8.511409448818897
 20
4.583992125984252
  0
VERTEX
  8
LAYER_1
 62
     1
 10
-8.337511811023623
 20
4.600767716535433
  0
VERTEX
  8
LAYER_1
 62
     1
 10
-8.163763779527558
 20
4.582496062992126
  0
VERTEX
  8
LAYER_1
 62
     1
 10
-8.002082677165355
 20
4.531539370078741
  0
VERTEX
  8
LAYER_1
 62
     1
 10
-7.855917322834646
 20
4.451385826771654
  0
VERTEX
  8
LAYER_1
 62
     1
 10
-7.728728346456693
 20
4.34551968503937
  0
VERTEX
  8
LAYER_1
 62
     1
 10
-7.623960629921259
 20
4.217417322834645
  0
VERTEX
  8
LAYER_1
 62
     1
 10
-7.545070866141733
 20
4.070566929133858
  0
VERTEX
  8
LAYER_1
 62
     1
 10
-7.495511811023622
 20
3.908452755905512
  0
VERTEX
  8
LAYER_1
 62
     1
 10
-7.478740157480315
 20
3.734555118110236
  0
VERTEX
  8
LAYER_1
 62
     1
 10
-7.497011811023622
 20
3.560807086614173
  0
VERTEX
  8
LAYER_1
 62
     1
 10
-7.547964566929134
 20
3.399125984251969
  0
VERTEX
  8
LAYER_1
 62
     1
 10
-7.628118110236221
 20
3.25296062992126
  0
VERTEX
  8
LAYER_1
 62
     1
 10
-7.733988188976378
 20
3.125771653543307
  0
VERTEX
  8
LAYER_1
 62
     1
 10
-7.862086614173228
 20
3.021003937007874
  0
VERTEX
  8
LAYER_1
 62
     1
 10
-8.008937007874016
 20
2.942114173228346
  0
VERTEX
  8
LAYER_1
 62
     1
 10
-8.171051181102362
 20
2.892555118110236
  0
VERTEX
  8
LAYER_1
 62
     1
 10
-8.344948818897638
 20
2.875783464566929
  0
SEQEND
  8
LAYER_1
 62
     1
  0
POLYLINE
  8
LAYER_1
 62
     1
 66
     1
 70
     1
  0
VERTEX
  8
LAYER_1
 62
     1
 10
-10.25038188976378
 20
1.746488188976378
  0
VERTEX
  8
LAYER_1
 62
     1
 10
-10.3511062992126
 20
1.75707874015748
  0
VERTEX
  8
LAYER_1
 62
     1
 10
-10.44483464566929
 20
1.78661811023622
  0
VERTEX
  8
LAYER_1
 62
     1
 10
-10.52956692913386
 20
1.833082677165354
  0
VERTEX
  8
LAYER_1
 62
     1
 10
-10.6033031496063
 20
1.894456692913386
  0
VERTEX
  8
LAYER_1
 62
     1
 10
-10.66403543307087
 20
1.968716535433071
  0
VERTEX
  8
LAYER_1
 62
     1
 10
-10.70977165354331
 20
2.053850393700787
  0
VERTEX
  8
LAYER_1
 62
     1
 10
-10.7385
 20
2.147826771653544
  0
VERTEX
  8
LAYER_1
 62
     1
 10
-10.74822440944882
 20
2.248637795275591
  0
VERTEX
  8
LAYER_1
 62
     1
 10
-10.73762992125984
 20
2.34936220472441
  0
VERTEX
  8
LAYER_1
 62
     1
 10
-10.7080905511811
 20
2.443090551181102
  0
VERTEX
  8
LAYER_1
 62
     1
 10
-10.66162598425197
 20
2.527822834645669
  0
VERTEX
  8
LAYER_1
 62
     1
 10
-10.60025196850394
 20
2.60155905511811
  0
VERTEX
  8
LAYER_1
 62
     1
 10
-10.52599212598425
 20
2.662291338582677
  0
VERTEX
  8
LAYER_1
 62
     1
 10
-10.44086220472441
 20
2.708027559055118
  0
VERTEX
  8
LAYER_1
 62
     1
 10
-10.34688188976378
 20
2.736755905511811
  0
VERTEX
  8
LAYER_1
 62
     1
 10
-10.24607086614173
 20
2.74648031496063
  0
VERTEX
  8
LAYER_1
 62
     1
 10
-10.14535039370079
 20
2.735885826771653
  0
VERTEX
  8
LAYER_1
 62
     1
 10
-10.05162204724409
 20
2.706346456692913
  0
VERTEX
  8
LAYER_1
 62
     1
 10
-9.966889763779527
 20
2.659881889763779
  0
VERTEX
  8
LAYER_1
 62
     1
 10
-9.893153543307086
 20
2.598507874015748
  0
VERTEX
  8
LAYER_1
 62
     1
 10
-9.832417322834646
 20
2.524248031496063
  0
VERTEX
  8
LAYER_1
 62
     1
 10
-9.786685039370079
 20
2.43911811023622
  0
VERTEX
  8
LAYER_1
 62
     1
 10
-9.757956692913385
 20
2.345137795275591
  0
VERTEX
  8
LAYER_1
 62
     1
 10
-9.748232283464567
 20
2.244326771653543
  0
VERTEX
  8
LAYER_1
 62
     1
 10
-9.758822834645668
 20
2.143602362204724
  0
VERTEX
  8
LAYER_1
 62
     1
 10
-9.78836220472441
 20
2.049874015748031
  0
VERTEX
  8
LAYER_1
 62
     1
 10
-9.834826771653542
 20
1.965141732283465
  0
VERTEX
  8
LAYER_1
 62
     1
 10
-9.896200787401575
 20
1.891405511811024
  0
VERTEX
  8
LAYER_1
 62
     1
 10
-9.97046062992126
 20
1.830673228346457
  0
VERTEX
  8
LAYER_1
 62
     1
 10
-10.05559448818898
 20
1.78494094488189
  0
VERTEX
  8
LAYER_1
 62
     1
 10
-10.14957086614173
 20
1.756212598425197
  0
VERTEX
  8
LAYER_1
 62
     1
 10
-10.25038188976378
 20
1.746488188976378
  0
SEQEND
  8
LAYER_1
 62
     1
  0
POLYLINE
  8
LAYER_1
 62
     1
 66
     1
 70
     1
  0
VERTEX
  8
LAYER_1
 62
     1
 10
-10.23744881889764
 20
4.74646062992126
  0
VERTEX
  8
LAYER_1
 62
     1
 10
-10.33816929133858
 20
4.757051181102362
  0
VERTEX
  8
LAYER_1
 62
     1
 10
-10.43189763779528
 20
4.786590551181102
  0
VERTEX
  8
LAYER_1
 62
     1
 10
-10.51662992125984
 20
4.833055118110236
  0
VERTEX
  8
LAYER_1
 62
     1
 10
-10.59036614173228
 20
4.894429133858267
  0
VERTEX
  8
LAYER_1
 62
     1
 10
-10.65110236220472
 20
4.968688976377953
  0
VERTEX
  8
LAYER_1
 62
     1
 10
-10.69683464566929
 20
5.053822834645669
  0
VERTEX
  8
LAYER_1
 62
     1
 10
-10.72556299212598
 20
5.147799212598425
  0
VERTEX
  8
LAYER_1
 62
     1
 10
-10.7352874015748
 20
5.248610236220473
  0
VERTEX
  8
LAYER_1
 62
     1
 10
-10.72469291338583
 20
5.349334645669291
  0
VERTEX
  8
LAYER_1
 62
     1
 10
-10.69515354330709
 20
5.443062992125984
  0
VERTEX
  8
LAYER_1
 62
     1
 10
-10.64868897637795
 20
5.527795275590552
  0
VERTEX
  8
LAYER_1
 62
     1
 10
-10.58731496062992
 20
5.601531496062992
  0
VERTEX
  8
LAYER_1
 62
     1
 10
-10.51305511811024
 20
5.662263779527559
  0
VERTEX
  8
LAYER_1
 62
     1
 10
-10.42792519685039
 20
5.707996062992126
  0
VERTEX
  8
LAYER_1
 62
     1
 10
-10.33394488188976
 20
5.736724409448819
  0
VERTEX
  8
LAYER_1
 62
     1
 10
-10.23313385826772
 20
5.746448818897638
  0
VERTEX
  8
LAYER_1
 62
     1
 10
-10.13241338582677
 20
5.735858267716536
  0
VERTEX
  8
LAYER_1
 62
     1
 10
-10.03868503937008
 20
5.706318897637796
  0
VERTEX
  8
LAYER_1
 62
     1
 10
-9.953952755905512
 20
5.659854330708662
  0
VERTEX
  8
LAYER_1
 62
     1
 10
-9.880216535433071
 20
5.598480314960629
  0
VERTEX
  8
LAYER_1
 62
     1
 10
-9.81948031496063
 20
5.524220472440945
  0
VERTEX
  8
LAYER_1
 62
     1
 10
-9.773748031496064
 20
5.439090551181103
  0
VERTEX
  8
LAYER_1
 62
     1
 10
-9.74501968503937
 20
5.345110236220473
  0
VERTEX
  8
LAYER_1
 62
     1
 10
-9.735295275590552
 20
5.244299212598425
  0
VERTEX
  8
LAYER_1
 62
     1
 10
-9.745889763779527
 20
5.143574803149606
  0
VERTEX
  8
LAYER_1
 62
     1
 10
-9.775429133858268
 20
5.049846456692913
  0
VERTEX
  8
LAYER_1
 62
     1
 10
-9.8218937007874
 20
4.965114173228346
  0
VERTEX
  8
LAYER_1
 62
     1
 10
-9.883267716535434
 20
4.891377952755906
  0
VERTEX
  8
LAYER_1
 62
     1
 10
-9.957527559055118
 20
4.830645669291338
  0
VERTEX
  8
LAYER_1
 62
     1
 10
-10.04266141732283
 20
4.784913385826772
  0
VERTEX
  8
LAYER_1
 62
     1
 10
-10.13663779527559
 20
4.756185039370079
  0
VERTEX
  8
LAYER_1
 62
     1
 10
-10.23744881889764
 20
4.74646062992126
  0
SEQEND
  8
LAYER_1
 62
     1
  0
POLYLINE
  8
LAYER_1
 66
     1
 70
     1
  0
VERTEX
  8
LAYER_1
 10
-10.24846456692913
 20
2.191484251968504
  0
VERTEX
  8
LAYER_1
 10
-10.25954330708661
 20
2.192649606299212
  0
VERTEX
  8
LAYER_1
 10
-10.26985433070866
 20
2.195897637795276
  0
VERTEX
  8
LAYER_1
 10
-10.27917322834646
 20
2.201007874015748
  0
VERTEX
  8
LAYER_1
 10
-10.2872874015748
 20
2.207759842519685
  0
VERTEX
  8
LAYER_1
 10
-10.29396850393701
 20
2.215929133858268
  0
VERTEX
  8
LAYER_1
 10
-10.29899606299213
 20
2.225295275590551
  0
VERTEX
  8
LAYER_1
 10
-10.30215748031496
 20
2.235629921259843
  0
VERTEX
  8
LAYER_1
 10
-10.30322834645669
 20
2.246720472440945
  0
VERTEX
  8
LAYER_1
 10
-10.30206299212598
 20
2.257799212598425
  0
VERTEX
  8
LAYER_1
 10
-10.29881102362205
 20
2.268110236220473
  0
VERTEX
  8
LAYER_1
 10
-10.29370078740157
 20
2.277429133858268
  0
VERTEX
  8
LAYER_1
 10
-10.28694881889764
 20
2.285543307086614
  0
VERTEX
  8
LAYER_1
 10
-10.27878346456693
 20
2.292224409448819
  0
VERTEX
  8
LAYER_1
 10
-10.26941732283465
 20
2.297251968503937
  0
VERTEX
  8
LAYER_1
 10
-10.25908267716535
 20
2.300413385826772
  0
VERTEX
  8
LAYER_1
 10
-10.24799212598425
 20
2.301484251968504
  0
VERTEX
  8
LAYER_1
 10
-10.23691338582677
 20
2.300318897637795
  0
VERTEX
  8
LAYER_1
 10
-10.22660236220472
 20
2.297066929133858
  0
VERTEX
  8
LAYER_1
 10
-10.21727952755906
 20
2.291956692913386
  0
VERTEX
  8
LAYER_1
 10
-10.20916929133858
 20
2.285204724409449
  0
VERTEX
  8
LAYER_1
 10
-10.20248818897638
 20
2.277035433070866
  0
VERTEX
  8
LAYER_1
 10
-10.19745669291339
 20
2.267673228346457
  0
VERTEX
  8
LAYER_1
 10
-10.19429921259843
 20
2.257334645669292
  0
VERTEX
  8
LAYER_1
 10
-10.19322834645669
 20
2.246244094488189
  0
VERTEX
  8
LAYER_1
 10
-10.1943937007874
 20
2.235165354330709
  0
VERTEX
  8
LAYER_1
 10
-10.19764173228346
 20
2.224854330708661
  0
VERTEX
  8
LAYER_1
 10
-10.20275196850394
 20
2.215535433070866
  0
VERTEX
  8
LAYER_1
 10
-10.20950393700787
 20
2.207425196850394
  0
VERTEX
  8
LAYER_1
 10
-10.21767322834646
 20
2.200744094488189
  0
VERTEX
  8
LAYER_1
 10
-10.22703937007874
 20
2.195712598425197
  0
VERTEX
  8
LAYER_1
 10
-10.23737401574803
 20
2.192555118110236
  0
VERTEX
  8
LAYER_1
 10
-10.24846456692913
 20
2.191484251968504
  0
SEQEND
  8
LAYER_1
  0
POLYLINE
  8
LAYER_1
 66
     1
 70
     1
  0
VERTEX
  8
LAYER_1
 10
-10.23552755905512
 20
5.191456692913386
  0
VERTEX
  8
LAYER_1
 10
-10.2466062992126
 20
5.192622047244095
  0
VERTEX
  8
LAYER_1
 10
-10.25691732283465
 20
5.195870078740158
  0
VERTEX
  8
LAYER_1
 10
-10.26624015748031
 20
5.20098031496063
  0
VERTEX
  8
LAYER_1
 10
-10.27435039370079
 20
5.207732283464567
  0
VERTEX
  8
LAYER_1
 10
-10.28103149606299
 20
5.21590157480315
  0
VERTEX
  8
LAYER_1
 10
-10.28606299212598
 20
5.225263779527559
  0
VERTEX
  8
LAYER_1
 10
-10.28922047244095
 20
5.235602362204724
  0
VERTEX
  8
LAYER_1
 10
-10.29029133858268
 20
5.246692913385827
  0
VERTEX
  8
LAYER_1
 10
-10.28912598425197
 20
5.257771653543307
  0
VERTEX
  8
LAYER_1
 10
-10.28587795275591
 20
5.268082677165355
  0
VERTEX
  8
LAYER_1
 10
-10.28076771653543
 20
5.277401574803149
  0
VERTEX
  8
LAYER_1
 10
-10.2740157480315
 20
5.285511811023622
  0
VERTEX
  8
LAYER_1
 10
-10.26584645669291
 20
5.292192913385827
  0
VERTEX
  8
LAYER_1
 10
-10.25648031496063
 20
5.297224409448819
  0
VERTEX
  8
LAYER_1
 10
-10.24614566929134
 20
5.300385826771653
  0
VERTEX
  8
LAYER_1
 10
-10.23505511811024
 20
5.301452755905512
  0
VERTEX
  8
LAYER_1
 10
-10.22397637795276
 20
5.300287401574803
  0
VERTEX
  8
LAYER_1
 10
-10.21366535433071
 20
5.29703937007874
  0
VERTEX
  8
LAYER_1
 10
-10.20434645669291
 20
5.291929133858268
  0
VERTEX
  8
LAYER_1
 10
-10.19623622047244
 20
5.285177165354331
  0
VERTEX
  8
LAYER_1
 10
-10.18955118110236
 20
5.277007874015748
  0
VERTEX
  8
LAYER_1
 10
-10.18452362204724
 20
5.267645669291339
  0
VERTEX
  8
LAYER_1
 10
-10.18136220472441
 20
5.257307086614174
  0
VERTEX
  8
LAYER_1
 10
-10.18029133858268
 20
5.246216535433071
  0
VERTEX
  8
LAYER_1
 10
-10.18145669291339
 20
5.23513779527559
  0
VERTEX
  8
LAYER_1
 10
-10.18470472440945
 20
5.224826771653543
  0
VERTEX
  8
LAYER_1
 10
-10.18981496062992
 20
5.215507874015748
  0
VERTEX
  8
LAYER_1
 10
-10.19656692913386
 20
5.207397637795276
  0
VERTEX
  8
LAYER_1
 10
-10.20473622047244
 20
5.200716535433071
  0
VERTEX
  8
LAYER_1
 10
-10.21410236220472
 20
5.195685039370079
  0
VERTEX
  8
LAYER_1
 10
-10.22443700787402
 20
5.192523622047244
  0
VERTEX
  8
LAYER_1
 10
-10.23552755905512
 20
5.191456692913386
  0
SEQEND
  8
LAYER_1
  0
POLYLINE
  8
LAYER_1
 62
     1
 66
     1
 70
     1
  0
VERTEX
  8
LAYER_1
 62
     1
 10
-11.01207874015748
 20
3.249787401574803
  0
VERTEX
  8
LAYER_1
 62
     1
 10
-11.11279921259842
 20
3.260377952755905
  0
VERTEX
  8
LAYER_1
 62
     1
 10
-11.20652755905512
 20
3.289917322834646
  0
VERTEX
  8
LAYER_1
 62
     1
 10
-11.29125984251968
 20
3.336381889763779
  0
VERTEX
  8
LAYER_1
 62
     1
 10
-11.36499606299213
 20
3.397755905511811
  0
VERTEX
  8
LAYER_1
 62
     1
 10
-11.42573228346457
 20
3.472015748031496
  0
VERTEX
  8
LAYER_1
 62
     1
 10
-11.47146456692913
 20
3.557145669291339
  0
VERTEX
  8
LAYER_1
 62
     1
 10
-11.50019291338583
 20
3.651125984251968
  0
VERTEX
  8
LAYER_1
 62
     1
 10
-11.50991732283465
 20
3.751937007874016
  0
VERTEX
  8
LAYER_1
 62
     1
 10
-11.49932677165354
 20
3.852661417322835
  0
VERTEX
  8
LAYER_1
 62
     1
 10
-11.4697874015748
 20
3.946389763779528
  0
VERTEX
  8
LAYER_1
 62
     1
 10
-11.42332283464567
 20
4.031122047244095
  0
VERTEX
  8
LAYER_1
 62
     1
 10
-11.36194881889764
 20
4.104858267716535
  0
VERTEX
  8
LAYER_1
 62
     1
 10
-11.28768897637795
 20
4.165590551181102
  0
VERTEX
  8
LAYER_1
 62
     1
 10
-11.20255511811024
 20
4.211322834645669
  0
VERTEX
  8
LAYER_1
 62
     1
 10
-11.10857874015748
 20
4.240051181102362
  0
VERTEX
  8
LAYER_1
 62
     1
 10
-11.00776771653543
 20
4.249775590551181
  0
VERTEX
  8
LAYER_1
 62
     1
 10
-10.90704330708661
 20
4.239185039370079
  0
VERTEX
  8
LAYER_1
 62
     1
 10
-10.81331496062992
 20
4.209645669291339
  0
VERTEX
  8
LAYER_1
 62
     1
 10
-10.72858267716535
 20
4.163181102362205
  0
VERTEX
  8
LAYER_1
 62
     1
 10
-10.65484645669291
 20
4.101807086614174
  0
VERTEX
  8
LAYER_1
 62
     1
 10
-10.59411417322835
 20
4.027547244094488
  0
VERTEX
  8
LAYER_1
 62
     1
 10
-10.5483779527559
 20
3.942417322834646
  0
VERTEX
  8
LAYER_1
 62
     1
 10
-10.51964960629921
 20
3.848437007874016
  0
VERTEX
  8
LAYER_1
 62
     1
 10
-10.50992519685039
 20
3.747625984251969
  0
VERTEX
  8
LAYER_1
 62
     1
 10
-10.52051968503937
 20
3.64690157480315
  0
VERTEX
  8
LAYER_1
 62
     1
 10
-10.55005905511811
 20
3.553173228346457
  0
VERTEX
  8
LAYER_1
 62
     1
 10
-10.59652362204724
 20
3.46844094488189
  0
VERTEX
  8
LAYER_1
 62
     1
 10
-10.65789763779528
 20
3.394704724409449
  0
VERTEX
  8
LAYER_1
 62
     1
 10
-10.73215748031496
 20
3.333972440944882
  0
VERTEX
  8
LAYER_1
 62
     1
 10
-10.81729133858268
 20
3.288240157480315
  0
VERTEX
  8
LAYER_1
 62
     1
 10
-10.91126771653543
 20
3.259511811023622
  0
VERTEX
  8
LAYER_1
 62
     1
 10
-11.01207874015748
 20
3.249787401574803
  0
SEQEND
  8
LAYER_1
 62
     1
  0
POLYLINE
  8
LAYER_1
 66
     1
 70
     1
  0
VERTEX
  8
LAYER_1
 10
-11.01015748031496
 20
3.694783464566929
  0
VERTEX
  8
LAYER_1
 10
-11.02123622047244
 20
3.695948818897638
  0
VERTEX
  8
LAYER_1
 10
-11.03154724409449
 20
3.699196850393701
  0
VERTEX
  8
LAYER_1
 10
-11.04087007874016
 20
3.704307086614173
  0
VERTEX
  8
LAYER_1
 10
-11.04898031496063
 20
3.71105905511811
  0
VERTEX
  8
LAYER_1
 10
-11.05566141732283
 20
3.719228346456693
  0
VERTEX
  8
LAYER_1
 10
-11.06069291338583
 20
3.728590551181102
  0
VERTEX
  8
LAYER_1
 10
-11.06385039370079
 20
3.738929133858268
  0
VERTEX
  8
LAYER_1
 10
-11.06492125984252
 20
3.75001968503937
  0
VERTEX
  8
LAYER_1
 10
-11.06375590551181
 20
3.76109842519685
  0
VERTEX
  8
LAYER_1
 10
-11.06050787401575
 20
3.771409448818898
  0
VERTEX
  8
LAYER_1
 10
-11.05539763779528
 20
3.780728346456693
  0
VERTEX
  8
LAYER_1
 10
-11.04864566929134
 20
3.788838582677165
  0
VERTEX
  8
LAYER_1
 10
-11.04047637795276
 20
3.79551968503937
  0
VERTEX
  8
LAYER_1
 10
-11.03111023622047
 20
3.800551181102362
  0
VERTEX
  8
LAYER_1
 10
-11.02077559055118
 20
3.803712598425197
  0
VERTEX
  8
LAYER_1
 10
-11.00968503937008
 20
3.804779527559055
  0
VERTEX
  8
LAYER_1
 10
-10.9986062992126
 20
3.803614173228346
  0
VERTEX
  8
LAYER_1
 10
-10.98829527559055
 20
3.800366141732284
  0
VERTEX
  8
LAYER_1
 10
-10.97897637795276
 20
3.795255905511811
  0
VERTEX
  8
LAYER_1
 10
-10.97086614173228
 20
3.788503937007874
  0
VERTEX
  8
LAYER_1
 10
-10.9641811023622
 20
3.780334645669291
  0
VERTEX
  8
LAYER_1
 10
-10.95915354330709
 20
3.770972440944882
  0
VERTEX
  8
LAYER_1
 10
-10.95599212598425
 20
3.760633858267716
  0
VERTEX
  8
LAYER_1
 10
-10.95492125984252
 20
3.749543307086614
  0
VERTEX
  8
LAYER_1
 10
-10.95608661417323
 20
3.738464566929134
  0
VERTEX
  8
LAYER_1
 10
-10.95933858267717
 20
3.728153543307087
  0
VERTEX
  8
LAYER_1
 10
-10.96444881889764
 20
3.718834645669291
  0
VERTEX
  8
LAYER_1
 10
-10.97120078740157
 20
3.710724409448819
  0
VERTEX
  8
LAYER_1
 10
-10.97936614173228
 20
3.704043307086614
  0
VERTEX
  8
LAYER_1
 10
-10.98873228346457
 20
3.699011811023622
  0
VERTEX
  8
LAYER_1
 10
-10.99906692913386
 20
3.695850393700788
  0
VERTEX
  8
LAYER_1
 10
-11.01015748031496
 20
3.694783464566929
  0
SEQEND
  8
LAYER_1
  0
POLYLINE
  8
LAYER_1
 62
     1
 66
     1
 70
     1
  0
VERTEX
  8
LAYER_1
 62
     1
 10
-10.24988582677165
 20
1.862236220472441
  0
VERTEX
  8
LAYER_1
 62
     1
 10
-10.32729133858268
 20
1.870377952755905
  0
VERTEX
  8
LAYER_1
 62
     1
 10
-10.39932283464567
 20
1.89307874015748
  0
VERTEX
  8
LAYER_1
 62
     1
 10
-10.46443700787402
 20
1.928787401574803
  0
VERTEX
  8
LAYER_1
 62
     1
 10
-10.52110236220472
 20
1.975952755905512
  0
VERTEX
  8
LAYER_1
 62
     1
 10
-10.56777559055118
 20
2.03301968503937
  0
VERTEX
  8
LAYER_1
 62
     1
 10
-10.60292125984252
 20
2.098444881889764
  0
VERTEX
  8
LAYER_1
 62
     1
 10
-10.625
 20
2.170669291338583
  0
VERTEX
  8
LAYER_1
 62
     1
 10
-10.63247244094488
 20
2.248141732283464
  0
VERTEX
  8
LAYER_1
 62
     1
 10
-10.62433070866142
 20
2.325547244094488
  0
VERTEX
  8
LAYER_1
 62
     1
 10
-10.60163385826772
 20
2.39757874015748
  0
VERTEX
  8
LAYER_1
 62
     1
 10
-10.56592519685039
 20
2.462692913385827
  0
VERTEX
  8
LAYER_1
 62
     1
 10
-10.51875984251969
 20
2.519358267716536
  0
VERTEX
  8
LAYER_1
 62
     1
 10
-10.46168897637795
 20
2.566031496062992
  0
VERTEX
  8
LAYER_1
 62
     1
 10
-10.39626771653543
 20
2.601177165354331
  0
VERTEX
  8
LAYER_1
 62
     1
 10
-10.32404330708661
 20
2.623255905511811
  0
VERTEX
  8
LAYER_1
 62
     1
 10
-10.24657086614173
 20
2.630728346456693
  0
VERTEX
  8
LAYER_1
 62
     1
 10
-10.16916535433071
 20
2.622586614173228
  0
VERTEX
  8
LAYER_1
 62
     1
 10
-10.09713385826772
 20
2.599889763779528
  0
VERTEX
  8
LAYER_1
 62
     1
 10
-10.03201968503937
 20
2.564181102362205
  0
VERTEX
  8
LAYER_1
 62
     1
 10
-9.975354330708662
 20
2.517015748031496
  0
VERTEX
  8
LAYER_1
 62
     1
 10
-9.928677165354332
 20
2.459944881889764
  0
VERTEX
  8
LAYER_1
 62
     1
 10
-9.893531496062993
 20
2.394523622047244
  0
VERTEX
  8
LAYER_1
 62
     1
 10
-9.871452755905512
 20
2.322299212598425
  0
VERTEX
  8
LAYER_1
 62
     1
 10
-9.86398031496063
 20
2.244826771653543
  0
VERTEX
  8
LAYER_1
 62
     1
 10
-9.872122047244094
 20
2.16742125984252
  0
VERTEX
  8
LAYER_1
 62
     1
 10
-9.89482283464567
 20
2.095389763779528
  0
VERTEX
  8
LAYER_1
 62
     1
 10
-9.930531496062992
 20
2.030275590551181
  0
VERTEX
  8
LAYER_1
 62
     1
 10
-9.9776968503937
 20
1.973610236220472
  0
VERTEX
  8
LAYER_1
 62
     1
 10
-10.03476771653543
 20
1.926933070866142
  0
VERTEX
  8
LAYER_1
 62
     1
 10
-10.10018897637795
 20
1.891787401574803
  0
VERTEX
  8
LAYER_1
 62
     1
 10
-10.17241338582677
 20
1.869708661417323
  0
VERTEX
  8
LAYER_1
 62
     1
 10
-10.24988582677165
 20
1.862236220472441
  0
SEQEND
  8
LAYER_1
 62
     1
  0
POLYLINE
  8
LAYER_1
 62
     1
 66
     1
 70
     1
  0
VERTEX
  8
LAYER_1
 62
     1
 10
-11.01157874015748
 20
3.365535433070866
  0
VERTEX
  8
LAYER_1
 62
     1
 10
-11.0889842519685
 20
3.37367716535433
  0
VERTEX
  8
LAYER_1
 62
     1
 10
-11.1610157480315
 20
3.396374015748032
  0
VERTEX
  8
LAYER_1
 62
     1
 10
-11.22612992125984
 20
3.432082677165354
  0
VERTEX
  8
LAYER_1
 62
     1
 10
-11.28279527559055
 20
3.479248031496063
  0
VERTEX
  8
LAYER_1
 62
     1
 10
-11.32947244094488
 20
3.536318897637795
  0
VERTEX
  8
LAYER_1
 62
     1
 10
-11.36461811023622
 20
3.601740157480315
  0
VERTEX
  8
LAYER_1
 62
     1
 10
-11.3866968503937
 20
3.673964566929134
  0
VERTEX
  8
LAYER_1
 62
     1
 10
-11.39416929133858
 20
3.751437007874016
  0
VERTEX
  8
LAYER_1
 62
     1
 10
-11.38602755905512
 20
3.828842519685039
  0
VERTEX
  8
LAYER_1
 62
     1
 10
-11.36332677165354
 20
3.900874015748031
  0
VERTEX
  8
LAYER_1
 62
     1
 10
-11.32761811023622
 20
3.965992125984252
  0
VERTEX
  8
LAYER_1
 62
     1
 10
-11.28045275590551
 20
4.022657480314961
  0
VERTEX
  8
LAYER_1
 62
     1
 10
-11.22338188976378
 20
4.069330708661417
  0
VERTEX
  8
LAYER_1
 62
     1
 10
-11.15796062992126
 20
4.104476377952756
  0
VERTEX
  8
LAYER_1
 62
     1
 10
-11.08573622047244
 20
4.126555118110236
  0
VERTEX
  8
LAYER_1
 62
     1
 10
-11.00826377952756
 20
4.134027559055118
  0
VERTEX
  8
LAYER_1
 62
     1
 10
-10.93085826771654
 20
4.125885826771653
  0
VERTEX
  8
LAYER_1
 62
     1
 10
-10.85882677165354
 20
4.103188976377953
  0
VERTEX
  8
LAYER_1
 62
     1
 10
-10.7937125984252
 20
4.06748031496063
  0
VERTEX
  8
LAYER_1
 62
     1
 10
-10.73704724409449
 20
4.020314960629921
  0
VERTEX
  8
LAYER_1
 62
     1
 10
-10.69037401574803
 20
3.963244094488189
  0
VERTEX
  8
LAYER_1
 62
     1
 10
-10.65522834645669
 20
3.897822834645669
  0
VERTEX
  8
LAYER_1
 62
     1
 10
-10.63314960629921
 20
3.82559842519685
  0
VERTEX
  8
LAYER_1
 62
     1
 10
-10.62567716535433
 20
3.748125984251968
  0
VERTEX
  8
LAYER_1
 62
     1
 10
-10.63381889763779
 20
3.670720472440945
  0
VERTEX
  8
LAYER_1
 62
     1
 10
-10.6565157480315
 20
3.598688976377953
  0
VERTEX
  8
LAYER_1
 62
     1
 10
-10.69222440944882
 20
3.533570866141732
  0
VERTEX
  8
LAYER_1
 62
     1
 10
-10.73938976377953
 20
3.476905511811024
  0
VERTEX
  8
LAYER_1
 62
     1
 10
-10.79646062992126
 20
3.430232283464567
  0
VERTEX
  8
LAYER_1
 62
     1
 10
-10.86188188976378
 20
3.395086614173228
  0
VERTEX
  8
LAYER_1
 62
     1
 10
-10.9341062992126
 20
3.373007874015748
  0
VERTEX
  8
LAYER_1
 62
     1
 10
-11.01157874015748
 20
3.365535433070866
  0
SEQEND
  8
LAYER_1
 62
     1
  0
POLYLINE
  8
LAYER_1
 62
     1
 66
     1
 70
     1
  0
VERTEX
  8
LAYER_1
 62
     1
 10
-6.974385826771654
 20
1.61457874015748
  0
VERTEX
  8
LAYER_1
 62
     1
 10
-7.117413385826771
 20
1.62961811023622
  0
VERTEX
  8
LAYER_1
 62
     1
 10
-7.250507874015748
 20
1.671562992125984
  0
VERTEX
  8
LAYER_1
 62
     1
 10
-7.370826771653543
 20
1.737543307086614
  0
VERTEX
  8
LAYER_1
 62
     1
 10
-7.475531496062992
 20
1.824692913385827
  0
VERTEX
  8
LAYER_1
 62
     1
 10
-7.561771653543307
 20
1.930145669291339
  0
VERTEX
  8
LAYER_1
 62
     1
 10
-7.626716535433071
 20
2.051027559055118
  0
VERTEX
  8
LAYER_1
 62
     1
 10
-7.667511811023622
 20
2.18448031496063
  0
VERTEX
  8
LAYER_1
 62
     1
 10
-7.681318897637795
 20
2.327629921259843
  0
VERTEX
  8
LAYER_1
 62
     1
 10
-7.666275590551181
 20
2.470657480314961
  0
VERTEX
  8
LAYER_1
 62
     1
 10
-7.624330708661417
 20
2.603751968503937
  0
VERTEX
  8
LAYER_1
 62
     1
 10
-7.558350393700787
 20
2.724074803149606
  0
VERTEX
  8
LAYER_1
 62
     1
 10
-7.471200787401575
 20
2.828775590551181
  0
VERTEX
  8
LAYER_1
 62
     1
 10
-7.365751968503937
 20
2.91501968503937
  0
VERTEX
  8
LAYER_1
 62
     1
 10
-7.244866141732284
 20
2.97996062992126
  0
VERTEX
  8
LAYER_1
 62
     1
 10
-7.111413385826772
 20
3.020755905511811
  0
VERTEX
  8
LAYER_1
 62
     1
 10
-6.968263779527559
 20
3.034562992125984
  0
VERTEX
  8
LAYER_1
 62
     1
 10
-6.825236220472441
 20
3.019523622047244
  0
VERTEX
  8
LAYER_1
 62
     1
 10
-6.692141732283464
 20
2.97757874015748
  0
VERTEX
  8
LAYER_1
 62
     1
 10
-6.571822834645669
 20
2.91159842519685
  0
VERTEX
  8
LAYER_1
 62
     1
 10
-6.46711811023622
 20
2.824448818897638
  0
VERTEX
  8
LAYER_1
 62
     1
 10
-6.380877952755905
 20
2.718996062992126
  0
VERTEX
  8
LAYER_1
 62
     1
 10
-6.315933070866142
 20
2.598110236220473
  0
VERTEX
  8
LAYER_1
 62
     1
 10
-6.27513779527559
 20
2.464661417322835
  0
VERTEX
  8
LAYER_1
 62
     1
 10
-6.261330708661418
 20
2.321507874015748
  0
VERTEX
  8
LAYER_1
 62
     1
 10
-6.276374015748032
 20
2.17848031496063
  0
VERTEX
  8
LAYER_1
 62
     1
 10
-6.318318897637795
 20
2.045385826771653
  0
VERTEX
  8
LAYER_1
 62
     1
 10
-6.384299212598425
 20
1.925066929133858
  0
VERTEX
  8
LAYER_1
 62
     1
 10
-6.471448818897638
 20
1.820366141732283
  0
VERTEX
  8
LAYER_1
 62
     1
 10
-6.576897637795276
 20
1.734122047244095
  0
VERTEX
  8
LAYER_1
 62
     1
 10
-6.697783464566929
 20
1.669181102362205
  0
VERTEX
  8
LAYER_1
 62
     1
 10
-6.831236220472441
 20
1.628385826771654
  0
VERTEX
  8
LAYER_1
 62
     1
 10
-6.974385826771654
 20
1.61457874015748
  0
SEQEND
  8
LAYER_1
 62
     1
  0
POLYLINE
  8
LAYER_1
 66
     1
 70
     1
  0
VERTEX
  8
LAYER_1
 10
-6.972003937007874
 20
2.167090551181102
  0
VERTEX
  8
LAYER_1
 10
-7.003728346456693
 20
2.170425196850394
  0
VERTEX
  8
LAYER_1
 10
-7.033248031496063
 20
2.179728346456693
  0
VERTEX
  8
LAYER_1
 10
-7.059937007874016
 20
2.194366141732283
  0
VERTEX
  8
LAYER_1
 10
-7.083157480314961
 20
2.213696850393701
  0
VERTEX
  8
LAYER_1
 10
-7.102287401574803
 20
2.237082677165354
  0
VERTEX
  8
LAYER_1
 10
-7.116692913385827
 20
2.263897637795276
  0
VERTEX
  8
LAYER_1
 10
-7.125740157480315
 20
2.293496062992126
  0
VERTEX
  8
LAYER_1
 10
-7.128803149606299
 20
2.325248031496063
  0
VERTEX
  8
LAYER_1
 10
-7.125468503937008
 20
2.356972440944882
  0
VERTEX
  8
LAYER_1
 10
-7.116165354330708
 20
2.386492125984252
  0
VERTEX
  8
LAYER_1
 10
-7.101527559055118
 20
2.413181102362205
  0
VERTEX
  8
LAYER_1
 10
-7.082200787401574
 20
2.436405511811023
  0
VERTEX
  8
LAYER_1
 10
-7.058811023622047
 20
2.455531496062992
  0
VERTEX
  8
LAYER_1
 10
-7.031996062992126
 20
2.469937007874016
  0
VERTEX
  8
LAYER_1
 10
-7.002397637795275
 20
2.478984251968504
  0
VERTEX
  8
LAYER_1
 10
-6.970645669291339
 20
2.482047244094488
  0
VERTEX
  8
LAYER_1
 10
-6.93892125984252
 20
2.478712598425197
  0
VERTEX
  8
LAYER_1
 10
-6.90940157480315
 20
2.469409448818898
  0
VERTEX
  8
LAYER_1
 10
-6.882712598425197
 20
2.454771653543307
  0
VERTEX
  8
LAYER_1
 10
-6.859492125984252
 20
2.435444881889764
  0
VERTEX
  8
LAYER_1
 10
-6.84036220472441
 20
2.412055118110236
  0
VERTEX
  8
LAYER_1
 10
-6.825956692913386
 20
2.385240157480315
  0
VERTEX
  8
LAYER_1
 10
-6.816909448818897
 20
2.355641732283464
  0
VERTEX
  8
LAYER_1
 10
-6.813846456692914
 20
2.323889763779527
  0
VERTEX
  8
LAYER_1
 10
-6.817181102362205
 20
2.292165354330709
  0
VERTEX
  8
LAYER_1
 10
-6.826484251968504
 20
2.262645669291338
  0
VERTEX
  8
LAYER_1
 10
-6.841122047244094
 20
2.235956692913386
  0
VERTEX
  8
LAYER_1
 10
-6.860452755905512
 20
2.212736220472441
  0
VERTEX
  8
LAYER_1
 10
-6.883838582677165
 20
2.193606299212599
  0
VERTEX
  8
LAYER_1
 10
-6.910653543307086
 20
2.179200787401575
  0
VERTEX
  8
LAYER_1
 10
-6.940251968503937
 20
2.170153543307086
  0
VERTEX
  8
LAYER_1
 10
-6.972003937007874
 20
2.167090551181102
  0
SEQEND
  8
LAYER_1
  0
POLYLINE
  8
LAYER_1
 66
     1
 70
     1
  0
VERTEX
  8
LAYER_1
 10
-7.404814960629921
 20
2.228011811023622
  0
VERTEX
  8
LAYER_1
 10
-7.424641732283464
 20
2.230098425196851
  0
VERTEX
  8
LAYER_1
 10
-7.443094488188977
 20
2.235913385826771
  0
VERTEX
  8
LAYER_1
 10
-7.459771653543307
 20
2.24505905511811
  0
VERTEX
  8
LAYER_1
 10
-7.474287401574803
 20
2.257141732283464
  0
VERTEX
  8
LAYER_1
 10
-7.486244094488189
 20
2.271759842519685
  0
VERTEX
  8
LAYER_1
 10
-7.495248031496063
 20
2.288515748031496
  0
VERTEX
  8
LAYER_1
 10
-7.50090157480315
 20
2.307015748031496
  0
VERTEX
  8
LAYER_1
 10
-7.502814960629921
 20
2.32686220472441
  0
VERTEX
  8
LAYER_1
 10
-7.500732283464567
 20
2.346688976377953
  0
VERTEX
  8
LAYER_1
 10
-7.494917322834645
 20
2.365141732283464
  0
VERTEX
  8
LAYER_1
 10
-7.485771653543307
 20
2.381818897637795
  0
VERTEX
  8
LAYER_1
 10
-7.473688976377953
 20
2.396334645669291
  0
VERTEX
  8
LAYER_1
 10
-7.459070866141732
 20
2.408287401574803
  0
VERTEX
  8
LAYER_1
 10
-7.442314960629921
 20
2.417291338582677
  0
VERTEX
  8
LAYER_1
 10
-7.423814960629922
 20
2.422948818897638
  0
VERTEX
  8
LAYER_1
 10
-7.403968503937008
 20
2.424862204724409
  0
VERTEX
  8
LAYER_1
 10
-7.384141732283465
 20
2.422775590551181
  0
VERTEX
  8
LAYER_1
 10
-7.365688976377953
 20
2.41696062992126
  0
VERTEX
  8
LAYER_1
 10
-7.349011811023622
 20
2.407814960629921
  0
VERTEX
  8
LAYER_1
 10
-7.334496062992126
 20
2.395736220472441
  0
VERTEX
  8
LAYER_1
 10
-7.32253937007874
 20
2.381114173228347
  0
VERTEX
  8
LAYER_1
 10
-7.313535433070866
 20
2.364358267716535
  0
VERTEX
  8
LAYER_1
 10
-7.307881889763779
 20
2.345858267716535
  0
VERTEX
  8
LAYER_1
 10
-7.305968503937008
 20
2.326011811023622
  0
VERTEX
  8
LAYER_1
 10
-7.308051181102362
 20
2.306185039370079
  0
VERTEX
  8
LAYER_1
 10
-7.313866141732284
 20
2.287736220472441
  0
VERTEX
  8
LAYER_1
 10
-7.323011811023622
 20
2.271055118110236
  0
VERTEX
  8
LAYER_1
 10
-7.335094488188976
 20
2.25653937007874
  0
VERTEX
  8
LAYER_1
 10
-7.349712598425197
 20
2.244586614173228
  0
VERTEX
  8
LAYER_1
 10
-7.366472440944882
 20
2.235582677165354
  0
VERTEX
  8
LAYER_1
 10
-7.384968503937007
 20
2.229925196850394
  0
VERTEX
  8
LAYER_1
 10
-7.404814960629921
 20
2.228011811023622
  0
SEQEND
  8
LAYER_1
  0
POLYLINE
  8
LAYER_1
 66
     1
 70
     1
  0
VERTEX
  8
LAYER_1
 10
-7.770248031496063
 20
1.937066929133858
  0
VERTEX
  8
LAYER_1
 10
-7.776196850393701
 20
1.937692913385827
  0
VERTEX
  8
LAYER_1
 10
-7.781732283464567
 20
1.939437007874016
  0
VERTEX
  8
LAYER_1
 10
-7.786736220472441
 20
1.942181102362205
  0
VERTEX
  8
LAYER_1
 10
-7.791090551181102
 20
1.945807086614173
  0
VERTEX
  8
LAYER_1
 10
-7.794673228346457
 20
1.950188976377953
  0
VERTEX
  8
LAYER_1
 10
-7.797374015748032
 20
1.955216535433071
  0
VERTEX
  8
LAYER_1
 10
-7.799070866141732
 20
1.960767716535433
  0
VERTEX
  8
LAYER_1
 10
-7.799645669291339
 20
1.966720472440945
  0
VERTEX
  8
LAYER_1
 10
-7.79901968503937
 20
1.972669291338583
  0
VERTEX
  8
LAYER_1
 10
-7.797275590551181
 20
1.978204724409449
  0
VERTEX
  8
LAYER_1
 10
-7.794531496062993
 20
1.983208661417323
  0
VERTEX
  8
LAYER_1
 10
-7.790909448818898
 20
1.987562992125984
  0
VERTEX
  8
LAYER_1
 10
-7.786523622047244
 20
1.991149606299213
  0
VERTEX
  8
LAYER_1
 10
-7.781496062992126
 20
1.993850393700787
  0
VERTEX
  8
LAYER_1
 10
-7.775944881889764
 20
1.995547244094488
  0
VERTEX
  8
LAYER_1
 10
-7.769992125984252
 20
1.996122047244095
  0
VERTEX
  8
LAYER_1
 10
-7.764043307086614
 20
1.995496062992126
  0
VERTEX
  8
LAYER_1
 10
-7.758507874015748
 20
1.993751968503937
  0
VERTEX
  8
LAYER_1
 10
-7.753503937007874
 20
1.991007874015748
  0
VERTEX
  8
LAYER_1
 10
-7.749153543307087
 20
1.987385826771654
  0
VERTEX
  8
LAYER_1
 10
-7.745566929133858
 20
1.983
  0
VERTEX
  8
LAYER_1
 10
-7.742866141732283
 20
1.977972440944882
  0
VERTEX
  8
LAYER_1
 10
-7.741169291338583
 20
1.97242125984252
  0
VERTEX
  8
LAYER_1
 10
-7.740594488188976
 20
1.966468503937008
  0
VERTEX
  8
LAYER_1
 10
-7.741220472440945
 20
1.96051968503937
  0
VERTEX
  8
LAYER_1
 10
-7.742964566929134
 20
1.954984251968504
  0
VERTEX
  8
LAYER_1
 10
-7.745708661417323
 20
1.94998031496063
  0
VERTEX
  8
LAYER_1
 10
-7.749330708661417
 20
1.945625984251969
  0
VERTEX
  8
LAYER_1
 10
-7.753716535433071
 20
1.94203937007874
  0
VERTEX
  8
LAYER_1
 10
-7.758744094488189
 20
1.939338582677165
  0
VERTEX
  8
LAYER_1
 10
-7.764295275590551
 20
1.937641732283464
  0
VERTEX
  8
LAYER_1
 10
-7.770248031496063
 20
1.937066929133858
  0
SEQEND
  8
LAYER_1
  0
POLYLINE
  8
LAYER_1
 66
     1
 70
     1
  0
VERTEX
  8
LAYER_1
 10
-7.767129921259842
 20
2.659893700787402
  0
VERTEX
  8
LAYER_1
 10
-7.77307874015748
 20
2.66051968503937
  0
VERTEX
  8
LAYER_1
 10
-7.778614173228346
 20
2.662263779527559
  0
VERTEX
  8
LAYER_1
 10
-7.783618110236221
 20
2.665007874015748
  0
VERTEX
  8
LAYER_1
 10
-7.787972440944882
 20
2.668633858267717
  0
VERTEX
  8
LAYER_1
 10
-7.79155905511811
 20
2.67301968503937
  0
VERTEX
  8
LAYER_1
 10
-7.794259842519685
 20
2.678047244094488
  0
VERTEX
  8
LAYER_1
 10
-7.795956692913386
 20
2.683598425196851
  0
VERTEX
  8
LAYER_1
 10
-7.796531496062992
 20
2.689551181102362
  0
VERTEX
  8
LAYER_1
 10
-7.795905511811023
 20
2.6955
  0
VERTEX
  8
LAYER_1
 10
-7.794161417322835
 20
2.701035433070866
  0
VERTEX
  8
LAYER_1
 10
-7.791417322834645
 20
2.70603937007874
  0
VERTEX
  8
LAYER_1
 10
-7.787795275590551
 20
2.710393700787402
  0
VERTEX
  8
LAYER_1
 10
-7.783409448818897
 20
2.713976377952756
  0
VERTEX
  8
LAYER_1
 10
-7.77838188976378
 20
2.716677165354331
  0
VERTEX
  8
LAYER_1
 10
-7.772830708661417
 20
2.718374015748032
  0
VERTEX
  8
LAYER_1
 10
-7.766877952755905
 20
2.718948818897638
  0
VERTEX
  8
LAYER_1
 10
-7.760929133858268
 20
2.718322834645669
  0
VERTEX
  8
LAYER_1
 10
-7.755393700787401
 20
2.71657874015748
  0
VERTEX
  8
LAYER_1
 10
-7.750389763779528
 20
2.713834645669291
  0
VERTEX
  8
LAYER_1
 10
-7.746035433070866
 20
2.710212598425197
  0
VERTEX
  8
LAYER_1
 10
-7.742448818897638
 20
2.705826771653543
  0
VERTEX
  8
LAYER_1
 10
-7.739748031496063
 20
2.700799212598425
  0
VERTEX
  8
LAYER_1
 10
-7.738051181102362
 20
2.695248031496063
  0
VERTEX
  8
LAYER_1
 10
-7.737476377952756
 20
2.689295275590551
  0
VERTEX
  8
LAYER_1
 10
-7.738102362204724
 20
2.683346456692913
  0
VERTEX
  8
LAYER_1
 10
-7.739846456692914
 20
2.677811023622047
  0
VERTEX
  8
LAYER_1
 10
-7.742590551181102
 20
2.672807086614173
  0
VERTEX
  8
LAYER_1
 10
-7.746216535433071
 20
2.668452755905512
  0
VERTEX
  8
LAYER_1
 10
-7.75059842519685
 20
2.664866141732284
  0
VERTEX
  8
LAYER_1
 10
-7.755625984251968
 20
2.662165354330709
  0
VERTEX
  8
LAYER_1
 10
-7.761177165354331
 20
2.660468503937008
  0
VERTEX
  8
LAYER_1
 10
-7.767129921259842
 20
2.659893700787402
  0
SEQEND
  8
LAYER_1
  0
POLYLINE
  8
LAYER_1
 66
     1
 70
     1
  0
VERTEX
  8
LAYER_1
 10
-7.905255905511811
 20
2.151925196850394
  0
VERTEX
  8
LAYER_1
 10
-8.446917322834645
 20
2.154263779527559
  0
VERTEX
  8
LAYER_1
 10
-8.445389763779527
 20
2.508425196850394
  0
VERTEX
  8
LAYER_1
 10
-7.903728346456693
 20
2.506086614173229
  0
VERTEX
  8
LAYER_1
 10
-7.905255905511811
 20
2.151925196850394
  0
SEQEND
  8
LAYER_1
  0
POLYLINE
  8
LAYER_1
 62
     1
 66
     1
 70
     1
  0
VERTEX
  8
LAYER_1
 62
     1
 10
-6.492181102362204
 20
3.230295275590551
  0
VERTEX
  8
LAYER_1
 62
     1
 10
-6.592905511811024
 20
3.240889763779528
  0
VERTEX
  8
LAYER_1
 62
     1
 10
-6.686633858267717
 20
3.270429133858268
  0
VERTEX
  8
LAYER_1
 62
     1
 10
-6.771366141732283
 20
3.316893700787402
  0
VERTEX
  8
LAYER_1
 62
     1
 10
-6.845102362204725
 20
3.378267716535433
  0
VERTEX
  8
LAYER_1
 62
     1
 10
-6.905834645669291
 20
3.452527559055118
  0
VERTEX
  8
LAYER_1
 62
     1
 10
-6.951570866141732
 20
3.537657480314961
  0
VERTEX
  8
LAYER_1
 62
     1
 10
-6.980299212598426
 20
3.631637795275591
  0
VERTEX
  8
LAYER_1
 62
     1
 10
-6.990023622047244
 20
3.732448818897638
  0
VERTEX
  8
LAYER_1
 62
     1
 10
-6.979429133858268
 20
3.833169291338583
  0
VERTEX
  8
LAYER_1
 62
     1
 10
-6.949889763779527
 20
3.926897637795276
  0
VERTEX
  8
LAYER_1
 62
     1
 10
-6.903425196850394
 20
4.011629921259843
  0
VERTEX
  8
LAYER_1
 62
     1
 10
-6.842051181102362
 20
4.085366141732283
  0
VERTEX
  8
LAYER_1
 62
     1
 10
-6.767791338582677
 20
4.146102362204725
  0
VERTEX
  8
LAYER_1
 62
     1
 10
-6.682661417322834
 20
4.191834645669291
  0
VERTEX
  8
LAYER_1
 62
     1
 10
-6.588681102362205
 20
4.220562992125984
  0
VERTEX
  8
LAYER_1
 62
     1
 10
-6.487870078740158
 20
4.230287401574803
  0
VERTEX
  8
LAYER_1
 62
     1
 10
-6.387149606299213
 20
4.219692913385827
  0
VERTEX
  8
LAYER_1
 62
     1
 10
-6.293421259842519
 20
4.190153543307087
  0
VERTEX
  8
LAYER_1
 62
     1
 10
-6.208688976377953
 20
4.143688976377953
  0
VERTEX
  8
LAYER_1
 62
     1
 10
-6.134952755905512
 20
4.082314960629922
  0
VERTEX
  8
LAYER_1
 62
     1
 10
-6.074216535433071
 20
4.008055118110236
  0
VERTEX
  8
LAYER_1
 62
     1
 10
-6.028484251968504
 20
3.922925196850394
  0
VERTEX
  8
LAYER_1
 62
     1
 10
-5.999755905511811
 20
3.828944881889764
  0
VERTEX
  8
LAYER_1
 62
     1
 10
-5.990031496062993
 20
3.728133858267717
  0
VERTEX
  8
LAYER_1
 62
     1
 10
-6.000622047244095
 20
3.627413385826772
  0
VERTEX
  8
LAYER_1
 62
     1
 10
-6.030161417322835
 20
3.533685039370079
  0
VERTEX
  8
LAYER_1
 62
     1
 10
-6.076625984251969
 20
3.448952755905512
  0
VERTEX
  8
LAYER_1
 62
     1
 10
-6.138
 20
3.375216535433071
  0
VERTEX
  8
LAYER_1
 62
     1
 10
-6.212259842519685
 20
3.31448031496063
  0
VERTEX
  8
LAYER_1
 62
     1
 10
-6.297393700787402
 20
3.268748031496063
  0
VERTEX
  8
LAYER_1
 62
     1
 10
-6.391370078740158
 20
3.24001968503937
  0
VERTEX
  8
LAYER_1
 62
     1
 10
-6.492181102362204
 20
3.230295275590551
  0
SEQEND
  8
LAYER_1
 62
     1
  0
POLYLINE
  8
LAYER_1
 66
     1
 70
     1
  0
VERTEX
  8
LAYER_1
 10
-6.490263779527559
 20
3.675291338582677
  0
VERTEX
  8
LAYER_1
 10
-6.501342519685039
 20
3.676456692913386
  0
VERTEX
  8
LAYER_1
 10
-6.511653543307086
 20
3.679704724409449
  0
VERTEX
  8
LAYER_1
 10
-6.520972440944882
 20
3.684814960629921
  0
VERTEX
  8
LAYER_1
 10
-6.529086614173228
 20
3.691566929133858
  0
VERTEX
  8
LAYER_1
 10
-6.535767716535433
 20
3.699736220472441
  0
VERTEX
  8
LAYER_1
 10
-6.540795275590551
 20
3.709102362204725
  0
VERTEX
  8
LAYER_1
 10
-6.543956692913386
 20
3.719437007874016
  0
VERTEX
  8
LAYER_1
 10
-6.545027559055118
 20
3.730527559055118
  0
VERTEX
  8
LAYER_1
 10
-6.54386220472441
 20
3.741606299212598
  0
VERTEX
  8
LAYER_1
 10
-6.540610236220473
 20
3.751917322834646
  0
VERTEX
  8
LAYER_1
 10
-6.5355
 20
3.761240157480315
  0
VERTEX
  8
LAYER_1
 10
-6.528748031496063
 20
3.769350393700787
  0
VERTEX
  8
LAYER_1
 10
-6.520582677165354
 20
3.776031496062992
  0
VERTEX
  8
LAYER_1
 10
-6.51121653543307
 20
3.781062992125984
  0
VERTEX
  8
LAYER_1
 10
-6.50088188976378
 20
3.784220472440945
  0
VERTEX
  8
LAYER_1
 10
-6.489791338582677
 20
3.785291338582677
  0
VERTEX
  8
LAYER_1
 10
-6.478712598425197
 20
3.784125984251968
  0
VERTEX
  8
LAYER_1
 10
-6.46840157480315
 20
3.780877952755906
  0
VERTEX
  8
LAYER_1
 10
-6.45907874015748
 20
3.775767716535433
  0
VERTEX
  8
LAYER_1
 10
-6.450968503937008
 20
3.769015748031496
  0
VERTEX
  8
LAYER_1
 10
-6.444287401574803
 20
3.760846456692913
  0
VERTEX
  8
LAYER_1
 10
-6.439255905511811
 20
3.75148031496063
  0
VERTEX
  8
LAYER_1
 10
-6.43609842519685
 20
3.741145669291339
  0
VERTEX
  8
LAYER_1
 10
-6.435027559055118
 20
3.730055118110236
  0
VERTEX
  8
LAYER_1
 10
-6.436192913385827
 20
3.718976377952756
  0
VERTEX
  8
LAYER_1
 10
-6.439440944881889
 20
3.708665354330709
  0
VERTEX
  8
LAYER_1
 10
-6.444551181102362
 20
3.69934251968504
  0
VERTEX
  8
LAYER_1
 10
-6.451303149606299
 20
3.691232283464567
  0
VERTEX
  8
LAYER_1
 10
-6.459472440944882
 20
3.684551181102362
  0
VERTEX
  8
LAYER_1
 10
-6.468838582677165
 20
3.67951968503937
  0
VERTEX
  8
LAYER_1
 10
-6.479173228346457
 20
3.67636220472441
  0
VERTEX
  8
LAYER_1
 10
-6.490263779527559
 20
3.675291338582677
  0
SEQEND
  8
LAYER_1
  0
POLYLINE
  8
LAYER_1
 66
     1
 70
     1
  0
VERTEX
  8
LAYER_1
 10
-8.920196850393701
 20
4.03259842519685
  0
VERTEX
  8
LAYER_1
 10
-8.93127559055118
 20
4.033763779527559
  0
VERTEX
  8
LAYER_1
 10
-8.941586614173229
 20
4.037015748031496
  0
VERTEX
  8
LAYER_1
 10
-8.950909448818898
 20
4.042125984251968
  0
VERTEX
  8
LAYER_1
 10
-8.95901968503937
 20
4.048877952755905
  0
VERTEX
  8
LAYER_1
 10
-8.965700787401575
 20
4.057043307086614
  0
VERTEX
  8
LAYER_1
 10
-8.970732283464567
 20
4.066409448818898
  0
VERTEX
  8
LAYER_1
 10
-8.973889763779528
 20
4.076744094488189
  0
VERTEX
  8
LAYER_1
 10
-8.97496062992126
 20
4.087834645669291
  0
VERTEX
  8
LAYER_1
 10
-8.97379527559055
 20
4.098913385826772
  0
VERTEX
  8
LAYER_1
 10
-8.970547244094488
 20
4.109224409448819
  0
VERTEX
  8
LAYER_1
 10
-8.965437007874016
 20
4.118547244094488
  0
VERTEX
  8
LAYER_1
 10
-8.958685039370078
 20
4.126657480314961
  0
VERTEX
  8
LAYER_1
 10
-8.950515748031496
 20
4.133338582677165
  0
VERTEX
  8
LAYER_1
 10
-8.941149606299213
 20
4.138370078740158
  0
VERTEX
  8
LAYER_1
 10
-8.930814960629922
 20
4.141527559055118
  0
VERTEX
  8
LAYER_1
 10
-8.919724409448818
 20
4.142598425196851
  0
VERTEX
  8
LAYER_1
 10
-8.908645669291339
 20
4.141433070866142
  0
VERTEX
  8
LAYER_1
 10
-8.89833464566929
 20
4.138185039370079
  0
VERTEX
  8
LAYER_1
 10
-8.889015748031497
 20
4.133074803149606
  0
VERTEX
  8
LAYER_1
 10
-8.880905511811024
 20
4.126322834645669
  0
VERTEX
  8
LAYER_1
 10
-8.874220472440944
 20
4.118153543307087
  0
VERTEX
  8
LAYER_1
 10
-8.869192913385827
 20
4.108787401574803
  0
VERTEX
  8
LAYER_1
 10
-8.866031496062993
 20
4.098452755905512
  0
VERTEX
  8
LAYER_1
 10
-8.86496062992126
 20
4.08736220472441
  0
VERTEX
  8
LAYER_1
 10
-8.866125984251969
 20
4.076283464566929
  0
VERTEX
  8
LAYER_1
 10
-8.869377952755906
 20
4.065972440944882
  0
VERTEX
  8
LAYER_1
 10
-8.874488188976377
 20
4.056653543307086
  0
VERTEX
  8
LAYER_1
 10
-8.881240157480315
 20
4.048543307086614
  0
VERTEX
  8
LAYER_1
 10
-8.889405511811024
 20
4.041858267716536
  0
VERTEX
  8
LAYER_1
 10
-8.898771653543307
 20
4.036830708661418
  0
VERTEX
  8
LAYER_1
 10
-8.909106299212599
 20
4.033669291338582
  0
VERTEX
  8
LAYER_1
 10
-8.920196850393701
 20
4.03259842519685
  0
SEQEND
  8
LAYER_1
  0
POLYLINE
  8
LAYER_1
 66
     1
 70
     1
  0
VERTEX
  8
LAYER_1
 10
-7.736641732283465
 20
4.028767716535433
  0
VERTEX
  8
LAYER_1
 10
-7.747720472440945
 20
4.029933070866142
  0
VERTEX
  8
LAYER_1
 10
-7.758031496062992
 20
4.033181102362205
  0
VERTEX
  8
LAYER_1
 10
-7.767350393700787
 20
4.038291338582678
  0
VERTEX
  8
LAYER_1
 10
-7.775464566929134
 20
4.045043307086615
  0
VERTEX
  8
LAYER_1
 10
-7.782145669291339
 20
4.053212598425197
  0
VERTEX
  8
LAYER_1
 10
-7.787173228346457
 20
4.06257874015748
  0
VERTEX
  8
LAYER_1
 10
-7.790334645669291
 20
4.072913385826772
  0
VERTEX
  8
LAYER_1
 10
-7.791405511811024
 20
4.084003937007874
  0
VERTEX
  8
LAYER_1
 10
-7.790240157480315
 20
4.095082677165355
  0
VERTEX
  8
LAYER_1
 10
-7.786988188976378
 20
4.105393700787402
  0
VERTEX
  8
LAYER_1
 10
-7.781877952755906
 20
4.114716535433071
  0
VERTEX
  8
LAYER_1
 10
-7.775125984251969
 20
4.122826771653544
  0
VERTEX
  8
LAYER_1
 10
-7.766956692913386
 20
4.129507874015748
  0
VERTEX
  8
LAYER_1
 10
-7.757594488188976
 20
4.13453937007874
  0
VERTEX
  8
LAYER_1
 10
-7.747255905511811
 20
4.1376968503937
  0
VERTEX
  8
LAYER_1
 10
-7.736165354330709
 20
4.138767716535433
  0
VERTEX
  8
LAYER_1
 10
-7.725086614173228
 20
4.137602362204724
  0
VERTEX
  8
LAYER_1
 10
-7.714775590551181
 20
4.134354330708661
  0
VERTEX
  8
LAYER_1
 10
-7.705456692913386
 20
4.129244094488189
  0
VERTEX
  8
LAYER_1
 10
-7.697346456692913
 20
4.122492125984252
  0
VERTEX
  8
LAYER_1
 10
-7.690665354330709
 20
4.11432283464567
  0
VERTEX
  8
LAYER_1
 10
-7.685633858267717
 20
4.104956692913386
  0
VERTEX
  8
LAYER_1
 10
-7.682472440944882
 20
4.094622047244094
  0
VERTEX
  8
LAYER_1
 10
-7.681405511811024
 20
4.083531496062992
  0
VERTEX
  8
LAYER_1
 10
-7.682570866141733
 20
4.072452755905512
  0
VERTEX
  8
LAYER_1
 10
-7.685818897637795
 20
4.062141732283465
  0
VERTEX
  8
LAYER_1
 10
-7.690929133858268
 20
4.052818897637795
  0
VERTEX
  8
LAYER_1
 10
-7.697681102362205
 20
4.044708661417323
  0
VERTEX
  8
LAYER_1
 10
-7.705850393700787
 20
4.038027559055118
  0
VERTEX
  8
LAYER_1
 10
-7.715216535433071
 20
4.032996062992126
  0
VERTEX
  8
LAYER_1
 10
-7.725551181102362
 20
4.029838582677165
  0
VERTEX
  8
LAYER_1
 10
-7.736641732283465
 20
4.028767716535433
  0
SEQEND
  8
LAYER_1
  0
POLYLINE
  8
LAYER_1
 66
     1
 70
     1
  0
VERTEX
  8
LAYER_1
 10
-8.333582677165355
 20
2.995732283464567
  0
VERTEX
  8
LAYER_1
 10
-8.344661417322834
 20
2.996897637795275
  0
VERTEX
  8
LAYER_1
 10
-8.354972440944882
 20
3.000149606299213
  0
VERTEX
  8
LAYER_1
 10
-8.364291338582678
 20
3.005259842519685
  0
VERTEX
  8
LAYER_1
 10
-8.372401574803149
 20
3.012011811023622
  0
VERTEX
  8
LAYER_1
 10
-8.379082677165353
 20
3.020181102362205
  0
VERTEX
  8
LAYER_1
 10
-8.384114173228346
 20
3.029543307086614
  0
VERTEX
  8
LAYER_1
 10
-8.38727559055118
 20
3.039881889763779
  0
VERTEX
  8
LAYER_1
 10
-8.38834251968504
 20
3.050972440944882
  0
VERTEX
  8
LAYER_1
 10
-8.38717716535433
 20
3.062051181102362
  0
VERTEX
  8
LAYER_1
 10
-8.383929133858267
 20
3.072362204724409
  0
VERTEX
  8
LAYER_1
 10
-8.378818897637796
 20
3.081681102362205
  0
VERTEX
  8
LAYER_1
 10
-8.372066929133858
 20
3.089791338582677
  0
VERTEX
  8
LAYER_1
 10
-8.363897637795276
 20
3.096472440944882
  0
VERTEX
  8
LAYER_1
 10
-8.354531496062991
 20
3.101503937007874
  0
VERTEX
  8
LAYER_1
 10
-8.3441968503937
 20
3.104661417322835
  0
VERTEX
  8
LAYER_1
 10
-8.333106299212599
 20
3.105732283464567
  0
VERTEX
  8
LAYER_1
 10
-8.322027559055119
 20
3.104566929133858
  0
VERTEX
  8
LAYER_1
 10
-8.31171653543307
 20
3.101318897637795
  0
VERTEX
  8
LAYER_1
 10
-8.302397637795275
 20
3.096208661417323
  0
VERTEX
  8
LAYER_1
 10
-8.294287401574802
 20
3.089456692913386
  0
VERTEX
  8
LAYER_1
 10
-8.287606299212598
 20
3.081287401574803
  0
VERTEX
  8
LAYER_1
 10
-8.282574803149606
 20
3.07192125984252
  0
VERTEX
  8
LAYER_1
 10
-8.279413385826771
 20
3.061586614173228
  0
VERTEX
  8
LAYER_1
 10
-8.278346456692914
 20
3.050496062992126
  0
VERTEX
  8
LAYER_1
 10
-8.279511811023623
 20
3.039417322834645
  0
VERTEX
  8
LAYER_1
 10
-8.282759842519685
 20
3.029106299212598
  0
VERTEX
  8
LAYER_1
 10
-8.287870078740157
 20
3.019787401574803
  0
VERTEX
  8
LAYER_1
 10
-8.294622047244095
 20
3.011677165354331
  0
VERTEX
  8
LAYER_1
 10
-8.302791338582677
 20
3.004992125984252
  0
VERTEX
  8
LAYER_1
 10
-8.31215748031496
 20
2.999964566929134
  0
VERTEX
  8
LAYER_1
 10
-8.322492125984253
 20
2.996803149606299
  0
VERTEX
  8
LAYER_1
 10
-8.333582677165355
 20
2.995732283464567
  0
SEQEND
  8
LAYER_1
  0
POLYLINE
  8
LAYER_1
 66
     1
  0
VERTEX
  8
LAYER_1
 10
-5.998913385826771
 20
4.134236220472441
  0
VERTEX
  8
LAYER_1
 10
-5.991188976377953
 20
4.084917322834646
  0
VERTEX
  8
LAYER_1
 10
-5.984492125984252
 20
4.035263779527559
  0
VERTEX
  8
LAYER_1
 10
-5.978826771653543
 20
3.985295275590551
  0
VERTEX
  8
LAYER_1
 10
-5.974204724409449
 20
3.935015748031496
  0
VERTEX
  8
LAYER_1
 10
-5.970641732283465
 20
3.884437007874016
  0
VERTEX
  8
LAYER_1
 10
-5.968145669291339
 20
3.833574803149606
  0
VERTEX
  8
LAYER_1
 10
-5.966732283464567
 20
3.782437007874016
  0
VERTEX
  8
LAYER_1
 10
-5.966405511811024
 20
3.73103937007874
  0
SEQEND
  8
LAYER_1
  0
POLYLINE
  8
LAYER_1
 66
     1
  0
VERTEX
  8
LAYER_1
 10
-10.34140551181102
 20
1.683602362204724
  0
VERTEX
  8
LAYER_1
 10
-10.60126771653543
 20
1.852799212598425
  0
VERTEX
  8
LAYER_1
 10
-10.83599606299213
 20
2.053673228346457
  0
VERTEX
  8
LAYER_1
 10
-11.04259842519685
 20
2.283204724409449
  0
VERTEX
  8
LAYER_1
 10
-11.21808661417323
 20
2.538377952755905
  0
VERTEX
  8
LAYER_1
 10
-11.35946456692913
 20
2.816169291338583
  0
VERTEX
  8
LAYER_1
 10
-11.46374409448819
 20
3.113566929133858
  0
VERTEX
  8
LAYER_1
 10
-11.52792913385827
 20
3.427555118110236
  0
VERTEX
  8
LAYER_1
 10
-11.54903149606299
 20
3.755110236220472
  0
VERTEX
  8
LAYER_1
 10
-11.5229094488189
 20
4.097484251968504
  0
VERTEX
  8
LAYER_1
 10
-11.44985433070866
 20
4.424425196850394
  0
VERTEX
  8
LAYER_1
 10
-11.33333858267716
 20
4.732503937007874
  0
VERTEX
  8
LAYER_1
 10
-11.17681496062992
 20
5.018291338582677
  0
VERTEX
  8
LAYER_1
 10
-10.98374803149606
 20
5.278350393700787
  0
VERTEX
  8
LAYER_1
 10
-10.75760236220473
 20
5.509248031496063
  0
VERTEX
  8
LAYER_1
 10
-10.50183464566929
 20
5.70755905511811
  0
VERTEX
  8
LAYER_1
 10
-10.2199094488189
 20
5.869846456692914
  0
SEQEND
  8
LAYER_1
  0
POLYLINE
  8
LAYER_1
 66
     1
  0
VERTEX
  8
LAYER_1
 10
-11.50360236220472
 20
4.207425196850394
  0
VERTEX
  8
LAYER_1
 10
-11.43302755905512
 20
4.477622047244094
  0
VERTEX
  8
LAYER_1
 10
-11.33237795275591
 20
4.734181102362204
  0
VERTEX
  8
LAYER_1
 10
-11.20368503937008
 20
4.975086614173228
  0
VERTEX
  8
LAYER_1
 10
-11.04897637795276
 20
5.198322834645669
  0
VERTEX
  8
LAYER_1
 10
-10.8702874015748
 20
5.401870078740157
  0
VERTEX
  8
LAYER_1
 10
-10.66964960629921
 20
5.583716535433071
  0
VERTEX
  8
LAYER_1
 10
-10.44908661417323
 20
5.741838582677166
  0
VERTEX
  8
LAYER_1
 10
-10.21063779527559
 20
5.874228346456693
  0
VERTEX
  8
LAYER_1
 10
-9.958562992125984
 20
5.86444094488189
  0
VERTEX
  8
LAYER_1
 10
-9.69465748031496
 20
5.839267716535433
  0
VERTEX
  8
LAYER_1
 10
-9.420433070866142
 20
5.798653543307086
  0
VERTEX
  8
LAYER_1
 10
-9.137385826771654
 20
5.742551181102362
  0
VERTEX
  8
LAYER_1
 10
-8.847027559055118
 20
5.670905511811023
  0
VERTEX
  8
LAYER_1
 10
-8.550858267716535
 20
5.583665354330709
  0
VERTEX
  8
LAYER_1
 10
-8.250385826771653
 20
5.48078346456693
  0
VERTEX
  8
LAYER_1
 10
-7.947114173228346
 20
5.362208661417323
  0
VERTEX
  8
LAYER_1
 10
-7.651358267716535
 20
5.231885826771654
  0
VERTEX
  8
LAYER_1
 10
-7.368496062992126
 20
5.092602362204724
  0
VERTEX
  8
LAYER_1
 10
-7.099531496062992
 20
4.945444881889764
  0
VERTEX
  8
LAYER_1
 10
-6.845468503937008
 20
4.791484251968504
  0
VERTEX
  8
LAYER_1
 10
-6.607307086614173
 20
4.631799212598425
  0
VERTEX
  8
LAYER_1
 10
-6.386047244094488
 20
4.467468503937008
  0
VERTEX
  8
LAYER_1
 10
-6.182696850393701
 20
4.299574803149606
  0
VERTEX
  8
LAYER_1
 10
-5.998248031496063
 20
4.129188976377953
  0
VERTEX
  8
LAYER_1
 10
-5.990712598425197
 20
4.080464566929134
  0
VERTEX
  8
LAYER_1
 10
-5.984161417322834
 20
4.03142125984252
  0
VERTEX
  8
LAYER_1
 10
-5.978614173228347
 20
3.982074803149606
  0
VERTEX
  8
LAYER_1
 10
-5.974082677165354
 20
3.932425196850394
  0
VERTEX
  8
LAYER_1
 10
-5.97057874015748
 20
3.882488188976378
  0
VERTEX
  8
LAYER_1
 10
-5.968122047244094
 20
3.832271653543307
  0
VERTEX
  8
LAYER_1
 10
-5.966728346456692
 20
3.781787401574803
  0
VERTEX
  8
LAYER_1
 10
-5.966405511811024
 20
3.73103937007874
  0
VERTEX
  8
LAYER_1
 10
-5.981511811023622
 20
3.47255905511811
  0
VERTEX
  8
LAYER_1
 10
-6.023586614173229
 20
3.222311023622047
  0
VERTEX
  8
LAYER_1
 10
-6.091161417322835
 20
2.981748031496063
  0
VERTEX
  8
LAYER_1
 10
-6.182771653543307
 20
2.752322834645669
  0
VERTEX
  8
LAYER_1
 10
-6.296944881889764
 20
2.535484251968504
  0
VERTEX
  8
LAYER_1
 10
-6.432212598425197
 20
2.332685039370079
  0
VERTEX
  8
LAYER_1
 10
-6.587106299212598
 20
2.145377952755906
  0
VERTEX
  8
LAYER_1
 10
-6.760153543307086
 20
1.97501968503937
  0
SEQEND
  8
LAYER_1
  0
POLYLINE
  8
LAYER_1
 66
     1
  0
VERTEX
  8
LAYER_1
 10
-5.998913385826771
 20
4.134236220472441
  0
VERTEX
  8
LAYER_1
 10
-5.991188976377953
 20
4.084917322834646
  0
VERTEX
  8
LAYER_1
 10
-5.984492125984252
 20
4.035263779527559
  0
VERTEX
  8
LAYER_1
 10
-5.978826771653543
 20
3.985295275590551
  0
VERTEX
  8
LAYER_1
 10
-5.974204724409449
 20
3.935015748031496
  0
VERTEX
  8
LAYER_1
 10
-5.970641732283465
 20
3.884437007874016
  0
VERTEX
  8
LAYER_1
 10
-5.968145669291339
 20
3.833574803149606
  0
VERTEX
  8
LAYER_1
 10
-5.966732283464567
 20
3.782437007874016
  0
VERTEX
  8
LAYER_1
 10
-5.966405511811024
 20
3.73103937007874
  0
VERTEX
  8
LAYER_1
 10
-5.991133858267717
 20
3.398149606299213
  0
VERTEX
  8
LAYER_1
 10
-6.060271653543307
 20
3.079748031496063
  0
VERTEX
  8
LAYER_1
 10
-6.170645669291338
 20
2.77898031496063
  0
VERTEX
  8
LAYER_1
 10
-6.31907874015748
 20
2.498996062992126
  0
VERTEX
  8
LAYER_1
 10
-6.50238188976378
 20
2.242937007874016
  0
VERTEX
  8
LAYER_1
 10
-6.717389763779527
 20
2.013952755905512
  0
VERTEX
  8
LAYER_1
 10
-6.960917322834645
 20
1.815185039370079
  0
VERTEX
  8
LAYER_1
 10
-7.229783464566929
 20
1.649783464566929
  0
SEQEND
  8
LAYER_1
  0
POLYLINE
  8
LAYER_1
 66
     1
  0
VERTEX
  8
LAYER_1
 10
-10.35622047244095
 20
1.692161417322835
  0
VERTEX
  8
LAYER_1
 10
-10.61308661417323
 20
1.861885826771654
  0
VERTEX
  8
LAYER_1
 10
-10.84502755905512
 20
2.062700787401575
  0
VERTEX
  8
LAYER_1
 10
-11.04911023622047
 20
2.291653543307087
  0
VERTEX
  8
LAYER_1
 10
-11.22240551181102
 20
2.545787401574803
  0
VERTEX
  8
LAYER_1
 10
-11.36197637795276
 20
2.822153543307087
  0
VERTEX
  8
LAYER_1
 10
-11.46488976377953
 20
3.117799212598425
  0
VERTEX
  8
LAYER_1
 10
-11.52822047244094
 20
3.429767716535433
  0
VERTEX
  8
LAYER_1
 10
-11.54903149606299
 20
3.755110236220472
  0
VERTEX
  8
LAYER_1
 10
-11.54822047244095
 20
3.807933070866142
  0
VERTEX
  8
LAYER_1
 10
-11.54625590551181
 20
3.860468503937008
  0
VERTEX
  8
LAYER_1
 10
-11.54315354330709
 20
3.912696850393701
  0
VERTEX
  8
LAYER_1
 10
-11.53892125984252
 20
3.96461811023622
  0
VERTEX
  8
LAYER_1
 10
-11.53357874015748
 20
4.016212598425197
  0
VERTEX
  8
LAYER_1
 10
-11.52713779527559
 20
4.067468503937008
  0
VERTEX
  8
LAYER_1
 10
-11.51961023622047
 20
4.118381889763779
  0
VERTEX
  8
LAYER_1
 10
-11.51101181102362
 20
4.168933070866141
  0
SEQEND
  8
LAYER_1
  0
POLYLINE
  8
LAYER_1
 66
     1
  0
VERTEX
  8
LAYER_1
 10
-6.118433070866142
 20
4.242401574803149
  0
VERTEX
  8
LAYER_1
 10
-5.998248031496063
 20
4.129188976377953
  0
VERTEX
  8
LAYER_1
 10
-5.990712598425197
 20
4.080464566929134
  0
VERTEX
  8
LAYER_1
 10
-5.984161417322834
 20
4.03142125984252
  0
VERTEX
  8
LAYER_1
 10
-5.978614173228347
 20
3.982074803149606
  0
VERTEX
  8
LAYER_1
 10
-5.974082677165354
 20
3.932425196850394
  0
VERTEX
  8
LAYER_1
 10
-5.97057874015748
 20
3.882488188976378
  0
VERTEX
  8
LAYER_1
 10
-5.968122047244094
 20
3.832271653543307
  0
VERTEX
  8
LAYER_1
 10
-5.966728346456692
 20
3.781787401574803
  0
VERTEX
  8
LAYER_1
 10
-5.966405511811024
 20
3.73103937007874
  0
VERTEX
  8
LAYER_1
 10
-5.981511811023622
 20
3.47255905511811
  0
VERTEX
  8
LAYER_1
 10
-6.023586614173229
 20
3.222311023622047
  0
VERTEX
  8
LAYER_1
 10
-6.091161417322835
 20
2.981748031496063
  0
VERTEX
  8
LAYER_1
 10
-6.182771653543307
 20
2.752322834645669
  0
VERTEX
  8
LAYER_1
 10
-6.296944881889764
 20
2.535484251968504
  0
VERTEX
  8
LAYER_1
 10
-6.432212598425197
 20
2.332685039370079
  0
VERTEX
  8
LAYER_1
 10
-6.587106299212598
 20
2.145377952755906
  0
VERTEX
  8
LAYER_1
 10
-6.760153543307086
 20
1.97501968503937
  0
SEQEND
  8
LAYER_1
  0
POLYLINE
  8
LAYER_1
 66
     1
  0
VERTEX
  8
LAYER_1
 10
-5.998913385826771
 20
4.134236220472441
  0
VERTEX
  8
LAYER_1
 10
-5.991188976377953
 20
4.084917322834646
  0
VERTEX
  8
LAYER_1
 10
-5.984492125984252
 20
4.035263779527559
  0
VERTEX
  8
LAYER_1
 10
-5.978826771653543
 20
3.985295275590551
  0
VERTEX
  8
LAYER_1
 10
-5.974204724409449
 20
3.935015748031496
  0
VERTEX
  8
LAYER_1
 10
-5.970641732283465
 20
3.884437007874016
  0
VERTEX
  8
LAYER_1
 10
-5.968145669291339
 20
3.833574803149606
  0
VERTEX
  8
LAYER_1
 10
-5.966732283464567
 20
3.782437007874016
  0
VERTEX
  8
LAYER_1
 10
-5.966405511811024
 20
3.73103937007874
  0
SEQEND
  8
LAYER_1
  0
POLYLINE
  8
LAYER_1
 66
     1
  0
VERTEX
  8
LAYER_1
 10
-10.35622047244095
 20
1.692161417322835
  0
VERTEX
  8
LAYER_1
 10
-10.61308661417323
 20
1.861885826771654
  0
VERTEX
  8
LAYER_1
 10
-10.84502755905512
 20
2.062700787401575
  0
VERTEX
  8
LAYER_1
 10
-11.04911023622047
 20
2.291653543307087
  0
VERTEX
  8
LAYER_1
 10
-11.22240551181102
 20
2.545787401574803
  0
VERTEX
  8
LAYER_1
 10
-11.36197637795276
 20
2.822153543307087
  0
VERTEX
  8
LAYER_1
 10
-11.46488976377953
 20
3.117799212598425
  0
VERTEX
  8
LAYER_1
 10
-11.52822047244094
 20
3.429767716535433
  0
VERTEX
  8
LAYER_1
 10
-11.54903149606299
 20
3.755110236220472
  0
VERTEX
  8
LAYER_1
 10
-11.54822047244095
 20
3.807933070866142
  0
VERTEX
  8
LAYER_1
 10
-11.54625590551181
 20
3.860468503937008
  0
VERTEX
  8
LAYER_1
 10
-11.54315354330709
 20
3.912696850393701
  0
VERTEX
  8
LAYER_1
 10
-11.53892125984252
 20
3.96461811023622
  0
VERTEX
  8
LAYER_1
 10
-11.53357874015748
 20
4.016212598425197
  0
VERTEX
  8
LAYER_1
 10
-11.52713779527559
 20
4.067468503937008
  0
VERTEX
  8
LAYER_1
 10
-11.51961023622047
 20
4.118381889763779
  0
VERTEX
  8
LAYER_1
 10
-11.51101181102362
 20
4.168933070866141
  0
SEQEND
  8
LAYER_1
  0
POLYLINE
  8
LAYER_1
 66
     1
  0
VERTEX
  8
LAYER_1
 10
-7.244673228346457
 20
1.646791338582677
  0
VERTEX
  8
LAYER_1
 10
-7.418358267716536
 20
1.591338582677165
  0
VERTEX
  8
LAYER_1
 10
-7.597661417322835
 20
1.54259842519685
  0
VERTEX
  8
LAYER_1
 10
-7.782204724409449
 20
1.500818897637795
  0
VERTEX
  8
LAYER_1
 10
-7.971610236220473
 20
1.466244094488189
  0
VERTEX
  8
LAYER_1
 10
-8.165496062992126
 20
1.439125984251969
  0
VERTEX
  8
LAYER_1
 10
-8.363484251968504
 20
1.419700787401575
  0
VERTEX
  8
LAYER_1
 10
-8.5651968503937
 20
1.408224409448819
  0
VERTEX
  8
LAYER_1
 10
-8.770255905511812
 20
1.404937007874016
  0
VERTEX
  8
LAYER_1
 10
-8.98134251968504
 20
1.41090157480315
  0
VERTEX
  8
LAYER_1
 10
-9.190377952755906
 20
1.42653937007874
  0
VERTEX
  8
LAYER_1
 10
-9.396448818897637
 20
1.451220472440945
  0
VERTEX
  8
LAYER_1
 10
-9.598622047244094
 20
1.484303149606299
  0
VERTEX
  8
LAYER_1
 10
-9.795976377952757
 20
1.525145669291339
  0
VERTEX
  8
LAYER_1
 10
-9.987594488188977
 20
1.573122047244095
  0
VERTEX
  8
LAYER_1
 10
-10.17254330708661
 20
1.627586614173228
  0
VERTEX
  8
LAYER_1
 10
-10.3499094488189
 20
1.687905511811024
  0
SEQEND
  8
LAYER_1
  0
POLYLINE
  8
LAYER_1
 66
     1
  0
VERTEX
  8
LAYER_1
 10
-0.7726417322834646
 20
4.370114173228346
  0
VERTEX
  8
LAYER_1
 10
-1.230972440944882
 20
3.661779527559055
  0
VERTEX
  8
LAYER_1
 10
-1.764011811023622
 20
4.090240157480315
  0
SEQEND
  8
LAYER_1
  0
POLYLINE
  8
LAYER_1
 66
     1
  0
VERTEX
  8
LAYER_1
 10
-3.23965748031496
 20
3.92611811023622
  0
VERTEX
  8
LAYER_1
 10
-2.730972440944882
 20
2.870114173228346
  0
SEQEND
  8
LAYER_1
  0
POLYLINE
  8
LAYER_1
 66
     1
  0
VERTEX
  8
LAYER_1
 10
-4.522641732283464
 20
2.672196850393701
  0
VERTEX
  8
LAYER_1
 10
-4.512224409448819
 20
4.515948818897638
  0
SEQEND
  8
LAYER_1
  0
POLYLINE
  8
LAYER_1
 66
     1
  0
VERTEX
  8
LAYER_1
 10
-3.762224409448819
 20
5.495114173228346
  0
VERTEX
  8
LAYER_1
 10
-3.751299212598425
 20
5.441503937007874
  0
VERTEX
  8
LAYER_1
 10
-3.731464566929134
 20
5.302570866141732
  0
VERTEX
  8
LAYER_1
 10
-3.722125984251969
 20
5.111141732283465
  0
VERTEX
  8
LAYER_1
 10
-3.742692913385827
 20
4.900062992125984
  0
VERTEX
  8
LAYER_1
 10
-3.81257874015748
 20
4.702169291338583
  0
VERTEX
  8
LAYER_1
 10
-3.951188976377953
 20
4.550291338582677
  0
VERTEX
  8
LAYER_1
 10
-4.177937007874016
 20
4.477271653543307
  0
VERTEX
  8
LAYER_1
 10
-4.512224409448819
 20
4.515948818897638
  0
SEQEND
  8
LAYER_1
  0
POLYLINE
  8
LAYER_1
 66
     1
  0
VERTEX
  8
LAYER_1
 10
-3.762224409448819
 20
5.495114173228346
  0
VERTEX
  8
LAYER_1
 10
-3.688881889763779
 20
5.487791338582677
  0
VERTEX
  8
LAYER_1
 10
-3.484066929133858
 20
5.459956692913386
  0
VERTEX
  8
LAYER_1
 10
-3.170610236220472
 20
5.402830708661417
  0
VERTEX
  8
LAYER_1
 10
-2.771338582677165
 20
5.307614173228346
  0
VERTEX
  8
LAYER_1
 10
-2.30907874015748
 20
5.165523622047244
  0
VERTEX
  8
LAYER_1
 10
-1.806657480314961
 20
4.967771653543307
  0
VERTEX
  8
LAYER_1
 10
-1.286905511811024
 20
4.705562992125985
  0
VERTEX
  8
LAYER_1
 10
-0.7726417322834646
 20
4.370114173228346
  0
SEQEND
  8
LAYER_1
  0
POLYLINE
  8
LAYER_1
 66
     1
  0
VERTEX
  8
LAYER_1
 10
-4.522641732283464
 20
2.672196850393701
  0
VERTEX
  8
LAYER_1
 10
-4.474755905511811
 20
2.653968503937008
  0
VERTEX
  8
LAYER_1
 10
-4.342464566929134
 20
2.611464566929134
  0
VERTEX
  8
LAYER_1
 10
-4.142818897637795
 20
2.56296062992126
  0
VERTEX
  8
LAYER_1
 10
-3.892866141732283
 20
2.526732283464567
  0
VERTEX
  8
LAYER_1
 10
-3.609657480314961
 20
2.52105905511811
  0
VERTEX
  8
LAYER_1
 10
-3.310236220472441
 20
2.564216535433071
  0
VERTEX
  8
LAYER_1
 10
-3.011661417322835
 20
2.674476377952756
  0
VERTEX
  8
LAYER_1
 10
-2.730972440944882
 20
2.870114173228346
  0
SEQEND
  8
LAYER_1
  0
POLYLINE
  8
LAYER_1
 66
     1
  0
VERTEX
  8
LAYER_1
 10
-3.23965748031496
 20
3.92611811023622
  0
VERTEX
  8
LAYER_1
 10
-3.221720472440945
 20
3.944763779527559
  0
VERTEX
  8
LAYER_1
 10
-3.16498031496063
 20
3.991507874015748
  0
VERTEX
  8
LAYER_1
 10
-3.065051181102362
 20
4.052570866141732
  0
VERTEX
  8
LAYER_1
 10
-2.917543307086614
 20
4.114165354330709
  0
VERTEX
  8
LAYER_1
 10
-2.718074803149606
 20
4.162511811023622
  0
VERTEX
  8
LAYER_1
 10
-2.462255905511811
 20
4.183830708661417
  0
VERTEX
  8
LAYER_1
 10
-2.145696850393701
 20
4.164334645669292
  0
VERTEX
  8
LAYER_1
 10
-1.764011811023622
 20
4.090240157480315
  0
SEQEND
  8
LAYER_1
  0
ENDSEC
  0
EOF
