  0
SECTION
  2
HEADER
  9
$ACADVER
  1
AC1014
  9
$HANDSEED
  5
FFFF
  9
$MEASUREMENT
 70
     1
  0
ENDSEC
  0
SECTION
  2
TABLES
  0
TABLE
  2
VPORT
  5
8
330
0
100
AcDbSymbolTable
 70
     4
  0
VPORT
  5
2E
330
8
100
AcDbSymbolTableRecord
100
AcDbViewportTableRecord
  2
*ACTIVE
 70
     0
 10
0.0
 20
0.0
 11
1.0
 21
1.0
 12
210.0
 22
148.5
 13
0.0
 23
0.0
 14
10.0
 24
10.0
 15
10.0
 25
10.0
 16
0.0
 26
0.0
 36
1.0
 17
0.0
 27
0.0
 37
0.0
 40
341.0
 41
1.24
 42
50.0
 43
0.0
 44
0.0
 50
0.0
 51
0.0
 71
     0
 72
   100
 73
     1
 74
     3
 75
     0
 76
     0
 77
     0
 78
     0
  0
ENDTAB
  0
TABLE
  2
LTYPE
  5
5
330
0
100
AcDbSymbolTable
 70
     1
  0
LTYPE
  5
14
330
5
100
AcDbSymbolTableRecord
100
AcDbLinetypeTableRecord
  2
BYBLOCK
 70
     0
  3

 72
    65
 73
     0
 40
0.0
  0
LTYPE
  5
15
330
5
100
AcDbSymbolTableRecord
100
AcDbLinetypeTableRecord
  2
BYLAYER
 70
     0
  3

 72
    65
 73
     0
 40
0.0
  0
LTYPE
  5
16
330
5
100
AcDbSymbolTableRecord
100
AcDbLinetypeTableRecord
  2
CONTINUOUS
 70
     0
  3
Solid line
 72
    65
 73
     0
 40
0.0
  0
ENDTAB
  0
TABLE
  2
LAYER
  5
2
100
AcDbSymbolTable
 70
2
  0
LAYER
  5
50
100
AcDbSymbolTableRecord
100
AcDbLayerTableRecord
  2
0
 70
0
  6
CONTINUOUS
  0
LAYER
  5
51
100
AcDbSymbolTableRecord
100
AcDbLayerTableRecord
  2
arm-rod
 70
0
  6
CONTINUOUS
  0
ENDTAB
  0
TABLE
  2
STYLE
  5
3
330
0
100
AcDbSymbolTable
 70
     1
  0
STYLE
  5
11
330
3
100
AcDbSymbolTableRecord
100
AcDbTextStyleTableRecord
  2
STANDARD
 70
     0
 40
0.0
 41
1.0
 50
0.0
 71
     0
 42
2.5
  3
txt
  4

  0
ENDTAB
  0
TABLE
  2
VIEW
  5
6
330
0
100
AcDbSymbolTable
 70
     0
  0
ENDTAB
  0
TABLE
  2
UCS
  5
7
330
0
100
AcDbSymbolTable
 70
     0
  0
ENDTAB
  0
TABLE
  2
APPID
  5
9
330
0
100
AcDbSymbolTable
 70
     2
  0
APPID
  5
12
330
9
100
AcDbSymbolTableRecord
100
AcDbRegAppTableRecord
  2
ACAD
 70
     0
  0
ENDTAB
  0
TABLE
  2
DIMSTYLE
  5
A
330
0
100
AcDbSymbolTable
 70
     1
  0
DIMSTYLE
105
27
330
A
100
AcDbSymbolTableRecord
100
AcDbDimStyleTableRecord
  2
ISO-25
 70
     0
  3

  4

  5

  6

  7

 40
1.0
 41
2.5
 42
0.625
 43
3.75
 44
1.25
 45
0.0
 46
0.0
 47
0.0
 48
0.0
140
2.5
141
2.5
142
0.0
143
0.03937007874016
144
1.0
145
0.0
146
1.0
147
0.625
 71
     0
 72
     0
 73
     0
 74
     0
 75
     0
 76
     0
 77
     1
 78
     8
170
     0
171
     3
172
     1
173
     0
174
     0
175
     0
176
     0
177
     0
178
     0
270
     2
271
     2
272
     2
273
     2
274
     3
340
11
275
     0
280
     0
281
     0
282
     0
283
     0
284
     8
285
     0
286
     0
287
     3
288
     0
  0
ENDTAB
  0
TABLE
  2
BLOCK_RECORD
  5
1
330
0
100
AcDbSymbolTable
 70
     1
  0
BLOCK_RECORD
  5
1F
330
1
100
AcDbSymbolTableRecord
100
AcDbBlockTableRecord
  2
*MODEL_SPACE
  0
BLOCK_RECORD
  5
1B
330
1
100
AcDbSymbolTableRecord
100
AcDbBlockTableRecord
  2
*PAPER_SPACE
  0
ENDTAB
  0
ENDSEC
  0
SECTION
  2
BLOCKS
  0
BLOCK
  5
20
330
1F
100
AcDbEntity
  8
0
100
AcDbBlockBegin
  2
*MODEL_SPACE
 70
     0
 10
0.0
 20
0.0
 30
0.0
  3
*MODEL_SPACE
  1

  0
ENDBLK
  5
21
330
1F
100
AcDbEntity
  8
0
100
AcDbBlockEnd
  0
BLOCK
  5
1C
330
1B
100
AcDbEntity
 67
     1
  8
0
100
AcDbBlockBegin
  2
*PAPER_SPACE
  1

  0
ENDBLK
  5
1D
330
1B
100
AcDbEntity
 67
     1
  8
0
100
AcDbBlockEnd
  0
ENDSEC
  0
SECTION
  2
ENTITIES
  0
SPLINE
  5
100
100
AcDbEntity
  8
arm-rod
 62
7
100
AcDbSpline
 70
0
 71
3
 72
16
 73
12
 74
10
 40
0.000000
 40
0.000000
 40
0.000000
 40
0.000000
 40
3.774698
 40
7.486872
 40
11.261562
 40
15.036259
 40
18.748434
 40
22.523136
 40
26.297834
 40
30.010007
 40
33.784704
 40
33.784704
 40
33.784704
 40
33.784704
 10
88.322288
 20
234.709737
 30
0.0
 10
87.050640
 20
234.778202
 30
0.0
 10
84.528410
 20
234.913997
 30
0.0
 10
80.980020
 20
233.329917
 30
0.0
 10
78.246574
 20
230.650783
 30
0.0
 10
76.704403
 20
227.121597
 30
0.0
 10
76.566790
 20
223.285450
 30
0.0
 10
77.852134
 20
219.654836
 30
0.0
 10
80.386574
 20
216.786714
 30
0.0
 10
83.812346
 20
214.952456
 30
0.0
 10
86.337823
 20
214.907185
 30
0.0
 10
87.611107
 20
214.884360
 30
0.0
 11
88.322288
 21
234.709737
 31
0.0
 11
84.548831
 21
234.612916
 31
0.0
 11
81.132913
 21
233.159735
 31
0.0
 11
78.446224
 21
230.508323
 31
0.0
 11
76.933200
 21
227.050130
 31
0.0
 11
76.800121
 21
223.340341
 31
0.0
 11
78.061473
 21
219.782623
 31
0.0
 11
80.551273
 21
216.945504
 31
0.0
 11
83.854288
 21
215.251300
 31
0.0
 11
87.611107
 21
214.884360
 31
0.0
  0
LWPOLYLINE
  5
101
100
AcDbEntity
  8
arm-rod
 62
7
100
AcDbPolyline
 90
10
 70
0
 10
87.587667
 20
214.862833
 30
0.0
 10
92.434833
 20
215.286167
 30
0.0
 10
97.282000
 20
215.603667
 30
0.0
 10
102.129167
 20
215.857667
 30
0.0
 10
106.976333
 20
216.027000
 30
0.0
 10
111.823500
 20
216.132833
 30
0.0
 10
116.691833
 20
216.154000
 30
0.0
 10
121.539000
 20
216.090500
 30
0.0
 10
126.407333
 20
215.942333
 30
0.0
 10
131.254500
 20
215.730667
 30
0.0
  0
SPLINE
  5
102
100
AcDbEntity
  8
arm-rod
 62
7
100
AcDbSpline
 70
0
 71
3
 72
16
 73
12
 74
10
 40
0.000000
 40
0.000000
 40
0.000000
 40
0.000000
 40
2.647451
 40
5.256228
 40
7.903681
 40
10.551135
 40
13.159913
 40
15.807368
 40
18.454821
 40
21.063593
 40
23.711041
 40
23.711041
 40
23.711041
 40
23.711041
 10
131.268174
 20
215.741292
 30
0.0
 10
132.158880
 20
215.785670
 30
0.0
 10
133.927280
 20
215.873777
 30
0.0
 10
136.319529
 20
217.159346
 30
0.0
 10
138.137933
 20
219.127146
 30
0.0
 10
139.155790
 20
221.621883
 30
0.0
 10
139.251970
 20
224.306638
 30
0.0
 10
138.415235
 20
226.867813
 30
0.0
 10
136.742306
 20
228.960690
 30
0.0
 10
134.448180
 20
230.414144
 30
0.0
 10
132.690618
 20
230.628550
 30
0.0
 10
131.805371
 20
230.736542
 30
0.0
 11
131.268174
 21
215.741292
 31
0.0
 11
133.895269
 21
216.068967
 31
0.0
 11
136.213815
 21
217.264819
 31
0.0
 11
138.003856
 21
219.215398
 31
0.0
 11
139.005270
 21
221.666149
 31
0.0
 11
139.098668
 21
224.273255
 31
0.0
 11
138.275187
 21
226.789382
 31
0.0
 11
136.629313
 21
228.863052
 31
0.0
 11
134.402284
 21
230.221741
 31
0.0
 11
131.805371
 21
230.736542
 31
0.0
  0
LWPOLYLINE
  5
103
100
AcDbEntity
  8
arm-rod
 62
7
100
AcDbPolyline
 90
10
 70
0
 10
131.783667
 20
230.716667
 30
0.0
 10
126.936500
 20
230.843667
 30
0.0
 10
122.089333
 20
231.055333
 30
0.0
 10
117.242167
 20
231.351667
 30
0.0
 10
112.395000
 20
231.711500
 30
0.0
 10
107.547833
 20
232.156000
 30
0.0
 10
102.721833
 20
232.685167
 30
0.0
 10
97.917000
 20
233.277833
 30
0.0
 10
93.091000
 20
233.955167
 30
0.0
 10
88.307333
 20
234.696000
 30
0.0
  0
SPLINE
  5
104
100
AcDbEntity
  8
arm-rod
 62
7
100
AcDbSpline
 70
0
 71
3
 72
16
 73
12
 74
10
 40
0.000000
 40
0.000000
 40
0.000000
 40
0.000000
 40
0.712614
 40
1.414626
 40
2.127240
 40
2.839854
 40
3.541867
 40
4.254481
 40
4.967095
 40
5.669107
 40
6.381721
 40
6.381721
 40
6.381721
 40
6.381721
 10
106.806805
 20
226.118785
 30
0.0
 10
106.566856
 20
226.110317
 30
0.0
 10
106.090527
 20
226.093506
 30
0.0
 10
105.442776
 20
225.753932
 30
0.0
 10
104.949523
 20
225.227537
 30
0.0
 10
104.673121
 20
224.556754
 30
0.0
 10
104.647192
 20
223.833890
 30
0.0
 10
104.874823
 20
223.145028
 30
0.0
 10
105.329094
 20
222.584646
 30
0.0
 10
105.950850
 20
222.199533
 30
0.0
 10
106.424750
 20
222.148638
 30
0.0
 10
106.663476
 20
222.123000
 30
0.0
 11
106.806805
 21
226.118785
 31
0.0
 11
106.098522
 21
226.040342
 31
0.0
 11
105.471306
 21
225.725029
 31
0.0
 11
104.985845
 21
225.203353
 31
0.0
 11
104.714012
 21
224.544623
 31
0.0
 11
104.688847
 21
223.843061
 31
0.0
 11
104.912785
 21
223.166548
 31
0.0
 11
105.359621
 21
222.611430
 31
0.0
 11
105.962633
 21
222.251988
 31
0.0
 11
106.663476
 21
222.123000
 31
0.0
  0
LWPOLYLINE
  5
105
100
AcDbEntity
  8
arm-rod
 62
7
100
AcDbPolyline
 90
4
 70
0
 10
106.807000
 20
226.102333
 30
0.0
 10
110.087833
 20
225.911833
 30
0.0
 10
113.368667
 20
225.806000
 30
0.0
 10
116.670667
 20
225.763667
 30
0.0
  0
SPLINE
  5
106
100
AcDbEntity
  8
arm-rod
 62
7
100
AcDbSpline
 70
0
 71
3
 72
16
 73
12
 74
10
 40
0.000000
 40
0.000000
 40
0.000000
 40
0.000000
 40
0.712614
 40
1.414626
 40
2.127240
 40
2.839854
 40
3.541867
 40
4.254481
 40
4.967095
 40
5.669107
 40
6.381721
 40
6.381721
 40
6.381721
 40
6.381721
 10
116.522695
 20
221.767882
 30
0.0
 10
116.762644
 20
221.776350
 30
0.0
 10
117.238973
 20
221.793160
 30
0.0
 10
117.886724
 20
222.132735
 30
0.0
 10
118.379977
 20
222.659129
 30
0.0
 10
118.656379
 20
223.329912
 30
0.0
 10
118.682308
 20
224.052776
 30
0.0
 10
118.454677
 20
224.741639
 30
0.0
 10
118.000406
 20
225.302021
 30
0.0
 10
117.378650
 20
225.687133
 30
0.0
 10
116.904750
 20
225.738028
 30
0.0
 10
116.666024
 20
225.763667
 30
0.0
 11
116.522695
 21
221.767882
 31
0.0
 11
117.230978
 21
221.846325
 31
0.0
 11
117.858194
 21
222.161638
 31
0.0
 11
118.343655
 21
222.683314
 31
0.0
 11
118.615488
 21
223.342044
 31
0.0
 11
118.640653
 21
224.043605
 31
0.0
 11
118.416715
 21
224.720119
 31
0.0
 11
117.969879
 21
225.275237
 31
0.0
 11
117.366867
 21
225.634678
 31
0.0
 11
116.666024
 21
225.763667
 31
0.0
  0
SPLINE
  5
107
100
AcDbEntity
  8
arm-rod
 62
7
100
AcDbSpline
 70
0
 71
3
 72
19
 73
15
 74
13
 40
0.000000
 40
0.000000
 40
0.000000
 40
0.000000
 40
0.780245
 40
1.537337
 40
2.317572
 40
3.097807
 40
3.854899
 40
4.635144
 40
5.415389
 40
6.172481
 40
6.952716
 40
7.732950
 40
8.490043
 40
9.270288
 40
9.270288
 40
9.270288
 40
9.270288
 10
85.428667
 20
231.849083
 30
0.0
 10
85.469680
 20
231.586021
 30
0.0
 10
85.550490
 20
231.067702
 30
0.0
 10
86.144584
 20
230.497080
 30
0.0
 10
86.919547
 20
230.285654
 30
0.0
 10
87.702646
 20
230.497080
 30
0.0
 10
88.272815
 20
231.067702
 30
0.0
 10
88.484400
 20
231.849083
 30
0.0
 10
88.272815
 20
232.630464
 30
0.0
 10
87.702646
 20
233.201087
 30
0.0
 10
86.919547
 20
233.412512
 30
0.0
 10
86.144584
 20
233.201087
 30
0.0
 10
85.550490
 20
232.630464
 30
0.0
 10
85.469680
 20
232.112146
 30
0.0
 10
85.428667
 20
231.849083
 30
0.0
 11
85.428667
 21
231.849083
 31
0.0
 11
85.632403
 21
231.095907
 31
0.0
 11
86.167750
 21
230.560565
 31
0.0
 11
86.920917
 21
230.356833
 31
0.0
 11
87.674083
 21
230.560565
 31
0.0
 11
88.209430
 21
231.095907
 31
0.0
 11
88.413167
 21
231.849083
 31
0.0
 11
88.209430
 21
232.602259
 31
0.0
 11
87.674083
 21
233.137602
 31
0.0
 11
86.920917
 21
233.341333
 31
0.0
 11
86.167750
 21
233.137602
 31
0.0
 11
85.632403
 21
232.602259
 31
0.0
 11
85.428667
 21
231.849083
 31
0.0
  0
SPLINE
  5
108
100
AcDbEntity
  8
arm-rod
 62
7
100
AcDbSpline
 70
0
 71
3
 72
19
 73
15
 74
13
 40
0.000000
 40
0.000000
 40
0.000000
 40
0.000000
 40
0.780245
 40
1.537337
 40
2.317572
 40
3.097807
 40
3.854899
 40
4.635144
 40
5.415389
 40
6.172481
 40
6.952716
 40
7.732950
 40
8.490043
 40
9.270288
 40
9.270288
 40
9.270288
 40
9.270288
 10
78.189667
 20
225.096917
 30
0.0
 10
78.230680
 20
224.833854
 30
0.0
 10
78.311490
 20
224.315536
 30
0.0
 10
78.905584
 20
223.744913
 30
0.0
 10
79.680547
 20
223.533488
 30
0.0
 10
80.463646
 20
223.744913
 30
0.0
 10
81.033815
 20
224.315536
 30
0.0
 10
81.245400
 20
225.096917
 30
0.0
 10
81.033815
 20
225.878298
 30
0.0
 10
80.463646
 20
226.448920
 30
0.0
 10
79.680547
 20
226.660346
 30
0.0
 10
78.905584
 20
226.448920
 30
0.0
 10
78.311490
 20
225.878298
 30
0.0
 10
78.230680
 20
225.359979
 30
0.0
 10
78.189667
 20
225.096917
 30
0.0
 11
78.189667
 21
225.096917
 31
0.0
 11
78.393403
 21
224.343741
 31
0.0
 11
78.928750
 21
223.808398
 31
0.0
 11
79.681917
 21
223.604667
 31
0.0
 11
80.435083
 21
223.808398
 31
0.0
 11
80.970430
 21
224.343741
 31
0.0
 11
81.174167
 21
225.096917
 31
0.0
 11
80.970430
 21
225.850093
 31
0.0
 11
80.435083
 21
226.385435
 31
0.0
 11
79.681917
 21
226.589167
 31
0.0
 11
78.928750
 21
226.385435
 31
0.0
 11
78.393403
 21
225.850093
 31
0.0
 11
78.189667
 21
225.096917
 31
0.0
  0
SPLINE
  5
109
100
AcDbEntity
  8
arm-rod
 62
7
100
AcDbSpline
 70
0
 71
3
 72
19
 73
15
 74
13
 40
0.000000
 40
0.000000
 40
0.000000
 40
0.000000
 40
0.780245
 40
1.537337
 40
2.317572
 40
3.097807
 40
3.854899
 40
4.635144
 40
5.415389
 40
6.172481
 40
6.952716
 40
7.732950
 40
8.490043
 40
9.270288
 40
9.270288
 40
9.270288
 40
9.270288
 10
84.941833
 20
217.836750
 30
0.0
 10
84.982847
 20
217.573688
 30
0.0
 10
85.063657
 20
217.055369
 30
0.0
 10
85.657751
 20
216.484746
 30
0.0
 10
86.432714
 20
216.273321
 30
0.0
 10
87.215813
 20
216.484746
 30
0.0
 10
87.785981
 20
217.055369
 30
0.0
 10
87.997566
 20
217.836750
 30
0.0
 10
87.785981
 20
218.618131
 30
0.0
 10
87.215813
 20
219.188754
 30
0.0
 10
86.432714
 20
219.400179
 30
0.0
 10
85.657751
 20
219.188754
 30
0.0
 10
85.063657
 20
218.618131
 30
0.0
 10
84.982847
 20
218.099812
 30
0.0
 10
84.941833
 20
217.836750
 30
0.0
 11
84.941833
 21
217.836750
 31
0.0
 11
85.145570
 21
217.083574
 31
0.0
 11
85.680917
 21
216.548232
 31
0.0
 11
86.434083
 21
216.344500
 31
0.0
 11
87.187250
 21
216.548232
 31
0.0
 11
87.722597
 21
217.083574
 31
0.0
 11
87.926333
 21
217.836750
 31
0.0
 11
87.722597
 21
218.589926
 31
0.0
 11
87.187250
 21
219.125268
 31
0.0
 11
86.434083
 21
219.329000
 31
0.0
 11
85.680917
 21
219.125268
 31
0.0
 11
85.145570
 21
218.589926
 31
0.0
 11
84.941833
 21
217.836750
 31
0.0
  0
SPLINE
  5
10a
100
AcDbEntity
  8
arm-rod
 62
7
100
AcDbSpline
 70
0
 71
3
 72
19
 73
15
 74
13
 40
0.000000
 40
0.000000
 40
0.000000
 40
0.000000
 40
2.097232
 40
4.132259
 40
6.229493
 40
8.326726
 40
10.361754
 40
12.458985
 40
14.556217
 40
16.591244
 40
18.688478
 40
20.785712
 40
22.820739
 40
24.917971
 40
24.917971
 40
24.917971
 40
24.917971
 10
127.656167
 20
223.234250
 30
0.0
 10
127.766410
 20
222.527162
 30
0.0
 10
127.983627
 20
221.133959
 30
0.0
 10
129.580507
 20
219.600154
 30
0.0
 10
131.663569
 20
219.031835
 30
0.0
 10
133.768500
 20
219.600154
 30
0.0
 10
135.301067
 20
221.133959
 30
0.0
 10
135.869806
 20
223.234250
 30
0.0
 10
135.301067
 20
225.334541
 30
0.0
 10
133.768500
 20
226.868346
 30
0.0
 10
131.663569
 20
227.436665
 30
0.0
 10
129.580507
 20
226.868346
 30
0.0
 10
127.983627
 20
225.334541
 30
0.0
 10
127.766410
 20
223.941338
 30
0.0
 10
127.656167
 20
223.234250
 30
0.0
 11
127.656167
 21
223.234250
 31
0.0
 11
128.203796
 21
221.209779
 31
0.0
 11
129.642777
 21
219.770797
 31
0.0
 11
131.667250
 21
219.223167
 31
0.0
 11
133.691723
 21
219.770797
 31
0.0
 11
135.130704
 21
221.209779
 31
0.0
 11
135.678333
 21
223.234250
 31
0.0
 11
135.130704
 21
225.258721
 31
0.0
 11
133.691723
 21
226.697703
 31
0.0
 11
131.667250
 21
227.245333
 31
0.0
 11
129.642777
 21
226.697703
 31
0.0
 11
128.203796
 21
225.258721
 31
0.0
 11
127.656167
 21
223.234250
 31
0.0
  0
SPLINE
  5
10b
100
AcDbEntity
  8
arm-rod
 62
7
100
AcDbSpline
 70
0
 71
3
 72
19
 73
15
 74
13
 40
0.000000
 40
0.000000
 40
0.000000
 40
0.000000
 40
0.780245
 40
1.537337
 40
2.317572
 40
3.097807
 40
3.854899
 40
4.635144
 40
5.415389
 40
6.172481
 40
6.952716
 40
7.732950
 40
8.490043
 40
9.270288
 40
9.270288
 40
9.270288
 40
9.270288
 10
92.180833
 20
224.588917
 30
0.0
 10
92.221847
 20
224.325854
 30
0.0
 10
92.302657
 20
223.807536
 30
0.0
 10
92.896751
 20
223.236913
 30
0.0
 10
93.671714
 20
223.025488
 30
0.0
 10
94.454813
 20
223.236913
 30
0.0
 10
95.024981
 20
223.807536
 30
0.0
 10
95.236566
 20
224.588917
 30
0.0
 10
95.024981
 20
225.370298
 30
0.0
 10
94.454813
 20
225.940920
 30
0.0
 10
93.671714
 20
226.152346
 30
0.0
 10
92.896751
 20
225.940920
 30
0.0
 10
92.302657
 20
225.370298
 30
0.0
 10
92.221847
 20
224.851979
 30
0.0
 10
92.180833
 20
224.588917
 30
0.0
 11
92.180833
 21
224.588917
 31
0.0
 11
92.384570
 21
223.835741
 31
0.0
 11
92.919917
 21
223.300398
 31
0.0
 11
93.673083
 21
223.096667
 31
0.0
 11
94.426250
 21
223.300398
 31
0.0
 11
94.961597
 21
223.835741
 31
0.0
 11
95.165333
 21
224.588917
 31
0.0
 11
94.961597
 21
225.342093
 31
0.0
 11
94.426250
 21
225.877435
 31
0.0
 11
93.673083
 21
226.081167
 31
0.0
 11
92.919917
 21
225.877435
 31
0.0
 11
92.384570
 21
225.342093
 31
0.0
 11
92.180833
 21
224.588917
 31
0.0
  0
SPLINE
  5
10c
100
AcDbEntity
  8
arm-rod
 62
7
100
AcDbSpline
 70
0
 71
3
 72
19
 73
15
 74
13
 40
0.000000
 40
0.000000
 40
0.000000
 40
0.000000
 40
0.780245
 40
1.537337
 40
2.317572
 40
3.097807
 40
3.854899
 40
4.635144
 40
5.415389
 40
6.172481
 40
6.952716
 40
7.732950
 40
8.490043
 40
9.270288
 40
9.270288
 40
9.270288
 40
9.270288
 10
85.195833
 20
224.842917
 30
0.0
 10
85.236847
 20
224.579854
 30
0.0
 10
85.317657
 20
224.061536
 30
0.0
 10
85.911751
 20
223.490913
 30
0.0
 10
86.686714
 20
223.279488
 30
0.0
 10
87.469813
 20
223.490913
 30
0.0
 10
88.039981
 20
224.061536
 30
0.0
 10
88.251566
 20
224.842917
 30
0.0
 10
88.039981
 20
225.624298
 30
0.0
 10
87.469813
 20
226.194920
 30
0.0
 10
86.686714
 20
226.406346
 30
0.0
 10
85.911751
 20
226.194920
 30
0.0
 10
85.317657
 20
225.624298
 30
0.0
 10
85.236847
 20
225.105979
 30
0.0
 10
85.195833
 20
224.842917
 30
0.0
 11
85.195833
 21
224.842917
 31
0.0
 11
85.399570
 21
224.089741
 31
0.0
 11
85.934917
 21
223.554398
 31
0.0
 11
86.688083
 21
223.350667
 31
0.0
 11
87.441250
 21
223.554398
 31
0.0
 11
87.976597
 21
224.089741
 31
0.0
 11
88.180333
 21
224.842917
 31
0.0
 11
87.976597
 21
225.596093
 31
0.0
 11
87.441250
 21
226.131435
 31
0.0
 11
86.688083
 21
226.335167
 31
0.0
 11
85.934917
 21
226.131435
 31
0.0
 11
85.399570
 21
225.596093
 31
0.0
 11
85.195833
 21
224.842917
 31
0.0
  0
SPLINE
  5
10d
100
AcDbEntity
  8
arm-rod
 62
7
100
AcDbSpline
 70
0
 71
3
 72
19
 73
15
 74
13
 40
0.000000
 40
0.000000
 40
0.000000
 40
0.000000
 40
0.780245
 40
1.537337
 40
2.317572
 40
3.097807
 40
3.854899
 40
4.635144
 40
5.415389
 40
6.172481
 40
6.952716
 40
7.732950
 40
8.490043
 40
9.270288
 40
9.270288
 40
9.270288
 40
9.270288
 10
134.620000
 20
250.814417
 30
0.0
 10
134.661013
 20
250.551354
 30
0.0
 10
134.741823
 20
250.033036
 30
0.0
 10
135.335918
 20
249.462413
 30
0.0
 10
136.110880
 20
249.250988
 30
0.0
 10
136.893979
 20
249.462413
 30
0.0
 10
137.464148
 20
250.033036
 30
0.0
 10
137.675733
 20
250.814417
 30
0.0
 10
137.464148
 20
251.595798
 30
0.0
 10
136.893979
 20
252.166420
 30
0.0
 10
136.110880
 20
252.377846
 30
0.0
 10
135.335918
 20
252.166420
 30
0.0
 10
134.741823
 20
251.595798
 30
0.0
 10
134.661013
 20
251.077479
 30
0.0
 10
134.620000
 20
250.814417
 30
0.0
 11
134.620000
 21
250.814417
 31
0.0
 11
134.823736
 21
250.061241
 31
0.0
 11
135.359084
 21
249.525898
 31
0.0
 11
136.112250
 21
249.322167
 31
0.0
 11
136.865416
 21
249.525898
 31
0.0
 11
137.400764
 21
250.061241
 31
0.0
 11
137.604500
 21
250.814417
 31
0.0
 11
137.400764
 21
251.567593
 31
0.0
 11
136.865416
 21
252.102935
 31
0.0
 11
136.112250
 21
252.306667
 31
0.0
 11
135.359084
 21
252.102935
 31
0.0
 11
134.823736
 21
251.567593
 31
0.0
 11
134.620000
 21
250.814417
 31
0.0
  0
LWPOLYLINE
  5
10e
100
AcDbEntity
  8
arm-rod
 62
7
100
AcDbPolyline
 90
4
 70
0
 10
116.522500
 20
221.763167
 30
0.0
 10
113.241667
 20
221.953667
 30
0.0
 10
109.939667
 20
222.059500
 30
0.0
 10
106.658833
 20
222.123000
 30
0.0
  0
LWPOLYLINE
  5
10f
100
AcDbEntity
  8
arm-rod
 62
7
100
AcDbPolyline
 90
4
 70
1
 10
150.960667
 20
233.849333
 30
0.0
 10
154.008667
 20
229.870000
 30
0.0
 10
151.616833
 20
228.049667
 30
0.0
 10
148.568833
 20
232.029000
 30
0.0
  0
SPLINE
  5
110
100
AcDbEntity
  8
arm-rod
 62
7
100
AcDbSpline
 70
0
 71
3
 72
19
 73
15
 74
13
 40
0.000000
 40
0.000000
 40
0.000000
 40
0.000000
 40
0.780240
 40
1.537334
 40
2.317570
 40
3.097805
 40
3.854899
 40
4.635139
 40
5.415384
 40
6.172476
 40
6.952711
 40
7.732946
 40
8.490038
 40
9.270283
 40
9.270283
 40
9.270283
 40
9.270283
 10
164.994167
 20
211.105750
 30
0.0
 10
165.035181
 20
210.842689
 30
0.0
 10
165.115992
 20
210.324372
 30
0.0
 10
165.710084
 20
209.753749
 30
0.0
 10
166.485047
 20
209.542320
 30
0.0
 10
167.268147
 20
209.753749
 30
0.0
 10
167.838313
 20
210.324372
 30
0.0
 10
168.049900
 20
211.105751
 30
0.0
 10
167.838315
 20
211.887131
 30
0.0
 10
167.268146
 20
212.457753
 30
0.0
 10
166.485047
 20
212.669179
 30
0.0
 10
165.710084
 20
212.457754
 30
0.0
 10
165.115990
 20
211.887131
 30
0.0
 10
165.035180
 20
211.368812
 30
0.0
 10
164.994167
 20
211.105750
 30
0.0
 11
164.994167
 21
211.105750
 31
0.0
 11
165.197903
 21
210.352579
 31
0.0
 11
165.733250
 21
209.817234
 31
0.0
 11
166.486417
 21
209.613500
 31
0.0
 11
167.239583
 21
209.817234
 31
0.0
 11
167.774930
 21
210.352579
 31
0.0
 11
167.978667
 21
211.105750
 31
0.0
 11
167.774930
 21
211.858926
 31
0.0
 11
167.239583
 21
212.394268
 31
0.0
 11
166.486417
 21
212.598000
 31
0.0
 11
165.733250
 21
212.394268
 31
0.0
 11
165.197903
 21
211.858926
 31
0.0
 11
164.994167
 21
211.105750
 31
0.0
  0
LWPOLYLINE
  5
111
100
AcDbEntity
  8
arm-rod
 62
7
100
AcDbPolyline
 90
11
 70
0
 10
130.513667
 20
245.787333
 30
0.0
 10
133.773333
 20
242.125500
 30
0.0
 10
136.948333
 20
238.421333
 30
0.0
 10
140.081000
 20
234.674833
 30
0.0
 10
143.129000
 20
230.864833
 30
0.0
 10
146.134667
 20
227.012500
 30
0.0
 10
149.076833
 20
223.096667
 30
0.0
 10
151.955500
 20
219.159667
 30
0.0
 10
154.749500
 20
215.159167
 30
0.0
 10
157.501167
 20
211.116333
 30
0.0
 10
160.168167
 20
207.031167
 30
0.0
  0
SPLINE
  5
112
100
AcDbEntity
  8
arm-rod
 62
7
100
AcDbSpline
 70
0
 71
3
 72
16
 73
12
 74
10
 40
0.000000
 40
0.000000
 40
0.000000
 40
0.000000
 40
2.753997
 40
5.464678
 40
8.218667
 40
10.972652
 40
13.683329
 40
16.437319
 40
19.191318
 40
21.901998
 40
24.655988
 40
24.655988
 40
24.655988
 40
24.655988
 10
142.423039
 20
254.873675
 30
0.0
 10
141.840040
 20
255.596344
 30
0.0
 10
140.683213
 20
257.030314
 30
0.0
 10
138.111413
 20
258.213261
 30
0.0
 10
135.331478
 20
258.452014
 30
0.0
 10
132.639603
 20
257.656801
 30
0.0
 10
130.417234
 20
255.956813
 30
0.0
 10
128.945185
 20
253.566905
 30
0.0
 10
128.448073
 20
250.821370
 30
0.0
 10
128.916696
 20
248.029614
 30
0.0
 10
129.997916
 20
246.537812
 30
0.0
 10
130.542811
 20
245.786000
 30
0.0
 11
142.423039
 21
254.873675
 31
0.0
 11
140.533545
 21
256.877250
 31
0.0
 11
138.090913
 21
258.052554
 31
0.0
 11
135.346230
 21
258.278778
 31
0.0
 11
132.704705
 21
257.499819
 31
0.0
 11
130.551701
 21
255.852899
 31
0.0
 11
129.108532
 21
253.507325
 31
0.0
 11
128.608540
 21
250.799093
 31
0.0
 11
129.103596
 21
248.134003
 31
0.0
 11
130.542811
 21
245.786000
 31
0.0
  0
SPLINE
  5
113
100
AcDbEntity
  8
arm-rod
 62
7
100
AcDbSpline
 70
0
 71
3
 72
16
 73
12
 74
10
 40
0.000000
 40
0.000000
 40
0.000000
 40
0.000000
 40
2.753992
 40
5.464673
 40
8.218664
 40
10.972652
 40
13.683333
 40
16.437331
 40
19.191320
 40
21.901999
 40
24.655991
 40
24.655991
 40
24.655991
 40
24.655991
 10
160.175628
 20
207.046483
 30
0.0
 10
160.758627
 20
206.323818
 30
0.0
 10
161.915457
 20
204.889852
 30
0.0
 10
164.487253
 20
203.706904
 30
0.0
 10
167.267190
 20
203.468136
 30
0.0
 10
169.959064
 20
204.263369
 30
0.0
 10
172.181434
 20
205.963359
 30
0.0
 10
173.653493
 20
208.353263
 30
0.0
 10
174.150596
 20
211.098801
 30
0.0
 10
173.681970
 20
213.890552
 30
0.0
 10
172.600749
 20
215.382354
 30
0.0
 10
172.055853
 20
216.134167
 30
0.0
 11
160.175628
 21
207.046483
 31
0.0
 11
162.065122
 21
205.042916
 31
0.0
 11
164.507754
 21
203.867608
 31
0.0
 11
167.252436
 21
203.641378
 31
0.0
 11
169.893962
 21
204.420348
 31
0.0
 11
172.046968
 21
206.067271
 31
0.0
 11
173.490145
 21
208.412850
 31
0.0
 11
173.990130
 21
211.121074
 31
0.0
 11
173.495071
 21
213.786162
 31
0.0
 11
172.055853
 21
216.134167
 31
0.0
  0
LWPOLYLINE
  5
114
100
AcDbEntity
  8
arm-rod
 62
7
100
AcDbPolyline
 90
11
 70
0
 10
172.063833
 20
216.111667
 30
0.0
 10
168.804167
 20
219.773500
 30
0.0
 10
165.629167
 20
223.477667
 30
0.0
 10
162.496500
 20
227.224167
 30
0.0
 10
159.448500
 20
231.034167
 30
0.0
 10
156.442833
 20
234.886500
 30
0.0
 10
153.500667
 20
238.802333
 30
0.0
 10
150.622000
 20
242.739333
 30
0.0
 10
147.828000
 20
246.739833
 30
0.0
 10
145.076333
 20
250.782667
 30
0.0
 10
142.409333
 20
254.867833
 30
0.0
  0
ENDSEC
  0
SECTION
  2
OBJECTS
  0
DICTIONARY
  5
C
330
0
100
AcDbDictionary
  3
ACAD_GROUP
350
D
  3
ACAD_MLINESTYLE
350
17
  0
DICTIONARY
  5
D
330
C
100
AcDbDictionary
  0
DICTIONARY
  5
1A
330
C
100
AcDbDictionary
  0
DICTIONARY
  5
17
330
C
100
AcDbDictionary
  3
STANDARD
350
18
  0
DICTIONARY
  5
19
330
C
100
AcDbDictionary
  0
ENDSEC
  0
EOF
