999
dxfrw 0.6.3
  0
SECTION
  2
HEADER
  9
$ACADVER
  1
AC1021
  9
$DWGCODEPAGE
  3
ANSI_1252
  9
$INSBASE
 10
0
 20
0
 30
0
  9
$EXTMIN
 10
-462.5
 20
-825
 30
0
  9
$EXTMAX
 10
1121.309293949383
 20
1591.985708865581
 30
0
  9
$LIMMIN
 10
0
 20
0
  9
$LIMMAX
 10
420
 20
297
  9
$ORTHOMODE
 70
    0
  9
$REGENMODE
 70
    1
  9
$FILLMODE
 70
    1
  9
$QTEXTMODE
 70
    0
  9
$MIRRTEXT
 70
    0
  9
$LTSCALE
 40
1
  9
$ATTMODE
 70
    0
  9
$TEXTSIZE
 40
2.5
  9
$TRACEWID
 40
15.68
  9
$TEXTSTYLE
  7
STANDARD
  9
$CLAYER
  8
0
  9
$CELTYPE
  6
BYLAYER
  9
$CECOLOR
 62
  256
  9
$CELTSCALE
 40
1
  9
$DISPSILH
 70
    0
  9
$DIMSCALE
 40
20
  9
$DIMASZ
 40
2.5
  9
$DIMEXO
 40
0.625
  9
$DIMDLI
 40
3.75
  9
$DIMRND
 40
0
  9
$DIMDLE
 40
0
  9
$DIMEXE
 40
1.25
  9
$DIMTP
 40
0
  9
$DIMTM
 40
0
  9
$DIMTXT
 40
2.5
  9
$DIMCEN
 40
2.5
  9
$DIMTSZ
 40
0
  9
$DIMTOL
 70
    0
  9
$DIMLIM
 70
    0
  9
$DIMTIH
 70
    0
  9
$DIMTOH
 70
    0
  9
$DIMSE1
 70
    0
  9
$DIMSE2
 70
    0
  9
$DIMTAD
 70
    1
  9
$DIMZIN
 70
    8
  9
$DIMBLK
  1

  9
$DIMASO
 70
    1
  9
$DIMSHO
 70
    1
  9
$DIMPOST
  1

  9
$DIMAPOST
  1

  9
$DIMALT
 70
    0
  9
$DIMALTD
 70
    3
  9
$DIMALTF
 40
0.03937
  9
$DIMLFAC
 40
1
  9
$DIMTOFL
 70
    1
  9
$DIMTVP
 40
0
  9
$DIMTIX
 70
    0
  9
$DIMSOXD
 70
    0
  9
$DIMSAH
 70
    0
  9
$DIMBLK1
  1

  9
$DIMBLK2
  1

  9
$DIMSTYLE
  2
Standard
  9
$DIMCLRD
 70
    0
  9
$DIMCLRE
 70
    0
  9
$DIMCLRT
 70
    0
  9
$DIMTFAC
 40
1
  9
$DIMGAP
 40
0.625
  9
$DIMJUST
 70
    0
  9
$DIMSD1
 70
    0
  9
$DIMSD2
 70
    0
  9
$DIMTOLJ
 70
    0
  9
$DIMTZIN
 70
    8
  9
$DIMALTZ
 70
    0
  9
$DIMALTTZ
 70
    0
  9
$DIMUPT
 70
    0
  9
$DIMDEC
 70
    2
  9
$DIMTDEC
 70
    2
  9
$DIMALTU
 70
    2
  9
$DIMALTTD
 70
    3
  9
$DIMTXSTY
  7
standard
  9
$DIMAUNIT
 70
    0
  9
$DIMADEC
 70
    0
  9
$DIMALTRND
 40
0
  9
$DIMAZIN
 70
    0
  9
$DIMDSEP
 70
   44
  9
$DIMATFIT
 70
    3
  9
$DIMFRAC
 70
    0
  9
$DIMLDRBLK
  1
STANDARD
  9
$DIMLUNIT
 70
    2
  9
$DIMLWD
 70
   -2
  9
$DIMLWE
 70
   -2
  9
$DIMTMOVE
 70
    0
  9
$DIMFXL
 40
1
  9
$DIMFXLON
 70
    0
  9
$DIMJOGANG
 40
0.7854
  9
$DIMTFILL
 70
    0
  9
$DIMTFILLCLR
 70
    0
  9
$DIMARCSYM
 70
    0
  9
$DIMLTYPE
  6

  9
$DIMLTEX1
  6

  9
$DIMLTEX2
  6

  9
$LUNITS
 70
    2
  9
$LUPREC
 70
    4
  9
$SKETCHINC
 40
1
  9
$FILLETRAD
 40
0
  9
$AUNITS
 70
    0
  9
$AUPREC
 70
    2
  9
$MENU
  1
.
  9
$ELEVATION
 40
0
  9
$PELEVATION
 40
0
  9
$THICKNESS
 40
0
  9
$LIMCHECK
 70
    0
  9
$CHAMFERA
 40
0
  9
$CHAMFERB
 40
0
  9
$CHAMFERC
 40
0
  9
$CHAMFERD
 40
0
  9
$SKPOLY
 70
    0
  9
$USRTIMER
 70
    1
  9
$ANGBASE
 50
0
  9
$ANGDIR
 70
    0
  9
$PDMODE
 70
   34
  9
$PDSIZE
 40
0
  9
$PLINEWID
 40
0
  9
$SPLFRAME
 70
    0
  9
$SPLINETYPE
 70
    2
  9
$SPLINESEGS
 70
    8
  9
$HANDSEED
  5
20000
  9
$SURFTAB1
 70
    6
  9
$SURFTAB2
 70
    6
  9
$SURFTYPE
 70
    6
  9
$SURFU
 70
    6
  9
$SURFV
 70
    6
  9
$UCSBASE
  2

  9
$UCSNAME
  2

  9
$UCSORG
 10
0
 20
0
 30
0
  9
$UCSXDIR
 10
1
 20
0
 30
0
  9
$UCSYDIR
 10
0
 20
1
 30
0
  9
$UCSORTHOREF
  2

  9
$UCSORTHOVIEW
 70
    0
  9
$UCSORGTOP
 10
0
 20
0
 30
0
  9
$UCSORGBOTTOM
 10
0
 20
0
 30
0
  9
$UCSORGLEFT
 10
0
 20
0
 30
0
  9
$UCSORGRIGHT
 10
0
 20
0
 30
0
  9
$UCSORGFRONT
 10
0
 20
0
 30
0
  9
$UCSORGBACK
 10
0
 20
0
 30
0
  9
$PUCSBASE
  2

  9
$PUCSNAME
  2

  9
$PUCSORG
 10
0
 20
0
 30
0
  9
$PUCSXDIR
 10
1
 20
0
 30
0
  9
$PUCSYDIR
 10
0
 20
1
 30
0
  9
$PUCSORTHOREF
  2

  9
$PUCSORTHOVIEW
 70
    0
  9
$PUCSORGTOP
 10
0
 20
0
 30
0
  9
$PUCSORGBOTTOM
 10
0
 20
0
 30
0
  9
$PUCSORGLEFT
 10
0
 20
0
 30
0
  9
$PUCSORGRIGHT
 10
0
 20
0
 30
0
  9
$PUCSORGFRONT
 10
0
 20
0
 30
0
  9
$PUCSORGBACK
 10
0
 20
0
 30
0
  9
$USERI1
 70
    0
  9
$USERI2
 70
    0
  9
$USERI3
 70
    0
  9
$USERI4
 70
    0
  9
$USERI5
 70
    0
  9
$USERR1
 40
0
  9
$USERR2
 40
0
  9
$USERR3
 40
0
  9
$USERR4
 40
0
  9
$USERR5
 40
0
  9
$WORLDVIEW
 70
    1
  9
$SHADEDGE
 70
    3
  9
$SHADEDIF
 70
   70
  9
$TILEMODE
 70
    1
  9
$MAXACTVP
 70
   64
  9
$PINSBASE
 10
0
 20
0
 30
0
  9
$PLIMCHECK
 70
    0
  9
$PEXTMIN
 10
0
 20
0
 30
0
  9
$PEXTMAX
 10
0
 20
0
 30
0
  9
$GRIDMODE
 70
    1
  9
$SNAPSTYLE
 70
    0
  9
$GRIDUNIT
 10
0
 20
0
  9
$PLIMMIN
 10
0
 20
0
  9
$PLIMMAX
 10
210
 20
297
  9
$UNITMODE
 70
    0
  9
$VISRETAIN
 70
    1
  9
$PLINEGEN
 70
    0
  9
$PSLTSCALE
 70
    1
  9
$TREEDEPTH
 70
 3020
  9
$CMLSTYLE
  2
Standard
  9
$CMLJUST
 70
    0
  9
$CMLSCALE
 40
20
  9
$PROXYGRAPHICS
 70
    1
  9
$MEASUREMENT
 70
    1
  9
$CELWEIGHT
370
   -1
  9
$ENDCAPS
280
    0
  9
$JOINSTYLE
280
    0
  9
$LWDISPLAY
290
    0
  9
$INSUNITS
 70
    4
  9
$HYPERLINKBASE
  1

  9
$STYLESHEET
  1

  9
$XEDIT
290
    1
  9
$CEPSNTYPE
380
    0
  9
$PSTYLEMODE
290
    1
  9
$EXTNAMES
290
    1
  9
$PSVPSCALE
 40
1
  9
$OLESTARTUP
290
    0
  9
$SORTENTS
280
  127
  9
$INDEXCTL
280
    0
  9
$HIDETEXT
280
    1
  9
$XCLIPFRAME
290
    0
  9
$HALOGAP
280
    0
  9
$OBSCOLOR
 70
  257
  9
$OBSLTYPE
280
    0
  9
$INTERSECTIONDISPLAY
280
    0
  9
$INTERSECTIONCOLOR
 70
  257
  9
$DIMASSOC
280
    1
  9
$PROJECTNAME
  1

  9
$CAMERADISPLAY
290
    0
  9
$LENSLENGTH
 40
50
  9
$CAMERAHEIGHT
 40
0
  9
$STEPSPERSEC
 40
2
  9
$STEPSIZE
 40
50
  9
$3DDWFPREC
 40
2
  9
$PSOLWIDTH
 40
5
  9
$PSOLHEIGHT
 40
80
  9
$LOFTANG1
 40
1.570796326794897
  9
$LOFTANG2
 40
1.570796326794897
  9
$LOFTMAG1
 40
0
  9
$LOFTMAG2
 40
0
  9
$LOFTPARAM
 70
    7
  9
$LOFTNORMALS
280
    1
  9
$LATITUDE
 40
1
  9
$LONGITUDE
 40
1
  9
$NORTHDIRECTION
 40
0
  9
$TIMEZONE
 70
-8000
  9
$LIGHTGLYPHDISPLAY
280
    1
  9
$TILEMODELIGHTSYNCH
280
    1
  9
$SOLIDHIST
280
    1
  9
$SHOWHIST
280
    1
  9
$DWFFRAME
280
    2
  9
$DGNFRAME
280
    0
  9
$REALWORLDSCALE
290
    1
  9
$INTERFERECOLOR
 62
    1
  9
$CSHADOW
280
    0
  9
$SHADOWPLANELOCATION
 40
0
  0
ENDSEC
  0
SECTION
  2
CLASSES
  0
ENDSEC
  0
SECTION
  2
TABLES
  0
TABLE
  2
VPORT
  5
8
330
0
100
AcDbSymbolTable
 70
    1
  0
VPORT
  5
31
330
2
100
AcDbSymbolTableRecord
100
AcDbViewportTableRecord
  2
*ACTIVE
 70
    0
 10
0
 20
0
 11
1
 21
1
 12
225.8882718353106
 22
352.787614003088
 13
0
 23
0
 14
10
 24
10
 15
10
 25
10
 16
0
 26
0
 36
1
 17
0
 27
0
 37
0
 40
289.151873502531
 41
2.002574002574002
 42
50
 43
0
 44
0
 50
0
 51
0
 71
    0
 72
  100
 73
    1
 74
    3
 75
    0
 76
    1
 77
    0
 78
    0
281
    0
 65
    1
110
0
120
0
130
0
111
1
121
0
131
0
112
0
122
1
132
0
 79
    0
146
0
348
10020
 60
    7
 61
    5
292
1
282
    1
141
0
142
0
 63
  250
421
3358443
  0
ENDTAB
  0
TABLE
  2
LTYPE
  5
5
330
0
100
AcDbSymbolTable
 70
    4
  0
LTYPE
  5
14
330
5
100
AcDbSymbolTableRecord
100
AcDbLinetypeTableRecord
  2
ByBlock
 70
    0
  3

 72
   65
 73
    0
 40
0
  0
LTYPE
  5
15
330
5
100
AcDbSymbolTableRecord
100
AcDbLinetypeTableRecord
  2
ByLayer
 70
    0
  3

 72
   65
 73
    0
 40
0
  0
LTYPE
  5
16
330
5
100
AcDbSymbolTableRecord
100
AcDbLinetypeTableRecord
  2
Continuous
 70
    0
  3
Solid line
 72
   65
 73
    0
 40
0
  0
LTYPE
  5
32
330
5
100
AcDbSymbolTableRecord
100
AcDbLinetypeTableRecord
  2
DOT
 70
    0
  3
Dot . . . . . . . . . . . . . . . . . . . . . .
 72
   65
 73
    2
 40
6.35
 49
0
 74
    0
 49
-6.35
 74
    0
  0
LTYPE
  5
33
330
5
100
AcDbSymbolTableRecord
100
AcDbLinetypeTableRecord
  2
DOTTINY
 70
    0
  3
Dot (.15x) .....................................
 72
   65
 73
    2
 40
0.9525
 49
0
 74
    0
 49
-0.9525
 74
    0
  0
LTYPE
  5
34
330
5
100
AcDbSymbolTableRecord
100
AcDbLinetypeTableRecord
  2
DOT2
 70
    0
  3
Dot (.5x) .....................................
 72
   65
 73
    2
 40
3.175
 49
0
 74
    0
 49
-3.175
 74
    0
  0
LTYPE
  5
35
330
5
100
AcDbSymbolTableRecord
100
AcDbLinetypeTableRecord
  2
DOTX2
 70
    0
  3
Dot (2x) .  .  .  .  .  .  .  .  .  .  .  .  .
 72
   65
 73
    2
 40
12.7
 49
0
 74
    0
 49
-12.7
 74
    0
  0
LTYPE
  5
36
330
5
100
AcDbSymbolTableRecord
100
AcDbLinetypeTableRecord
  2
DASHED
 70
    0
  3
Dashed _ _ _ _ _ _ _ _ _ _ _ _ _ _ _ _ _
 72
   65
 73
    2
 40
19.05
 49
12.7
 74
    0
 49
-6.35
 74
    0
  0
LTYPE
  5
37
330
5
100
AcDbSymbolTableRecord
100
AcDbLinetypeTableRecord
  2
DASHEDTINY
 70
    0
  3
Dashed (.15x) _ _ _ _ _ _ _ _ _ _ _ _ _ _ _ _ _
 72
   65
 73
    2
 40
2.8575
 49
1.905
 74
    0
 49
-0.9525
 74
    0
  0
LTYPE
  5
38
330
5
100
AcDbSymbolTableRecord
100
AcDbLinetypeTableRecord
  2
DASHED2
 70
    0
  3
Dashed (.5x) _ _ _ _ _ _ _ _ _ _ _ _ _ _ _ _ _
 72
   65
 73
    2
 40
9.524999999999999
 49
6.35
 74
    0
 49
-3.175
 74
    0
  0
LTYPE
  5
39
330
5
100
AcDbSymbolTableRecord
100
AcDbLinetypeTableRecord
  2
DASHEDX2
 70
    0
  3
Dashed (2x) ____  ____  ____  ____  ____  ___
 72
   65
 73
    2
 40
38.09999999999999
 49
25.4
 74
    0
 49
-12.7
 74
    0
  0
LTYPE
  5
3A
330
5
100
AcDbSymbolTableRecord
100
AcDbLinetypeTableRecord
  2
DASHDOT
 70
    0
  3
Dash dot __ . __ . __ . __ . __ . __ . __ . __
 72
   65
 73
    4
 40
25.4
 49
12.7
 74
    0
 49
-6.35
 74
    0
 49
0
 74
    0
 49
-6.35
 74
    0
  0
LTYPE
  5
3B
330
5
100
AcDbSymbolTableRecord
100
AcDbLinetypeTableRecord
  2
DASHDOTTINY
 70
    0
  3
Dash dot (.15x) _._._._._._._._._._._._._._._.
 72
   65
 73
    4
 40
3.81
 49
1.905
 74
    0
 49
-0.9525
 74
    0
 49
0
 74
    0
 49
-0.9525
 74
    0
  0
LTYPE
  5
3C
330
5
100
AcDbSymbolTableRecord
100
AcDbLinetypeTableRecord
  2
DASHDOT2
 70
    0
  3
Dash dot (.5x) _._._._._._._._._._._._._._._.
 72
   65
 73
    4
 40
12.7
 49
6.35
 74
    0
 49
-3.175
 74
    0
 49
0
 74
    0
 49
-3.175
 74
    0
  0
LTYPE
  5
3D
330
5
100
AcDbSymbolTableRecord
100
AcDbLinetypeTableRecord
  2
DASHDOTX2
 70
    0
  3
Dash dot (2x) ____  .  ____  .  ____  .  ___
 72
   65
 73
    4
 40
50.8
 49
25.4
 74
    0
 49
-12.7
 74
    0
 49
0
 74
    0
 49
-12.7
 74
    0
  0
LTYPE
  5
3E
330
5
100
AcDbSymbolTableRecord
100
AcDbLinetypeTableRecord
  2
DIVIDE
 70
    0
  3
Divide ____ . . ____ . . ____ . . ____ . . ____
 72
   65
 73
    6
 40
31.75
 49
12.7
 74
    0
 49
-6.35
 74
    0
 49
0
 74
    0
 49
-6.35
 74
    0
 49
0
 74
    0
 49
-6.35
 74
    0
  0
LTYPE
  5
3F
330
5
100
AcDbSymbolTableRecord
100
AcDbLinetypeTableRecord
  2
DIVIDETINY
 70
    0
  3
Divide (.15x) __..__..__..__..__..__..__..__.._
 72
   65
 73
    6
 40
4.7625
 49
1.905
 74
    0
 49
-0.9525
 74
    0
 49
0
 74
    0
 49
-0.9525
 74
    0
 49
0
 74
    0
 49
-0.9525
 74
    0
  0
LTYPE
  5
40
330
5
100
AcDbSymbolTableRecord
100
AcDbLinetypeTableRecord
  2
DIVIDE2
 70
    0
  3
Divide (.5x) __..__..__..__..__..__..__..__.._
 72
   65
 73
    6
 40
15.875
 49
6.35
 74
    0
 49
-3.175
 74
    0
 49
0
 74
    0
 49
-3.175
 74
    0
 49
0
 74
    0
 49
-3.175
 74
    0
  0
LTYPE
  5
41
330
5
100
AcDbSymbolTableRecord
100
AcDbLinetypeTableRecord
  2
DIVIDEX2
 70
    0
  3
Divide (2x) ________  .  .  ________  .  .  _
 72
   65
 73
    6
 40
63.5
 49
25.4
 74
    0
 49
-12.7
 74
    0
 49
0
 74
    0
 49
-12.7
 74
    0
 49
0
 74
    0
 49
-12.7
 74
    0
  0
LTYPE
  5
42
330
5
100
AcDbSymbolTableRecord
100
AcDbLinetypeTableRecord
  2
BORDER
 70
    0
  3
Border __ __ . __ __ . __ __ . __ __ . __ __ .
 72
   65
 73
    6
 40
44.45
 49
12.7
 74
    0
 49
-6.35
 74
    0
 49
12.7
 74
    0
 49
-6.35
 74
    0
 49
0
 74
    0
 49
-6.35
 74
    0
  0
LTYPE
  5
43
330
5
100
AcDbSymbolTableRecord
100
AcDbLinetypeTableRecord
  2
BORDERTINY
 70
    0
  3
Border (.15x) __.__.__.__.__.__.__.__.__.__.__.
 72
   65
 73
    6
 40
6.6675
 49
1.905
 74
    0
 49
-0.9525
 74
    0
 49
1.905
 74
    0
 49
-0.9525
 74
    0
 49
0
 74
    0
 49
-0.9525
 74
    0
  0
LTYPE
  5
44
330
5
100
AcDbSymbolTableRecord
100
AcDbLinetypeTableRecord
  2
BORDER2
 70
    0
  3
Border (.5x) __.__.__.__.__.__.__.__.__.__.__.
 72
   65
 73
    6
 40
22.225
 49
6.35
 74
    0
 49
-3.175
 74
    0
 49
6.35
 74
    0
 49
-3.175
 74
    0
 49
0
 74
    0
 49
-3.175
 74
    0
  0
LTYPE
  5
45
330
5
100
AcDbSymbolTableRecord
100
AcDbLinetypeTableRecord
  2
BORDERX2
 70
    0
  3
Border (2x) ____  ____  .  ____  ____  .  ___
 72
   65
 73
    6
 40
88.89999999999999
 49
25.4
 74
    0
 49
-12.7
 74
    0
 49
25.4
 74
    0
 49
-12.7
 74
    0
 49
0
 74
    0
 49
-12.7
 74
    0
  0
LTYPE
  5
46
330
5
100
AcDbSymbolTableRecord
100
AcDbLinetypeTableRecord
  2
CENTER
 70
    0
  3
Center ____ _ ____ _ ____ _ ____ _ ____ _ ____
 72
   65
 73
    4
 40
50.8
 49
31.75
 74
    0
 49
-6.35
 74
    0
 49
6.35
 74
    0
 49
-6.35
 74
    0
  0
LTYPE
  5
47
330
5
100
AcDbSymbolTableRecord
100
AcDbLinetypeTableRecord
  2
CENTERTINY
 70
    0
  3
Center (.15x) ___ _ ___ _ ___ _ ___ _ ___ _ ___
 72
   65
 73
    4
 40
7.62
 49
4.7625
 74
    0
 49
-0.9525
 74
    0
 49
0.9525
 74
    0
 49
-0.9525
 74
    0
  0
LTYPE
  5
48
330
5
100
AcDbSymbolTableRecord
100
AcDbLinetypeTableRecord
  2
CENTER2
 70
    0
  3
Center (.5x) ___ _ ___ _ ___ _ ___ _ ___ _ ___
 72
   65
 73
    4
 40
28.575
 49
19.05
 74
    0
 49
-3.175
 74
    0
 49
3.175
 74
    0
 49
-3.175
 74
    0
  0
LTYPE
  5
49
330
5
100
AcDbSymbolTableRecord
100
AcDbLinetypeTableRecord
  2
CENTERX2
 70
    0
  3
Center (2x) ________  __  ________  __  _____
 72
   65
 73
    4
 40
101.6
 49
63.5
 74
    0
 49
-12.7
 74
    0
 49
12.7
 74
    0
 49
-12.7
 74
    0
  0
ENDTAB
  0
TABLE
  2
LAYER
  5
2
330
0
100
AcDbSymbolTable
 70
    1
  0
LAYER
  5
10
330
2
100
AcDbSymbolTableRecord
100
AcDbLayerTableRecord
  2
0
 70
    0
 62
    7
  6
CONTINUOUS
370
    0
390
F
  0
ENDTAB
  0
TABLE
  2
STYLE
  5
3
330
0
100
AcDbSymbolTable
 70
    3
  0
STYLE
  5
4A
330
2
100
AcDbSymbolTableRecord
100
AcDbTextStyleTableRecord
  2
Standard
 70
    0
 40
0
 41
1
 50
0
 71
    0
 42
1
  3
txt
  4

  0
ENDTAB
  0
TABLE
  2
VIEW
  5
6
330
0
100
AcDbSymbolTable
 70
    0
  0
ENDTAB
  0
TABLE
  2
UCS
  5
7
330
0
100
AcDbSymbolTable
 70
    0
  0
ENDTAB
  0
TABLE
  2
APPID
  5
9
330
0
100
AcDbSymbolTable
 70
    1
  0
APPID
  5
12
330
9
100
AcDbSymbolTableRecord
100
AcDbRegAppTableRecord
  2
ACAD
 70
    0
  0
APPID
  5
4B
330
9
100
AcDbSymbolTableRecord
100
AcDbRegAppTableRecord
  2
LibreCad
 70
    0
  0
ENDTAB
  0
TABLE
  2
DIMSTYLE
  5
A
330
0
100
AcDbSymbolTable
 70
    1
100
AcDbDimStyleTable
 71
    1
  0
DIMSTYLE
105
4C
330
A
100
AcDbSymbolTableRecord
100
AcDbDimStyleTableRecord
  2
Standard
 70
    0
 40
20
 41
2.5
 42
0.625
 43
0.38
 44
1.25
 45
0
 46
0
 47
0
 48
0
 49
1
140
2.5
141
0.09
142
0
143
25.4
144
1
145
0
146
1
147
0.625
148
0
 71
    0
 72
    0
 73
    0
 74
    1
 75
    0
 76
    0
 77
    0
 78
    8
 79
    0
170
    0
171
    2
172
    0
173
    0
174
    0
175
    0
176
    0
177
    0
178
    0
179
    0
271
    2
272
    4
273
    2
274
    2
275
    0
276
    0
277
    2
278
   44
279
    0
280
    0
281
    0
282
    0
283
    1
284
    0
285
    0
286
    0
288
    0
289
    3
340
standard
341

371
   -2
372
   -2
  0
ENDTAB
  0
TABLE
  2
BLOCK_RECORD
  5
1
330
0
100
AcDbSymbolTable
 70
    2
  0
BLOCK_RECORD
  5
1F
330
1
100
AcDbSymbolTableRecord
100
AcDbBlockTableRecord
  2
*Model_Space
 70
    0
280
    1
281
    0
  0
BLOCK_RECORD
  5
1E
330
1
100
AcDbSymbolTableRecord
100
AcDbBlockTableRecord
  2
*Paper_Space
 70
    0
280
    1
281
    0
  0
ENDTAB
  0
ENDSEC
  0
SECTION
  2
BLOCKS
  0
BLOCK
  5
20
330
1F
100
AcDbEntity
  8
0
100
AcDbBlockBegin
  2
*Model_Space
 70
    0
 10
0
 20
0
 30
0
  3
*Model_Space
  1

  0
ENDBLK
  5
21
330
1F
100
AcDbEntity
  8
0
100
AcDbBlockEnd
  0
BLOCK
  5
1C
330
1B
100
AcDbEntity
  8
0
100
AcDbBlockBegin
  2
*Paper_Space
 70
    0
 10
0
 20
0
 30
0
  3
*Paper_Space
  1

  0
ENDBLK
  5
1D
330
1F
100
AcDbEntity
  8
0
100
AcDbBlockEnd
  0
ENDSEC
  0
SECTION
  2
ENTITIES
  0
LWPOLYLINE
  5
4D
100
AcDbEntity
  8
0
  6
ByLayer
 62
  256
370
   -1
100
AcDbPolyline
 90
    9
 70
    0
 43
0
 10
360.7258534141382
 20
411.3190421989141
 10
610.7258534141382
 20
411.3190421989141
 10
610.7258534141382
 20
561.3190421989142
 42
0.9999999999999999
 10
140.7258534141382
 20
561.3190421989141
 10
140.7258534141382
 20
111.3190421989141
 10
610.7258534141382
 20
111.3190421989141
 10
610.7258534141382
 20
261.3190421989141
 10
360.7258534141382
 20
261.3190421989141
 10
360.7258534141382
 20
411.3190421989141
  0
LWPOLYLINE
  5
4E
100
AcDbEntity
  8
0
  6
ByLayer
 62
  256
370
   -1
100
AcDbPolyline
 90
    8
 70
    1
 43
0
 10
600.7258534141382
 20
548.3190421989143
 42
-0.9999999999999999
 10
600.7258534141382
 20
542.3190421989143
 10
591.7258534141383
 20
542.3190421989143
 42
-1
 10
591.7258534141381
 20
548.3190421988795
 10
591.7258534141382
 20
575.3190421989143
 42
-0.9999992290181905
 10
591.7258534141382
 20
581.3190421989143
 10
600.7258534141382
 20
581.3190421989143
 42
-0.9999999999999999
 10
600.7258534141382
 20
575.3190421989143
  0
LWPOLYLINE
  5
4F
100
AcDbEntity
  8
0
  6
ByLayer
 62
  256
370
   -1
100
AcDbPolyline
 90
    8
 70
    1
 43
0
 10
600.7258534141382
 20
470.3190421989142
 42
-0.9999999999999999
 10
600.7258534141382
 20
464.3190421989142
 10
600.7258534141382
 20
437.3190421989142
 42
-0.9999999999999999
 10
600.7258534141382
 20
431.3190421989142
 10
591.7258534141382
 20
431.3190421989142
 42
-0.9999999999999999
 10
591.7258534141382
 20
437.3190421989122
 10
591.7258534141382
 20
464.3190421989142
 42
-0.9999999999999999
 10
591.7258534141382
 20
470.3190421989142
  0
LWPOLYLINE
  5
50
100
AcDbEntity
  8
0
  6
ByLayer
 62
  256
370
   -1
100
AcDbPolyline
 90
    8
 70
    1
 43
0
 10
555.7258534141382
 20
431.3190421989142
 42
-0.9999999999999999
 10
549.7258534141382
 20
431.3190421989142
 10
489.7258534141382
 20
431.3190421989141
 42
-1.000001869726414
 10
483.7258534141382
 20
431.3190421989142
 10
483.7258534141382
 20
440.3190421989142
 42
-0.9999999999999999
 10
489.7258534141423
 20
440.3190421989142
 10
549.7258534141382
 20
440.3190421989142
 42
-1.000000773713581
 10
555.7258534141382
 20
440.3190421989142
  0
LWPOLYLINE
  5
51
100
AcDbEntity
  8
0
  6
ByLayer
 62
  256
370
   -1
100
AcDbPolyline
 90
    8
 70
    1
 43
0
 10
411.7258534141382
 20
431.3190421989142
 42
-0.9999999999999999
 10
405.7258534141382
 20
431.3190421989141
 10
345.7258534141382
 20
431.3190421989142
 42
-0.999997624073538
 10
339.7258534141382
 20
431.3190421989142
 10
339.7258534141687
 20
440.3190556628763
 42
-0.999997756004393
 10
345.7258534141382
 20
440.3190421989142
 10
405.7258534141382
 20
440.3190421989142
 42
-1.000000000000009
 10
411.7258534141382
 20
440.3190421989142
  0
LWPOLYLINE
  5
52
100
AcDbEntity
  8
0
  6
ByLayer
 62
  256
370
   -1
100
AcDbPolyline
 90
    8
 70
    1
 43
0
 10
267.7258534141059
 20
431.319028219457
 42
-0.9999976700785712
 10
261.7258534141964
 20
431.3190421989141
 10
201.7258534141382
 20
431.3190421989142
 42
-0.9999999999999906
 10
195.7258534141382
 20
431.3190421989142
 10
195.7258534141382
 20
440.3190421989142
 42
-0.9999999999999999
 10
201.7258534141109
 20
440.3190421989142
 10
261.7258534141382
 20
440.3190421989141
 42
-0.9999999999999906
 10
267.7258534141382
 20
440.3190421989142
  0
LWPOLYLINE
  5
53
100
AcDbEntity
  8
0
  6
ByLayer
 62
  256
370
   -1
100
AcDbPolyline
 90
    8
 70
    1
 43
0
 10
150.7258534141382
 20
431.3190421989141
 42
-1.000000000000038
 10
150.725853414138
 20
437.3190421989568
 10
150.725853414138
 20
464.3190421989142
 42
-1.000000000000038
 10
150.7258534141382
 20
470.3190421989142
 10
159.7258534141382
 20
470.3190421989142
 42
-0.9999999999999999
 10
159.7258534141382
 20
464.3190421988314
 10
159.7258534141382
 20
437.3190421989142
 42
-0.9999999999999999
 10
159.7258534141382
 20
431.3190421989142
  0
LWPOLYLINE
  5
54
100
AcDbEntity
  8
0
  6
ByLayer
 62
  256
370
   -1
100
AcDbPolyline
 90
   41
 70
    1
 43
0
 10
297.6618753171854
 20
1049.066691949339
 10
297.6618753171854
 20
1121.066691949339
 10
292.9045160125787
 20
1121.066691957613
 42
-1.000000025809574
 10
288.6618753171854
 20
1125.309332649339
 10
288.6618753254594
 20
1188.824051253946
 42
-1.000000025809574
 10
292.9045160171855
 20
1193.066691949339
 10
297.6618753171854
 20
1193.066691949339
 10
297.6618753171854
 20
1265.066691949339
 10
292.9045160125787
 20
1265.066691957613
 42
-1.00000002580958
 10
288.6618753171854
 20
1269.309332649339
 10
288.6618753254593
 20
1332.824051253946
 42
-1.000000025809587
 10
292.9045160171855
 20
1337.066691949339
 10
297.6618753171854
 20
1337.066691949339
 10
297.6618753171854
 20
1409.066691949339
 10
292.9045160125787
 20
1409.066691957613
 42
-1.000000025809567
 10
288.6618753171854
 20
1413.309332649339
 10
288.6618753254593
 20
1476.824051253946
 42
-1.00000002580956
 10
292.9045160171854
 20
1481.066691949339
 10
297.6618753171854
 20
1481.066691949339
 10
297.6618753171854
 20
1553.066691949339
 10
297.6618753171854
 20
1579.066691949339
 10
258.6618753171854
 20
1579.066691949339
 10
258.6618753089115
 20
1574.309332644732
 42
-1.000000025809574
 10
254.4192346171855
 20
1570.066691949339
 10
190.9045160125787
 20
1570.066691957613
 42
-1.000000025809567
 10
186.6618753171854
 20
1574.309332649339
 10
186.6618753171854
 20
1579.066691949339
 10
147.6618753171854
 20
1579.066691949339
 10
147.6618753171854
 20
879.0666919493392
 10
186.6618753171854
 20
879.0666919493392
 10
186.6618753254594
 20
883.8240512539459
 42
-1.000000025809574
 10
190.9045160171854
 20
888.0666919493392
 10
254.4192346217922
 20
888.0666919410652
 42
-1.000000025809568
 10
258.6618753171854
 20
883.8240512493392
 10
258.6618753171854
 20
879.0666919493392
 10
297.6618753171854
 20
879.0666919493392
 10
297.6618753171854
 20
977.0666919493392
 10
292.9045160125787
 20
977.0666919576132
 42
-1.000000025809573
 10
288.6618753171854
 20
981.3093326493392
 10
288.6618753254594
 20
1044.824051253946
 42
-1.000000025809567
 10
292.9045160171855
 20
1049.066691949339
  0
LWPOLYLINE
  5
55
100
AcDbEntity
  8
0
  6
ByLayer
 62
  256
370
   -1
100
AcDbPolyline
 90
   41
 70
    1
 43
0
 10
485.6666666666666
 20
1050.035147363521
 10
485.6666666666666
 20
1122.035147363521
 10
480.9093073620599
 20
1122.035147371796
 42
-1.000000025809567
 10
476.6666666666666
 20
1126.277788063521
 10
476.6666666749406
 20
1189.792506668128
 42
-1.000000025809581
 10
480.9093073666667
 20
1194.035147363521
 10
485.6666666666666
 20
1194.035147363521
 10
485.6666666666667
 20
1266.035147363521
 10
480.9093073620601
 20
1266.035147371795
 42
-1.000000025809581
 10
476.6666666666667
 20
1270.277788063521
 10
476.6666666749408
 20
1333.792506668128
 42
-1.000000025809581
 10
480.9093073666668
 20
1338.035147363521
 10
485.6666666666667
 20
1338.035147363521
 10
485.6666666666667
 20
1410.035147363521
 10
480.90930736206
 20
1410.035147371796
 42
-1.000000025809574
 10
476.6666666666667
 20
1414.277788063521
 10
476.6666666749407
 20
1477.792506668128
 42
-1.000000025809561
 10
480.9093073666667
 20
1482.035147363521
 10
485.6666666666667
 20
1482.035147363521
 10
485.6666666666667
 20
1554.035147363521
 10
485.6666666666667
 20
1580.035147363521
 10
446.6666666666667
 20
1580.035147363521
 10
446.6666666583928
 20
1575.277788058915
 42
-1.00000002580956
 10
442.4240259666667
 20
1571.035147363521
 10
378.9093073620601
 20
1571.035147371796
 42
-1.000000025809574
 10
374.6666666666667
 20
1575.277788063521
 10
374.6666666666667
 20
1580.035147363521
 10
335.6666666666667
 20
1580.035147363521
 10
335.6666666666666
 20
880.0351473635216
 10
374.6666666666666
 20
880.0351473635216
 10
374.6666666749406
 20
884.7925066681283
 42
-1.000000025809568
 10
378.9093073666667
 20
889.0351473635216
 10
442.4240259712734
 20
889.0351473552475
 42
-1.000000025809568
 10
446.6666666666666
 20
884.7925066635215
 10
446.6666666666666
 20
880.0351473635216
 10
485.6666666666666
 20
880.0351473635216
 10
485.6666666666666
 20
978.0351473635214
 10
480.9093073620599
 20
978.0351473717956
 42
-1.000000025809566
 10
476.6666666666666
 20
982.2777880635215
 10
476.6666666749406
 20
1045.792506668128
 42
-1.000000025809564
 10
480.9093073666666
 20
1050.035147363521
  0
LWPOLYLINE
  5
56
100
AcDbEntity
  8
0
  6
ByLayer
 62
  256
370
   -1
100
AcDbPolyline
 90
   90
 70
    1
 43
0
 10
991.3092939493833
 20
1205.985708865581
 10
986.551934644776
 20
1205.985708873855
 42
-1.00000002580962
 10
982.3092939493833
 20
1210.228349565581
 10
982.3092939576575
 20
1273.743068170188
 42
-1.000000025809594
 10
986.5519346493836
 20
1277.985708865581
 10
991.3092939493833
 20
1277.985708865581
 10
991.3092939493833
 20
1349.985708865581
 10
986.551934644776
 20
1349.985708873855
 42
-1.00000002580962
 10
982.3092939493833
 20
1354.228349565581
 10
982.3092939576574
 20
1417.743068170188
 42
-1.000000025809567
 10
986.5519346493836
 20
1421.985708865581
 10
991.3092939493833
 20
1421.985708865581
 10
991.3092939493833
 20
1493.985708865581
 10
986.551934644776
 20
1493.985708873855
 42
-1.000000025809607
 10
982.3092939493833
 20
1498.228349565581
 10
982.3092939493833
 20
1565.985708865581
 10
982.3092939493833
 20
1582.985708865581
 10
950.551934644776
 20
1582.985708873855
 42
-1.000000025809607
 10
946.3092939493833
 20
1587.228349565581
 10
946.3092939493833
 20
1591.985708865581
 10
874.3092939493833
 20
1591.985708865581
 10
874.3092939411091
 20
1587.228349560974
 42
-1.000000025809594
 10
870.0666532493835
 20
1582.985708865581
 10
806.551934644776
 20
1582.985708873855
 42
-1.000000025809607
 10
802.3092939493833
 20
1587.228349565581
 10
802.3092939493833
 20
1591.985708865581
 10
730.3092939493833
 20
1591.985708865581
 10
730.3092939411093
 20
1587.228349560974
 42
-1.000000025809594
 10
726.0666532493835
 20
1582.985708865581
 10
662.5519346447766
 20
1582.985708873855
 42
-1.000000025809567
 10
658.3092939493833
 20
1587.228349565581
 10
658.3092939493833
 20
1591.985708865581
 10
586.3092939493833
 20
1591.985708865581
 10
586.3092939411092
 20
1587.228349560974
 42
-1.000000025809554
 10
582.0666532493833
 20
1582.985708865581
 10
550.3092939493833
 20
1582.985708865581
 10
550.3092939411092
 20
1498.228349560974
 42
-1.000000025809554
 10
546.0666532493833
 20
1493.985708865581
 10
541.3092939493833
 20
1493.985708865581
 10
541.3092939493833
 20
1421.985708865581
 10
546.0666532539902
 20
1421.985708857307
 42
-1.000000025809554
 10
550.3092939493833
 20
1417.743068165581
 10
550.3092939411092
 20
1354.228349560974
 42
-1.00000002580958
 10
546.0666532493833
 20
1349.985708865581
 10
541.3092939493833
 20
1349.985708865581
 10
541.3092939493833
 20
1277.985708865581
 10
546.0666532539902
 20
1277.985708857307
 42
-1.00000002580956
 10
550.3092939493833
 20
1273.743068165581
 10
550.3092939411092
 20
1210.228349560974
 42
-1.000000025809567
 10
546.0666532493833
 20
1205.985708865581
 10
541.3092939493833
 20
1205.985708865581
 10
541.3092939493833
 20
1133.985708865581
 10
546.0666532539901
 20
1133.985708857307
 42
-1.000000025809577
 10
550.3092939493833
 20
1129.743068165581
 10
550.3092939411092
 20
1066.228349560974
 42
-1.00000002580956
 10
546.0666532493833
 20
1061.985708865581
 10
541.3092939493833
 20
1061.985708865581
 10
541.3092939493833
 20
989.9857088655808
 10
546.0666532539901
 20
989.985708857307
 42
-1.000000025809575
 10
550.3092939493833
 20
985.7430681655808
 10
550.3092939493833
 20
917.9857088655809
 10
550.3092939493833
 20
900.9857088655809
 10
582.0666532539901
 20
900.985708857307
 42
-1.000000025809574
 10
586.3092939493833
 20
896.7430681655808
 10
586.3092939493833
 20
891.9857088655809
 10
658.3092939493833
 20
891.9857088655808
 10
658.3092939576575
 20
896.7430681701879
 42
-1.000000025809574
 10
662.5519346493834
 20
900.9857088655808
 10
726.0666532539905
 20
900.9857088573069
 42
-1.000000025809615
 10
730.3092939493833
 20
896.7430681655808
 10
730.3092939493833
 20
891.9857088655808
 10
802.3092939493833
 20
891.9857088655808
 10
802.3092939576575
 20
896.7430681701879
 42
-1.000000025809588
 10
806.5519346493836
 20
900.9857088655808
 10
870.0666532539907
 20
900.9857088573069
 42
-1.000000025809614
 10
874.3092939493833
 20
896.7430681655808
 10
874.3092939493833
 20
891.9857088655808
 10
946.3092939493833
 20
891.9857088655808
 10
946.3092939576575
 20
896.7430681701879
 42
-1.000000025809588
 10
950.5519346493836
 20
900.9857088655808
 10
982.3092939493833
 20
900.9857088655808
 10
982.3092939576575
 20
985.7430681701879
 42
-1.000000025809585
 10
986.5519346493836
 20
989.9857088655808
 10
991.3092939493833
 20
989.9857088655808
 10
991.3092939493833
 20
1061.985708865581
 10
986.551934644776
 20
1061.985708873855
 42
-1.00000002580961
 10
982.3092939493833
 20
1066.228349565581
 10
982.3092939576575
 20
1129.743068170188
 42
-1.000000025809584
 10
986.5519346493836
 20
1133.985708865581
 10
991.3092939493833
 20
1133.985708865581
  0
LWPOLYLINE
  5
57
100
AcDbEntity
  8
0
  6
ByLayer
 62
  256
370
   -1
100
AcDbPolyline
 90
    9
 70
    0
 43
0
 10
901.3092939493833
 20
416.9857088655808
 10
651.3092939493833
 20
416.9857088655808
 10
651.3092939493833
 20
566.9857088655808
 42
-0.9999999999999999
 10
1121.309293949383
 20
566.9857088655808
 10
1121.309293949383
 20
116.9857088655808
 10
651.3092939493833
 20
116.9857088655808
 10
651.3092939493833
 20
266.9857088655808
 10
901.3092939493833
 20
266.9857088655808
 10
901.3092939493833
 20
416.9857088655808
  0
LWPOLYLINE
  5
58
100
AcDbEntity
  8
0
  6
ByLayer
 62
  256
370
   -1
100
AcDbPolyline
 90
    8
 70
    1
 43
0
 10
661.3092939493833
 20
553.9857088655809
 42
0.9999999999999999
 10
661.3092939493833
 20
547.9857088655809
 10
670.3092939493832
 20
547.9857088655808
 42
1
 10
670.3092939493835
 20
553.9857088655463
 10
670.3092939493833
 20
580.9857088655809
 42
0.9999992290181903
 10
670.3092939493833
 20
586.9857088655809
 10
661.3092939493833
 20
586.9857088655809
 42
0.9999999999999999
 10
661.3092939493833
 20
580.9857088655809
  0
LWPOLYLINE
  5
59
100
AcDbEntity
  8
0
  6
ByLayer
 62
  256
370
   -1
100
AcDbPolyline
 90
    8
 70
    1
 43
0
 10
661.3092939493833
 20
475.9857088655809
 42
0.9999999999999999
 10
661.3092939493833
 20
469.9857088655809
 10
661.3092939493833
 20
442.9857088655809
 42
0.9999999999999999
 10
661.3092939493833
 20
436.9857088655809
 10
670.3092939493833
 20
436.9857088655809
 42
0.9999999999999999
 10
670.3092939493833
 20
442.9857088655788
 10
670.3092939493833
 20
469.9857088655809
 42
0.9999999999999999
 10
670.3092939493833
 20
475.9857088655809
  0
LWPOLYLINE
  5
5A
100
AcDbEntity
  8
0
  6
ByLayer
 62
  256
370
   -1
100
AcDbPolyline
 90
    8
 70
    1
 43
0
 10
706.3092939493833
 20
436.9857088655809
 42
0.9999999999999999
 10
712.3092939493833
 20
436.9857088655809
 10
772.3092939493833
 20
436.9857088655808
 42
1.000001869726413
 10
778.3092939493833
 20
436.9857088655809
 10
778.3092939493833
 20
445.9857088655809
 42
0.9999999999999999
 10
772.3092939493793
 20
445.9857088655809
 10
712.3092939493833
 20
445.9857088655809
 42
1.000000773713581
 10
706.3092939493833
 20
445.9857088655809
  0
LWPOLYLINE
  5
5B
100
AcDbEntity
  8
0
  6
ByLayer
 62
  256
370
   -1
100
AcDbPolyline
 90
    8
 70
    1
 43
0
 10
850.3092939493833
 20
436.9857088655809
 42
0.9999999999999999
 10
856.3092939493833
 20
436.9857088655808
 10
916.3092939493833
 20
436.9857088655809
 42
0.999997624073538
 10
922.3092939493833
 20
436.9857088655809
 10
922.3092939493529
 20
445.985722329543
 42
0.9999977560043928
 10
916.3092939493833
 20
445.9857088655809
 10
856.3092939493833
 20
445.9857088655809
 42
1.000000000000009
 10
850.3092939493833
 20
445.9857088655809
  0
LWPOLYLINE
  5
5C
100
AcDbEntity
  8
0
  6
ByLayer
 62
  256
370
   -1
100
AcDbPolyline
 90
    8
 70
    1
 43
0
 10
994.3092939494156
 20
436.9856948861237
 42
0.999997670078571
 10
1000.309293949325
 20
436.9857088655808
 10
1060.309293949383
 20
436.9857088655809
 42
0.9999999999999906
 10
1066.309293949383
 20
436.9857088655809
 10
1066.309293949383
 20
445.9857088655809
 42
0.9999999999999999
 10
1060.309293949411
 20
445.9857088655809
 10
1000.309293949383
 20
445.9857088655808
 42
0.9999999999999906
 10
994.3092939493833
 20
445.9857088655809
  0
LWPOLYLINE
  5
5D
100
AcDbEntity
  8
0
  6
ByLayer
 62
  256
370
   -1
100
AcDbPolyline
 90
    8
 70
    1
 43
0
 10
1111.309293949383
 20
436.9857088655808
 42
1.000000000000038
 10
1111.309293949384
 20
442.9857088656236
 10
1111.309293949384
 20
469.9857088655809
 42
1.000000000000038
 10
1111.309293949383
 20
475.9857088655809
 10
1102.309293949383
 20
475.9857088655809
 42
0.9999999999999999
 10
1102.309293949383
 20
469.9857088654981
 10
1102.309293949383
 20
442.9857088655809
 42
0.9999999999999999
 10
1102.309293949383
 20
436.9857088655809
  0
LWPOLYLINE
  5
5E
100
AcDbEntity
  8
0
  6
ByLayer
 62
  256
370
   -1
100
AcDbPolyline
 90
    9
 70
    1
 43
0
 10
1111.309293949383
 20
553.9857088655515
 10
1111.309293949383
 20
580.9857088655809
 42
0.4142128807792683
 10
1114.309293949375
 20
583.9857018842586
 42
0.4142128807792675
 10
1111.309293949383
 20
586.9857088655809
 10
1102.309293949383
 20
586.9857088655809
 42
0.9999999999999999
 10
1102.309293949383
 20
580.9857088655809
 10
1102.309293949383
 20
553.9857088655809
 42
0.9999999999999999
 10
1102.309293949383
 20
547.9857088655809
 10
1111.309293949383
 20
547.9857088655809
 42
0.9999999999999999
  0
LWPOLYLINE
  5
5F
100
AcDbEntity
  8
0
  6
ByLayer
 62
  256
370
   -1
100
AcDbPolyline
 90
    9
 70
    1
 43
0
 10
150.7258534141382
 20
575.3190421989141
 42
-0.4142128807792739
 10
147.7258534141464
 20
578.3190352175918
 42
-0.41421288077927
 10
150.7258534141382
 20
581.3190421989143
 10
159.7258534141382
 20
581.3190421989143
 42
-0.9999999999999999
 10
159.7258534141382
 20
575.3190421989143
 10
159.7258534141382
 20
548.3190421989143
 42
-0.9999999999999999
 10
159.7258534141382
 20
542.3190421989143
 10
150.7258534141382
 20
542.3190421989142
 42
-0.9999999999999999
 10
150.7258534141382
 20
548.3190421988849
  0
ENDSEC
  0
SECTION
  2
OBJECTS
  0
DICTIONARY
  5
C
330
0
100
AcDbDictionary
281
    1
  3
ACAD_GROUP
350
D
  0
DICTIONARY
  5
D
330
C
100
AcDbDictionary
281
    1
  0
ENDSEC
  0
EOF
