0
SECTION
2
HEADER
9
$INSUNITS
70
1
0
ENDSEC
0
SECTION
2
TABLES
0
TABLE
2
LAYER
0
ENDTAB
0
ENDSEC
0
SECTION
2
ENTITIES
0
LINE
8
front_outsideCutPath
10
17.6
20
3.0292893
11
17.6
21
9
0
LINE
8
front_outsideCutPath
10
17.6
20
9
11
37.5
21
9
0
LINE
8
front_outsideCutPath
10
37.5
20
9
11
37.5
21
3.0292893
0
LINE
8
front_outsideCutPath
10
37.5
20
3.0292893
11
37.5292893
21
3
0
LINE
8
front_outsideCutPath
10
37.5292893
20
3
11
55.0707107
21
3
0
LINE
8
front_outsideCutPath
10
55.0707107
20
3
11
55.1
21
3.0292893
0
LINE
8
front_outsideCutPath
10
55.1
20
3.0292893
11
55.1
21
14.0707107
0
LINE
8
front_outsideCutPath
10
55.1
20
14.0707107
11
55.0707107
21
14.1
0
LINE
8
front_outsideCutPath
10
55.0707107
20
14.1
11
49.1
21
14.1
0
LINE
8
front_outsideCutPath
10
49.1
20
14.1
11
49.1
21
34
0
LINE
8
front_outsideCutPath
10
49.1
20
34
11
55.0707107
21
34
0
LINE
8
front_outsideCutPath
10
55.0707107
20
34
11
55.1
21
34.0292893
0
LINE
8
front_outsideCutPath
10
55.1
20
34.0292893
11
55.1
21
54.0707107
0
LINE
8
front_outsideCutPath
10
55.1
20
54.0707107
11
55.0707107
21
54.1
0
LINE
8
front_outsideCutPath
10
55.0707107
20
54.1
11
49.1
21
54.1
0
LINE
8
front_outsideCutPath
10
49.1
20
54.1
11
49.1
21
74
0
LINE
8
front_outsideCutPath
10
49.1
20
74
11
55.0707107
21
74
0
LINE
8
front_outsideCutPath
10
55.0707107
20
74
11
55.1
21
74.0292893
0
LINE
8
front_outsideCutPath
10
55.1
20
74.0292893
11
55.1
21
94.0707107
0
LINE
8
front_outsideCutPath
10
55.1
20
94.0707107
11
55.0707107
21
94.1
0
LINE
8
front_outsideCutPath
10
55.0707107
20
94.1
11
49.1
21
94.1
0
LINE
8
front_outsideCutPath
10
49.1
20
94.1
11
49.1
21
114
0
LINE
8
front_outsideCutPath
10
49.1
20
114
11
55.0707107
21
114
0
LINE
8
front_outsideCutPath
10
55.0707107
20
114
11
55.1
21
114.0292893
0
LINE
8
front_outsideCutPath
10
55.1
20
114.0292893
11
55.1
21
134.0707107
0
LINE
8
front_outsideCutPath
10
55.1
20
134.0707107
11
55.0707107
21
134.1
0
LINE
8
front_outsideCutPath
10
55.0707107
20
134.1
11
49.1
21
134.1
0
LINE
8
front_outsideCutPath
10
49.1
20
134.1
11
49.1
21
154
0
LINE
8
front_outsideCutPath
10
49.1
20
154
11
55.0707107
21
154
0
LINE
8
front_outsideCutPath
10
55.0707107
20
154
11
55.1
21
154.0292893
0
LINE
8
front_outsideCutPath
10
55.1
20
154.0292893
11
55.1
21
165.0707107
0
LINE
8
front_outsideCutPath
10
55.1
20
165.0707107
11
55.0707107
21
165.1
0
LINE
8
front_outsideCutPath
10
55.0707107
20
165.1
11
37.5292893
21
165.1
0
LINE
8
front_outsideCutPath
10
37.5292893
20
165.1
11
37.5
21
165.0707107
0
LINE
8
front_outsideCutPath
10
37.5
20
165.0707107
11
37.5
21
159.1
0
LINE
8
front_outsideCutPath
10
37.5
20
159.1
11
17.6
21
159.1
0
LINE
8
front_outsideCutPath
10
17.6
20
159.1
11
17.6
21
165.0707107
0
LINE
8
front_outsideCutPath
10
17.6
20
165.0707107
11
17.5707107
21
165.1
0
LINE
8
front_outsideCutPath
10
17.5707107
20
165.1
11
0.0292893
21
165.1
0
LINE
8
front_outsideCutPath
10
0.0292893
20
165.1
11
0
21
165.0707107
0
LINE
8
front_outsideCutPath
10
0
20
165.0707107
11
0
21
154.0292893
0
LINE
8
front_outsideCutPath
10
0
20
154.0292893
11
0.0292893
21
154
0
LINE
8
front_outsideCutPath
10
0.0292893
20
154
11
6
21
154
0
LINE
8
front_outsideCutPath
10
6
20
154
11
6
21
134.1
0
LINE
8
front_outsideCutPath
10
6
20
134.1
11
0.0292893
21
134.1
0
LINE
8
front_outsideCutPath
10
0.0292893
20
134.1
11
0
21
134.0707107
0
LINE
8
front_outsideCutPath
10
0
20
134.0707107
11
0
21
114.0292893
0
LINE
8
front_outsideCutPath
10
0
20
114.0292893
11
0.0292893
21
114
0
LINE
8
front_outsideCutPath
10
0.0292893
20
114
11
6
21
114
0
LINE
8
front_outsideCutPath
10
6
20
114
11
6
21
94.1
0
LINE
8
front_outsideCutPath
10
6
20
94.1
11
0.0292893
21
94.1
0
LINE
8
front_outsideCutPath
10
0.0292893
20
94.1
11
0
21
94.0707107
0
LINE
8
front_outsideCutPath
10
0
20
94.0707107
11
0
21
74.0292893
0
LINE
8
front_outsideCutPath
10
0
20
74.0292893
11
0.0292893
21
74
0
LINE
8
front_outsideCutPath
10
0.0292893
20
74
11
6
21
74
0
LINE
8
front_outsideCutPath
10
6
20
74
11
6
21
54.1
0
LINE
8
front_outsideCutPath
10
6
20
54.1
11
0.0292893
21
54.1
0
LINE
8
front_outsideCutPath
10
0.0292893
20
54.1
11
0
21
54.0707107
0
LINE
8
front_outsideCutPath
10
0
20
54.0707107
11
0
21
34.0292893
0
LINE
8
front_outsideCutPath
10
0
20
34.0292893
11
0.0292893
21
34
0
LINE
8
front_outsideCutPath
10
0.0292893
20
34
11
6
21
34
0
LINE
8
front_outsideCutPath
10
6
20
34
11
6
21
14.1
0
LINE
8
front_outsideCutPath
10
6
20
14.1
11
0.0292893
21
14.1
0
LINE
8
front_outsideCutPath
10
0.0292893
20
14.1
11
0
21
14.0707107
0
LINE
8
front_outsideCutPath
10
0
20
14.0707107
11
0
21
3.0292893
0
LINE
8
front_outsideCutPath
10
0
20
3.0292893
11
0.0292893
21
3
0
LINE
8
front_outsideCutPath
10
0.0292893
20
3
11
17.5707107
21
3
0
LINE
8
front_outsideCutPath
10
17.5707107
20
3
11
17.6
21
3.0292893
0
LINE
8
left_outsideCutPath
10
74.2
20
3.0292893
11
74.2
21
9
0
LINE
8
left_outsideCutPath
10
74.2
20
9
11
94.1
21
9
0
LINE
8
left_outsideCutPath
10
94.1
20
9
11
94.1
21
3.0292893
0
LINE
8
left_outsideCutPath
10
94.1
20
3.0292893
11
94.1292893
21
3
0
LINE
8
left_outsideCutPath
10
94.1292893
20
3
11
104.1707107
21
3
0
LINE
8
left_outsideCutPath
10
104.1707107
20
3
11
104.2
21
3.0292893
0
LINE
8
left_outsideCutPath
10
104.2
20
3.0292893
11
104.2
21
14
0
LINE
8
left_outsideCutPath
10
104.2
20
14
11
110.1707107
21
14
0
LINE
8
left_outsideCutPath
10
110.1707107
20
14
11
110.2
21
14.0292893
0
LINE
8
left_outsideCutPath
10
110.2
20
14.0292893
11
110.2
21
34.0707107
0
LINE
8
left_outsideCutPath
10
110.2
20
34.0707107
11
110.1707107
21
34.1
0
LINE
8
left_outsideCutPath
10
110.1707107
20
34.1
11
104.2
21
34.1
0
LINE
8
left_outsideCutPath
10
104.2
20
34.1
11
104.2
21
54
0
LINE
8
left_outsideCutPath
10
104.2
20
54
11
110.1707107
21
54
0
LINE
8
left_outsideCutPath
10
110.1707107
20
54
11
110.2
21
54.0292893
0
LINE
8
left_outsideCutPath
10
110.2
20
54.0292893
11
110.2
21
74.0707107
0
LINE
8
left_outsideCutPath
10
110.2
20
74.0707107
11
110.1707107
21
74.1
0
LINE
8
left_outsideCutPath
10
110.1707107
20
74.1
11
104.2
21
74.1
0
LINE
8
left_outsideCutPath
10
104.2
20
74.1
11
104.2
21
94
0
LINE
8
left_outsideCutPath
10
104.2
20
94
11
110.1707107
21
94
0
LINE
8
left_outsideCutPath
10
110.1707107
20
94
11
110.2
21
94.0292893
0
LINE
8
left_outsideCutPath
10
110.2
20
94.0292893
11
110.2
21
114.0707107
0
LINE
8
left_outsideCutPath
10
110.2
20
114.0707107
11
110.1707107
21
114.1
0
LINE
8
left_outsideCutPath
10
110.1707107
20
114.1
11
104.2
21
114.1
0
LINE
8
left_outsideCutPath
10
104.2
20
114.1
11
104.2
21
134
0
LINE
8
left_outsideCutPath
10
104.2
20
134
11
110.1707107
21
134
0
LINE
8
left_outsideCutPath
10
110.1707107
20
134
11
110.2
21
134.0292893
0
LINE
8
left_outsideCutPath
10
110.2
20
134.0292893
11
110.2
21
154.0707107
0
LINE
8
left_outsideCutPath
10
110.2
20
154.0707107
11
110.1707107
21
154.1
0
LINE
8
left_outsideCutPath
10
110.1707107
20
154.1
11
104.2
21
154.1
0
LINE
8
left_outsideCutPath
10
104.2
20
154.1
11
104.2
21
165.0707107
0
LINE
8
left_outsideCutPath
10
104.2
20
165.0707107
11
104.1707107
21
165.1
0
LINE
8
left_outsideCutPath
10
104.1707107
20
165.1
11
94.1292893
21
165.1
0
LINE
8
left_outsideCutPath
10
94.1292893
20
165.1
11
94.1
21
165.0707107
0
LINE
8
left_outsideCutPath
10
94.1
20
165.0707107
11
94.1
21
159.1
0
LINE
8
left_outsideCutPath
10
94.1
20
159.1
11
74.2
21
159.1
0
LINE
8
left_outsideCutPath
10
74.2
20
159.1
11
74.2
21
165.0707107
0
LINE
8
left_outsideCutPath
10
74.2
20
165.0707107
11
74.1707107
21
165.1
0
LINE
8
left_outsideCutPath
10
74.1707107
20
165.1
11
64.1292893
21
165.1
0
LINE
8
left_outsideCutPath
10
64.1292893
20
165.1
11
64.1
21
165.0707107
0
LINE
8
left_outsideCutPath
10
64.1
20
165.0707107
11
64.1
21
154.1
0
LINE
8
left_outsideCutPath
10
64.1
20
154.1
11
58.1292893
21
154.1
0
LINE
8
left_outsideCutPath
10
58.1292893
20
154.1
11
58.1
21
154.0707107
0
LINE
8
left_outsideCutPath
10
58.1
20
154.0707107
11
58.1
21
134.0292893
0
LINE
8
left_outsideCutPath
10
58.1
20
134.0292893
11
58.1292893
21
134
0
LINE
8
left_outsideCutPath
10
58.1292893
20
134
11
64.1
21
134
0
LINE
8
left_outsideCutPath
10
64.1
20
134
11
64.1
21
114.1
0
LINE
8
left_outsideCutPath
10
64.1
20
114.1
11
58.1292893
21
114.1
0
LINE
8
left_outsideCutPath
10
58.1292893
20
114.1
11
58.1
21
114.0707107
0
LINE
8
left_outsideCutPath
10
58.1
20
114.0707107
11
58.1
21
94.0292893
0
LINE
8
left_outsideCutPath
10
58.1
20
94.0292893
11
58.1292893
21
94
0
LINE
8
left_outsideCutPath
10
58.1292893
20
94
11
64.1
21
94
0
LINE
8
left_outsideCutPath
10
64.1
20
94
11
64.1
21
74.1
0
LINE
8
left_outsideCutPath
10
64.1
20
74.1
11
58.1292893
21
74.1
0
LINE
8
left_outsideCutPath
10
58.1292893
20
74.1
11
58.1
21
74.0707107
0
LINE
8
left_outsideCutPath
10
58.1
20
74.0707107
11
58.1
21
54.0292893
0
LINE
8
left_outsideCutPath
10
58.1
20
54.0292893
11
58.1292893
21
54
0
LINE
8
left_outsideCutPath
10
58.1292893
20
54
11
64.1
21
54
0
LINE
8
left_outsideCutPath
10
64.1
20
54
11
64.1
21
34.1
0
LINE
8
left_outsideCutPath
10
64.1
20
34.1
11
58.1292893
21
34.1
0
LINE
8
left_outsideCutPath
10
58.1292893
20
34.1
11
58.1
21
34.0707107
0
LINE
8
left_outsideCutPath
10
58.1
20
34.0707107
11
58.1
21
14.0292893
0
LINE
8
left_outsideCutPath
10
58.1
20
14.0292893
11
58.1292893
21
14
0
LINE
8
left_outsideCutPath
10
58.1292893
20
14
11
64.1
21
14
0
LINE
8
left_outsideCutPath
10
64.1
20
14
11
64.1
21
3.0292893
0
LINE
8
left_outsideCutPath
10
64.1
20
3.0292893
11
64.1292893
21
3
0
LINE
8
left_outsideCutPath
10
64.1292893
20
3
11
74.1707107
21
3
0
LINE
8
left_outsideCutPath
10
74.1707107
20
3
11
74.2
21
3.0292893
0
LINE
8
top_outsideCutPath
10
150.8
20
3.0292893
11
150.8
21
9
0
LINE
8
top_outsideCutPath
10
150.8
20
9
11
162.2707107
21
9
0
LINE
8
top_outsideCutPath
10
162.2707107
20
9
11
162.3
21
9.0292893
0
LINE
8
top_outsideCutPath
10
162.3
20
9.0292893
11
162.3
21
19
0
LINE
8
top_outsideCutPath
10
162.3
20
19
11
168.2707107
21
19
0
LINE
8
top_outsideCutPath
10
168.2707107
20
19
11
168.3
21
19.0292893
0
LINE
8
top_outsideCutPath
10
168.3
20
19.0292893
11
168.3
21
39.0707107
0
LINE
8
top_outsideCutPath
10
168.3
20
39.0707107
11
168.2707107
21
39.1
0
LINE
8
top_outsideCutPath
10
168.2707107
20
39.1
11
162.3
21
39.1
0
LINE
8
top_outsideCutPath
10
162.3
20
39.1
11
162.3
21
49.0707107
0
LINE
8
top_outsideCutPath
10
162.3
20
49.0707107
11
162.2707107
21
49.1
0
LINE
8
top_outsideCutPath
10
162.2707107
20
49.1
11
150.8
21
49.1
0
LINE
8
top_outsideCutPath
10
150.8
20
49.1
11
150.8
21
55.0707107
0
LINE
8
top_outsideCutPath
10
150.8
20
55.0707107
11
150.7707107
21
55.1
0
LINE
8
top_outsideCutPath
10
150.7707107
20
55.1
11
130.7292893
21
55.1
0
LINE
8
top_outsideCutPath
10
130.7292893
20
55.1
11
130.7
21
55.0707107
0
LINE
8
top_outsideCutPath
10
130.7
20
55.0707107
11
130.7
21
49.1
0
LINE
8
top_outsideCutPath
10
130.7
20
49.1
11
119.2292893
21
49.1
0
LINE
8
top_outsideCutPath
10
119.2292893
20
49.1
11
119.2
21
49.0707107
0
LINE
8
top_outsideCutPath
10
119.2
20
49.0707107
11
119.2
21
39.1
0
LINE
8
top_outsideCutPath
10
119.2
20
39.1
11
113.2292893
21
39.1
0
LINE
8
top_outsideCutPath
10
113.2292893
20
39.1
11
113.2
21
39.0707107
0
LINE
8
top_outsideCutPath
10
113.2
20
39.0707107
11
113.2
21
19.0292893
0
LINE
8
top_outsideCutPath
10
113.2
20
19.0292893
11
113.2292893
21
19
0
LINE
8
top_outsideCutPath
10
113.2292893
20
19
11
119.2
21
19
0
LINE
8
top_outsideCutPath
10
119.2
20
19
11
119.2
21
9.0292893
0
LINE
8
top_outsideCutPath
10
119.2
20
9.0292893
11
119.2292893
21
9
0
LINE
8
top_outsideCutPath
10
119.2292893
20
9
11
130.7
21
9
0
LINE
8
top_outsideCutPath
10
130.7
20
9
11
130.7
21
3.0292893
0
LINE
8
top_outsideCutPath
10
130.7
20
3.0292893
11
130.7292893
21
3
0
LINE
8
top_outsideCutPath
10
130.7292893
20
3
11
150.7707107
21
3
0
LINE
8
top_outsideCutPath
10
150.7707107
20
3
11
150.8
21
3.0292893
0
LINE
8
back_outsideCutPath
10
17.6
20
168.1292893
11
17.6
21
174.1
0
LINE
8
back_outsideCutPath
10
17.6
20
174.1
11
37.5
21
174.1
0
LINE
8
back_outsideCutPath
10
37.5
20
174.1
11
37.5
21
168.1292893
0
LINE
8
back_outsideCutPath
10
37.5
20
168.1292893
11
37.5292893
21
168.1
0
LINE
8
back_outsideCutPath
10
37.5292893
20
168.1
11
55.0707107
21
168.1
0
LINE
8
back_outsideCutPath
10
55.0707107
20
168.1
11
55.1
21
168.1292893
0
LINE
8
back_outsideCutPath
10
55.1
20
168.1292893
11
55.1
21
179.1707107
0
LINE
8
back_outsideCutPath
10
55.1
20
179.1707107
11
55.0707107
21
179.2
0
LINE
8
back_outsideCutPath
10
55.0707107
20
179.2
11
49.1
21
179.2
0
LINE
8
back_outsideCutPath
10
49.1
20
179.2
11
49.1
21
199.1
0
LINE
8
back_outsideCutPath
10
49.1
20
199.1
11
55.0707107
21
199.1
0
LINE
8
back_outsideCutPath
10
55.0707107
20
199.1
11
55.1
21
199.1292893
0
LINE
8
back_outsideCutPath
10
55.1
20
199.1292893
11
55.1
21
219.1707107
0
LINE
8
back_outsideCutPath
10
55.1
20
219.1707107
11
55.0707107
21
219.2
0
LINE
8
back_outsideCutPath
10
55.0707107
20
219.2
11
49.1
21
219.2
0
LINE
8
back_outsideCutPath
10
49.1
20
219.2
11
49.1
21
239.1
0
LINE
8
back_outsideCutPath
10
49.1
20
239.1
11
55.0707107
21
239.1
0
LINE
8
back_outsideCutPath
10
55.0707107
20
239.1
11
55.1
21
239.1292893
0
LINE
8
back_outsideCutPath
10
55.1
20
239.1292893
11
55.1
21
259.1707107
0
LINE
8
back_outsideCutPath
10
55.1
20
259.1707107
11
55.0707107
21
259.2
0
LINE
8
back_outsideCutPath
10
55.0707107
20
259.2
11
49.1
21
259.2
0
LINE
8
back_outsideCutPath
10
49.1
20
259.2
11
49.1
21
279.1
0
LINE
8
back_outsideCutPath
10
49.1
20
279.1
11
55.0707107
21
279.1
0
LINE
8
back_outsideCutPath
10
55.0707107
20
279.1
11
55.1
21
279.1292893
0
LINE
8
back_outsideCutPath
10
55.1
20
279.1292893
11
55.1
21
299.1707107
0
LINE
8
back_outsideCutPath
10
55.1
20
299.1707107
11
55.0707107
21
299.2
0
LINE
8
back_outsideCutPath
10
55.0707107
20
299.2
11
49.1
21
299.2
0
LINE
8
back_outsideCutPath
10
49.1
20
299.2
11
49.1
21
319.1
0
LINE
8
back_outsideCutPath
10
49.1
20
319.1
11
55.0707107
21
319.1
0
LINE
8
back_outsideCutPath
10
55.0707107
20
319.1
11
55.1
21
319.1292893
0
LINE
8
back_outsideCutPath
10
55.1
20
319.1292893
11
55.1
21
330.1707107
0
LINE
8
back_outsideCutPath
10
55.1
20
330.1707107
11
55.0707107
21
330.2
0
LINE
8
back_outsideCutPath
10
55.0707107
20
330.2
11
37.5292893
21
330.2
0
LINE
8
back_outsideCutPath
10
37.5292893
20
330.2
11
37.5
21
330.1707107
0
LINE
8
back_outsideCutPath
10
37.5
20
330.1707107
11
37.5
21
324.2
0
LINE
8
back_outsideCutPath
10
37.5
20
324.2
11
17.6
21
324.2
0
LINE
8
back_outsideCutPath
10
17.6
20
324.2
11
17.6
21
330.1707107
0
LINE
8
back_outsideCutPath
10
17.6
20
330.1707107
11
17.5707107
21
330.2
0
LINE
8
back_outsideCutPath
10
17.5707107
20
330.2
11
0.0292893
21
330.2
0
LINE
8
back_outsideCutPath
10
0.0292893
20
330.2
11
0
21
330.1707107
0
LINE
8
back_outsideCutPath
10
0
20
330.1707107
11
0
21
319.1292893
0
LINE
8
back_outsideCutPath
10
0
20
319.1292893
11
0.0292893
21
319.1
0
LINE
8
back_outsideCutPath
10
0.0292893
20
319.1
11
6
21
319.1
0
LINE
8
back_outsideCutPath
10
6
20
319.1
11
6
21
299.2
0
LINE
8
back_outsideCutPath
10
6
20
299.2
11
0.0292893
21
299.2
0
LINE
8
back_outsideCutPath
10
0.0292893
20
299.2
11
0
21
299.1707107
0
LINE
8
back_outsideCutPath
10
0
20
299.1707107
11
0
21
279.1292893
0
LINE
8
back_outsideCutPath
10
0
20
279.1292893
11
0.0292893
21
279.1
0
LINE
8
back_outsideCutPath
10
0.0292893
20
279.1
11
6
21
279.1
0
LINE
8
back_outsideCutPath
10
6
20
279.1
11
6
21
259.2
0
LINE
8
back_outsideCutPath
10
6
20
259.2
11
0.0292893
21
259.2
0
LINE
8
back_outsideCutPath
10
0.0292893
20
259.2
11
0
21
259.1707107
0
LINE
8
back_outsideCutPath
10
0
20
259.1707107
11
0
21
239.1292893
0
LINE
8
back_outsideCutPath
10
0
20
239.1292893
11
0.0292893
21
239.1
0
LINE
8
back_outsideCutPath
10
0.0292893
20
239.1
11
6
21
239.1
0
LINE
8
back_outsideCutPath
10
6
20
239.1
11
6
21
219.2
0
LINE
8
back_outsideCutPath
10
6
20
219.2
11
0.0292893
21
219.2
0
LINE
8
back_outsideCutPath
10
0.0292893
20
219.2
11
0
21
219.1707107
0
LINE
8
back_outsideCutPath
10
0
20
219.1707107
11
0
21
199.1292893
0
LINE
8
back_outsideCutPath
10
0
20
199.1292893
11
0.0292893
21
199.1
0
LINE
8
back_outsideCutPath
10
0.0292893
20
199.1
11
6
21
199.1
0
LINE
8
back_outsideCutPath
10
6
20
199.1
11
6
21
179.2
0
LINE
8
back_outsideCutPath
10
6
20
179.2
11
0.0292893
21
179.2
0
LINE
8
back_outsideCutPath
10
0.0292893
20
179.2
11
0
21
179.1707107
0
LINE
8
back_outsideCutPath
10
0
20
179.1707107
11
0
21
168.1292893
0
LINE
8
back_outsideCutPath
10
0
20
168.1292893
11
0.0292893
21
168.1
0
LINE
8
back_outsideCutPath
10
0.0292893
20
168.1
11
17.5707107
21
168.1
0
LINE
8
back_outsideCutPath
10
17.5707107
20
168.1
11
17.6
21
168.1292893
0
LINE
8
right_outsideCutPath
10
74.2
20
168.1292893
11
74.2
21
174.1
0
LINE
8
right_outsideCutPath
10
74.2
20
174.1
11
94.1
21
174.1
0
LINE
8
right_outsideCutPath
10
94.1
20
174.1
11
94.1
21
168.1292893
0
LINE
8
right_outsideCutPath
10
94.1
20
168.1292893
11
94.1292893
21
168.1
0
LINE
8
right_outsideCutPath
10
94.1292893
20
168.1
11
104.1707107
21
168.1
0
LINE
8
right_outsideCutPath
10
104.1707107
20
168.1
11
104.2
21
168.1292893
0
LINE
8
right_outsideCutPath
10
104.2
20
168.1292893
11
104.2
21
179.1
0
LINE
8
right_outsideCutPath
10
104.2
20
179.1
11
110.1707107
21
179.1
0
LINE
8
right_outsideCutPath
10
110.1707107
20
179.1
11
110.2
21
179.1292893
0
LINE
8
right_outsideCutPath
10
110.2
20
179.1292893
11
110.2
21
199.1707107
0
LINE
8
right_outsideCutPath
10
110.2
20
199.1707107
11
110.1707107
21
199.2
0
LINE
8
right_outsideCutPath
10
110.1707107
20
199.2
11
104.2
21
199.2
0
LINE
8
right_outsideCutPath
10
104.2
20
199.2
11
104.2
21
219.1
0
LINE
8
right_outsideCutPath
10
104.2
20
219.1
11
110.1707107
21
219.1
0
LINE
8
right_outsideCutPath
10
110.1707107
20
219.1
11
110.2
21
219.1292893
0
LINE
8
right_outsideCutPath
10
110.2
20
219.1292893
11
110.2
21
239.1707107
0
LINE
8
right_outsideCutPath
10
110.2
20
239.1707107
11
110.1707107
21
239.2
0
LINE
8
right_outsideCutPath
10
110.1707107
20
239.2
11
104.2
21
239.2
0
LINE
8
right_outsideCutPath
10
104.2
20
239.2
11
104.2
21
259.1
0
LINE
8
right_outsideCutPath
10
104.2
20
259.1
11
110.1707107
21
259.1
0
LINE
8
right_outsideCutPath
10
110.1707107
20
259.1
11
110.2
21
259.1292893
0
LINE
8
right_outsideCutPath
10
110.2
20
259.1292893
11
110.2
21
279.1707107
0
LINE
8
right_outsideCutPath
10
110.2
20
279.1707107
11
110.1707107
21
279.2
0
LINE
8
right_outsideCutPath
10
110.1707107
20
279.2
11
104.2
21
279.2
0
LINE
8
right_outsideCutPath
10
104.2
20
279.2
11
104.2
21
299.1
0
LINE
8
right_outsideCutPath
10
104.2
20
299.1
11
110.1707107
21
299.1
0
LINE
8
right_outsideCutPath
10
110.1707107
20
299.1
11
110.2
21
299.1292893
0
LINE
8
right_outsideCutPath
10
110.2
20
299.1292893
11
110.2
21
319.1707107
0
LINE
8
right_outsideCutPath
10
110.2
20
319.1707107
11
110.1707107
21
319.2
0
LINE
8
right_outsideCutPath
10
110.1707107
20
319.2
11
104.2
21
319.2
0
LINE
8
right_outsideCutPath
10
104.2
20
319.2
11
104.2
21
330.1707107
0
LINE
8
right_outsideCutPath
10
104.2
20
330.1707107
11
104.1707107
21
330.2
0
LINE
8
right_outsideCutPath
10
104.1707107
20
330.2
11
94.1292893
21
330.2
0
LINE
8
right_outsideCutPath
10
94.1292893
20
330.2
11
94.1
21
330.1707107
0
LINE
8
right_outsideCutPath
10
94.1
20
330.1707107
11
94.1
21
324.2
0
LINE
8
right_outsideCutPath
10
94.1
20
324.2
11
74.2
21
324.2
0
LINE
8
right_outsideCutPath
10
74.2
20
324.2
11
74.2
21
330.1707107
0
LINE
8
right_outsideCutPath
10
74.2
20
330.1707107
11
74.1707107
21
330.2
0
LINE
8
right_outsideCutPath
10
74.1707107
20
330.2
11
64.1292893
21
330.2
0
LINE
8
right_outsideCutPath
10
64.1292893
20
330.2
11
64.1
21
330.1707107
0
LINE
8
right_outsideCutPath
10
64.1
20
330.1707107
11
64.1
21
319.2
0
LINE
8
right_outsideCutPath
10
64.1
20
319.2
11
58.1292893
21
319.2
0
LINE
8
right_outsideCutPath
10
58.1292893
20
319.2
11
58.1
21
319.1707107
0
LINE
8
right_outsideCutPath
10
58.1
20
319.1707107
11
58.1
21
299.1292893
0
LINE
8
right_outsideCutPath
10
58.1
20
299.1292893
11
58.1292893
21
299.1
0
LINE
8
right_outsideCutPath
10
58.1292893
20
299.1
11
64.1
21
299.1
0
LINE
8
right_outsideCutPath
10
64.1
20
299.1
11
64.1
21
279.2
0
LINE
8
right_outsideCutPath
10
64.1
20
279.2
11
58.1292893
21
279.2
0
LINE
8
right_outsideCutPath
10
58.1292893
20
279.2
11
58.1
21
279.1707107
0
LINE
8
right_outsideCutPath
10
58.1
20
279.1707107
11
58.1
21
259.1292893
0
LINE
8
right_outsideCutPath
10
58.1
20
259.1292893
11
58.1292893
21
259.1
0
LINE
8
right_outsideCutPath
10
58.1292893
20
259.1
11
64.1
21
259.1
0
LINE
8
right_outsideCutPath
10
64.1
20
259.1
11
64.1
21
239.2
0
LINE
8
right_outsideCutPath
10
64.1
20
239.2
11
58.1292893
21
239.2
0
LINE
8
right_outsideCutPath
10
58.1292893
20
239.2
11
58.1
21
239.1707107
0
LINE
8
right_outsideCutPath
10
58.1
20
239.1707107
11
58.1
21
219.1292893
0
LINE
8
right_outsideCutPath
10
58.1
20
219.1292893
11
58.1292893
21
219.1
0
LINE
8
right_outsideCutPath
10
58.1292893
20
219.1
11
64.1
21
219.1
0
LINE
8
right_outsideCutPath
10
64.1
20
219.1
11
64.1
21
199.2
0
LINE
8
right_outsideCutPath
10
64.1
20
199.2
11
58.1292893
21
199.2
0
LINE
8
right_outsideCutPath
10
58.1292893
20
199.2
11
58.1
21
199.1707107
0
LINE
8
right_outsideCutPath
10
58.1
20
199.1707107
11
58.1
21
179.1292893
0
LINE
8
right_outsideCutPath
10
58.1
20
179.1292893
11
58.1292893
21
179.1
0
LINE
8
right_outsideCutPath
10
58.1292893
20
179.1
11
64.1
21
179.1
0
LINE
8
right_outsideCutPath
10
64.1
20
179.1
11
64.1
21
168.1292893
0
LINE
8
right_outsideCutPath
10
64.1
20
168.1292893
11
64.1292893
21
168.1
0
LINE
8
right_outsideCutPath
10
64.1292893
20
168.1
11
74.1707107
21
168.1
0
LINE
8
right_outsideCutPath
10
74.1707107
20
168.1
11
74.2
21
168.1292893
0
LINE
8
bottom_outsideCutPath
10
150.8
20
58.1292893
11
150.8
21
64.1
0
LINE
8
bottom_outsideCutPath
10
150.8
20
64.1
11
162.2707107
21
64.1
0
LINE
8
bottom_outsideCutPath
10
162.2707107
20
64.1
11
162.3
21
64.1292893
0
LINE
8
bottom_outsideCutPath
10
162.3
20
64.1292893
11
162.3
21
74.1
0
LINE
8
bottom_outsideCutPath
10
162.3
20
74.1
11
168.2707107
21
74.1
0
LINE
8
bottom_outsideCutPath
10
168.2707107
20
74.1
11
168.3
21
74.1292893
0
LINE
8
bottom_outsideCutPath
10
168.3
20
74.1292893
11
168.3
21
94.1707107
0
LINE
8
bottom_outsideCutPath
10
168.3
20
94.1707107
11
168.2707107
21
94.2
0
LINE
8
bottom_outsideCutPath
10
168.2707107
20
94.2
11
162.3
21
94.2
0
LINE
8
bottom_outsideCutPath
10
162.3
20
94.2
11
162.3
21
104.1707107
0
LINE
8
bottom_outsideCutPath
10
162.3
20
104.1707107
11
162.2707107
21
104.2
0
LINE
8
bottom_outsideCutPath
10
162.2707107
20
104.2
11
150.8
21
104.2
0
LINE
8
bottom_outsideCutPath
10
150.8
20
104.2
11
150.8
21
110.1707107
0
LINE
8
bottom_outsideCutPath
10
150.8
20
110.1707107
11
150.7707107
21
110.2
0
LINE
8
bottom_outsideCutPath
10
150.7707107
20
110.2
11
130.7292893
21
110.2
0
LINE
8
bottom_outsideCutPath
10
130.7292893
20
110.2
11
130.7
21
110.1707107
0
LINE
8
bottom_outsideCutPath
10
130.7
20
110.1707107
11
130.7
21
104.2
0
LINE
8
bottom_outsideCutPath
10
130.7
20
104.2
11
119.2292893
21
104.2
0
LINE
8
bottom_outsideCutPath
10
119.2292893
20
104.2
11
119.2
21
104.1707107
0
LINE
8
bottom_outsideCutPath
10
119.2
20
104.1707107
11
119.2
21
94.2
0
LINE
8
bottom_outsideCutPath
10
119.2
20
94.2
11
113.2292893
21
94.2
0
LINE
8
bottom_outsideCutPath
10
113.2292893
20
94.2
11
113.2
21
94.1707107
0
LINE
8
bottom_outsideCutPath
10
113.2
20
94.1707107
11
113.2
21
74.1292893
0
LINE
8
bottom_outsideCutPath
10
113.2
20
74.1292893
11
113.2292893
21
74.1
0
LINE
8
bottom_outsideCutPath
10
113.2292893
20
74.1
11
119.2
21
74.1
0
LINE
8
bottom_outsideCutPath
10
119.2
20
74.1
11
119.2
21
64.1292893
0
LINE
8
bottom_outsideCutPath
10
119.2
20
64.1292893
11
119.2292893
21
64.1
0
LINE
8
bottom_outsideCutPath
10
119.2292893
20
64.1
11
130.7
21
64.1
0
LINE
8
bottom_outsideCutPath
10
130.7
20
64.1
11
130.7
21
58.1292893
0
LINE
8
bottom_outsideCutPath
10
130.7
20
58.1292893
11
130.7292893
21
58.1
0
LINE
8
bottom_outsideCutPath
10
130.7292893
20
58.1
11
150.7707107
21
58.1
0
LINE
8
bottom_outsideCutPath
10
150.7707107
20
58.1
11
150.8
21
58.1292893
0
ENDSEC
0
EOF