0
SECTION
2
HEADER
9
$INSUNITS
70
4
9
$ACADVER
1
AC1014
9
$HANDSEED
5
FFFF
0
ENDSEC
0
SECTION
2
TABLES
0
TABLE
2
VPORT
5
8
100
AcDbSymbolTable
0
ENDTAB
0
TABLE
2
LTYPE
5
5
100
AcDbSymbolTable
0
LTYPE
5
14
100
AcDbSymbolTableRecord
100
AcDbLinetypeTableRecord
2
BYBLOCK
70
0
0
LTYPE
5
15
100
AcDbSymbolTableRecord
100
AcDbLinetypeTableRecord
2
BYLAYER
70
0
0
ENDTAB
0
TABLE
2
LAYER
5
2
100
AcDbSymbolTable
70
2
0
LAYER
5
50
100
AcDbSymbolTableRecord
100
AcDbLayerTableRecord
2
0
70
0
6
CONTINUOUS
0
ENDTAB
0
TABLE
2
STYLE
5
3
100
AcDbSymbolTable
70
1
0
STYLE
5
11
100
AcDbSymbolTableRecord
100
AcDbTextStyleTableRecord
2
STANDARD
70
0
0
ENDTAB
0
TABLE
2
VIEW
5
6
100
AcDbSymbolTable
70
0
0
ENDTAB
0
TABLE
2
UCS
5
7
100
AcDbSymbolTable
70
0
0
ENDTAB
0
TABLE
2
APPID
5
9
100
AcDbSymbolTable
70
2
0
APPID
5
12
100
AcDbSymbolTableRecord
100
AcDbRegAppTableRecord
2
ACAD
70
0
0
ENDTAB
0
TABLE
2
DIMSTYLE
5
A
100
AcDbSymbolTable
70
1
0
ENDTAB
0
TABLE
2
BLOCK_RECORD
5
1
100
AcDbSymbolTable
70
1
0
BLOCK_RECORD
5
1F
100
AcDbSymbolTableRecord
100
AcDbBlockTableRecord
2
*MODEL_SPACE
0
BLOCK_RECORD
5
1B
100
AcDbSymbolTableRecord
100
AcDbBlockTableRecord
2
*PAPER_SPACE
0
ENDTAB
0
ENDSEC
0
SECTION
2
BLOCKS
0
BLOCK
5
20
100
AcDbEntity
100
AcDbBlockBegin
2
*MODEL_SPACE
0
ENDBLK
5
21
100
AcDbEntity
100
AcDbBlockEnd
0
BLOCK
5
1C
100
AcDbEntity
100
AcDbBlockBegin
2
*PAPER_SPACE
0
ENDBLK
5
1D
100
AcDbEntity
100
AcDbBlockEnd
0
ENDSEC
0
SECTION
2
ENTITIES
0
CIRCLE
5
100
100
AcDbEntity
8
0
100
AcDbCircle
10
-99.498103206259572
20
-64.142764146932592
30
0
40
1.4000000000000057
0
CIRCLE
5
101
100
AcDbEntity
8
0
100
AcDbCircle
10
-64.142764146932251
20
-99.498103206259984
30
0
40
1.4000000000000057
0
CIRCLE
5
102
100
AcDbEntity
8
0
100
AcDbCircle
10
-76.735437271981638
20
-41.380098212654502
30
0
40
1.3999999999999968
0
CIRCLE
5
103
100
AcDbEntity
8
0
100
AcDbCircle
10
-41.38009821265414
20
-76.735437271982065
30
0
40
1.4000000000000057
0
CIRCLE
5
104
100
AcDbEntity
8
0
100
AcDbCircle
10
-64.142764146932606
20
99.498103206259557
30
0
40
1.4000000000000057
0
CIRCLE
5
105
100
AcDbEntity
8
0
100
AcDbCircle
10
-99.498103206259998
20
64.142764146932251
30
0
40
1.4000000000000057
0
CIRCLE
5
106
100
AcDbEntity
8
0
100
AcDbCircle
10
-41.380098212654516
20
76.735437271981638
30
0
40
1.3999999999999968
0
CIRCLE
5
107
100
AcDbEntity
8
0
100
AcDbCircle
10
-76.735437271982065
20
41.380098212654133
30
0
40
1.4000000000000057
0
CIRCLE
5
108
100
AcDbEntity
8
0
100
AcDbCircle
10
99.498103206259557
20
64.142764146932606
30
0
40
1.4000000000000057
0
CIRCLE
5
109
100
AcDbEntity
8
0
100
AcDbCircle
10
64.142764146932251
20
99.498103206259998
30
0
40
1.4000000000000057
0
CIRCLE
5
110
100
AcDbEntity
8
0
100
AcDbCircle
10
76.735437271981624
20
41.380098212654516
30
0
40
1.3999999999999968
0
CIRCLE
5
111
100
AcDbEntity
8
0
100
AcDbCircle
10
41.380098212654133
20
76.735437271982065
30
0
40
1.4000000000000057
0
CIRCLE
5
112
100
AcDbEntity
8
0
100
AcDbCircle
10
64.142764146932606
20
-99.498103206259557
30
0
40
1.4000000000000057
0
CIRCLE
5
113
100
AcDbEntity
8
0
100
AcDbCircle
10
99.498103206259998
20
-64.142764146932237
30
0
40
1.4000000000000057
0
CIRCLE
5
114
100
AcDbEntity
8
0
100
AcDbCircle
10
41.380098212654524
20
-76.735437271981624
30
0
40
1.3999999999999968
0
CIRCLE
5
115
100
AcDbEntity
8
0
100
AcDbCircle
10
76.735437271982065
20
-41.380098212654126
30
0
40
1.4000000000000057
0
CIRCLE
5
116
100
AcDbEntity
8
0
100
AcDbCircle
10
-123.00000000000003
20
-30.000000000000121
30
0
40
1.7500000000000002
0
CIRCLE
5
117
100
AcDbEntity
8
0
100
AcDbCircle
10
-122.99999999999996
20
29.999999999999787
30
0
40
1.7500000000000002
0
CIRCLE
5
118
100
AcDbEntity
8
0
100
AcDbCircle
10
-30.000000000000128
20
123.00000000000003
30
0
40
1.7500000000000002
0
CIRCLE
5
119
100
AcDbEntity
8
0
100
AcDbCircle
10
29.99999999999978
20
122.99999999999996
30
0
40
1.7500000000000002
0
CIRCLE
5
120
100
AcDbEntity
8
0
100
AcDbCircle
10
123.00000000000003
20
30.000000000000135
30
0
40
1.7500000000000002
0
CIRCLE
5
121
100
AcDbEntity
8
0
100
AcDbCircle
10
122.99999999999996
20
-29.999999999999773
30
0
40
1.7500000000000002
0
CIRCLE
5
122
100
AcDbEntity
8
0
100
AcDbCircle
10
30.000000000000142
20
-123.00000000000003
30
0
40
1.7500000000000002
0
CIRCLE
5
123
100
AcDbEntity
8
0
100
AcDbCircle
10
-29.999999999999766
20
-122.99999999999996
30
0
40
1.7500000000000002
0
LWPOLYLINE
5
124
100
AcDbEntity
8
0
100
AcDbPolyline
90
16
70
1
43
0.0
10
-137.07106781186548
20
-58.076118445749103
42
-0.19891236737965845
10
-140
20
-51.005050633883613
10
-140
20
51.005050633883108
42
-0.19891236737965706
10
-137.0710678118655
20
58.076118445748563
10
-58.076118445749159
20
137.07106781186545
42
-0.19891236737965914
10
-51.005050633883656
20
140
10
51.005050633883108
20
140
42
-0.19891236737965753
10
58.076118445748577
20
137.0710678118655
10
137.07106781186548
20
58.07611844574906
42
-0.19891236737965892
10
140.00000000000003
20
51.005050633883556
10
140
20
-51.005050633883101
42
-0.19891236737965742
10
137.0710678118655
20
-58.076118445748563
10
58.07611844574911
20
-137.07106781186545
42
-0.19891236737965892
10
51.005050633883606
20
-140
10
-51.005050633883087
20
-140
42
-0.1989123673796572
10
-58.076118445748541
20
-137.0710678118655
0
ENDSEC
0
SECTION
2
OBJECTS
0
DICTIONARY
5
C
100
AcDbDictionary
3
ACAD_GROUP
350
D
3
ACAD_MLINESTYLE
350
17
0
DICTIONARY
5
D
100
AcDbDictionary
0
DICTIONARY
5
1A
330
C
100
AcDbDictionary
0
DICTIONARY
5
17
100
AcDbDictionary
0
ENDSEC
0
EOF
