0
SECTION
2
HEADER
9
$INSUNITS
70
4
9
$ACADVER
1
AC1014
9
$HANDSEED
5
FFFF
0
ENDSEC
0
SECTION
2
TABLES
0
TABLE
2
VPORT
5
8
100
AcDbSymbolTable
0
ENDTAB
0
TABLE
2
LTYPE
5
5
100
AcDbSymbolTable
0
LTYPE
5
14
100
AcDbSymbolTableRecord
100
AcDbLinetypeTableRecord
2
BYBLOCK
70
0
0
LTYPE
5
15
100
AcDbSymbolTableRecord
100
AcDbLinetypeTableRecord
2
BYLAYER
70
0
0
ENDTAB
0
TABLE
2
LAYER
5
2
100
AcDbSymbolTable
70
2
0
LAYER
5
50
100
AcDbSymbolTableRecord
100
AcDbLayerTableRecord
2
0
70
0
6
CONTINUOUS
0
ENDTAB
0
TABLE
2
STYLE
5
3
100
AcDbSymbolTable
70
1
0
STYLE
5
11
100
AcDbSymbolTableRecord
100
AcDbTextStyleTableRecord
2
STANDARD
70
0
0
ENDTAB
0
TABLE
2
VIEW
5
6
100
AcDbSymbolTable
70
0
0
ENDTAB
0
TABLE
2
UCS
5
7
100
AcDbSymbolTable
70
0
0
ENDTAB
0
TABLE
2
APPID
5
9
100
AcDbSymbolTable
70
2
0
APPID
5
12
100
AcDbSymbolTableRecord
100
AcDbRegAppTableRecord
2
ACAD
70
0
0
ENDTAB
0
TABLE
2
DIMSTYLE
5
A
100
AcDbSymbolTable
70
1
0
ENDTAB
0
TABLE
2
BLOCK_RECORD
5
1
100
AcDbSymbolTable
70
1
0
BLOCK_RECORD
5
1F
100
AcDbSymbolTableRecord
100
AcDbBlockTableRecord
2
*MODEL_SPACE
0
BLOCK_RECORD
5
1B
100
AcDbSymbolTableRecord
100
AcDbBlockTableRecord
2
*PAPER_SPACE
0
ENDTAB
0
ENDSEC
0
SECTION
2
BLOCKS
0
BLOCK
5
20
100
AcDbEntity
100
AcDbBlockBegin
2
*MODEL_SPACE
0
ENDBLK
5
21
100
AcDbEntity
100
AcDbBlockEnd
0
BLOCK
5
1C
100
AcDbEntity
100
AcDbBlockBegin
2
*PAPER_SPACE
0
ENDBLK
5
1D
100
AcDbEntity
100
AcDbBlockEnd
0
ENDSEC
0
SECTION
2
ENTITIES
0
LINE
5
100
100
AcDbEntity
8
0
100
AcDbLine
10
0
20
0
30
0
11
20
21
0
31
0
0
LINE
5
101
100
AcDbEntity
8
0
100
AcDbLine
10
20
20
0
30
0
11
20
21
46.899999999999991
31
0
0
LINE
5
102
100
AcDbEntity
8
0
100
AcDbLine
10
23.100000000000001
20
50
30
0
11
41.899999999999991
21
50
31
0
0
LINE
5
103
100
AcDbEntity
8
0
100
AcDbLine
10
45
20
46.899999999999991
30
0
11
45
21
0
31
0
0
LINE
5
104
100
AcDbEntity
8
0
100
AcDbLine
10
45
20
0
30
0
11
65
21
0
31
0
0
LINE
5
105
100
AcDbEntity
8
0
100
AcDbLine
10
65
20
0
30
0
11
65
21
100
31
0
0
LINE
5
106
100
AcDbEntity
8
0
100
AcDbLine
10
65
20
100
30
0
11
65
21
150
31
0
0
LINE
5
107
100
AcDbEntity
8
0
100
AcDbLine
10
0
20
150
30
0
11
0
21
0
31
0
0
LINE
5
108
100
AcDbEntity
8
0
100
AcDbLine
10
100
20
350
30
0
11
100
21
396.89999999999998
31
0
0
LINE
5
109
100
AcDbEntity
8
0
100
AcDbLine
10
103.10000000000001
20
400
30
0
11
108.90000000000001
21
400
31
0
0
LINE
5
110
100
AcDbEntity
8
0
100
AcDbLine
10
112
20
396.89999999999998
30
0
11
112
21
350
31
0
0
LINE
5
111
100
AcDbEntity
8
0
100
AcDbLine
10
112
20
350
30
0
11
388
21
350
31
0
0
LINE
5
112
100
AcDbEntity
8
0
100
AcDbLine
10
388
20
350
30
0
11
388
21
396.89999999999998
31
0
0
LINE
5
113
100
AcDbEntity
8
0
100
AcDbLine
10
391.10000000000002
20
400
30
0
11
396.89999999999998
21
400
31
0
0
LINE
5
114
100
AcDbEntity
8
0
100
AcDbLine
10
400
20
396.89999999999998
30
0
11
400
21
350
31
0
0
LINE
5
115
100
AcDbEntity
8
0
100
AcDbLine
10
400
20
350
30
0
11
500
21
350
31
0
0
LINE
5
116
100
AcDbEntity
8
0
100
AcDbLine
10
500
20
350
30
0
11
500
21
630
31
0
0
LINE
5
117
100
AcDbEntity
8
0
100
AcDbLine
10
0
20
630
30
0
11
50
21
630
31
0
0
LINE
5
118
100
AcDbEntity
8
0
100
AcDbLine
10
50
20
630
30
0
11
50
21
621.10000920891764
31
0
0
LINE
5
119
100
AcDbEntity
8
0
100
AcDbLine
10
53.099999999999994
20
618.00000920891762
30
0
11
146.90000000000001
21
618.00000920891762
31
0
0
LINE
5
120
100
AcDbEntity
8
0
100
AcDbLine
10
150
20
621.10000920891764
30
0
11
150
21
630
31
0
0
LINE
5
121
100
AcDbEntity
8
0
100
AcDbLine
10
150
20
630
30
0
11
200
21
630
31
0
0
LINE
5
122
100
AcDbEntity
8
0
100
AcDbLine
10
200
20
630
30
0
11
200
21
621.10000920891764
31
0
0
LINE
5
123
100
AcDbEntity
8
0
100
AcDbLine
10
203.09999999999999
20
618.00000920891762
30
0
11
296.90000000000003
21
618.00000920891762
31
0
0
LINE
5
124
100
AcDbEntity
8
0
100
AcDbLine
10
300
20
621.10000920891764
30
0
11
300
21
630
31
0
0
LINE
5
125
100
AcDbEntity
8
0
100
AcDbLine
10
300
20
630
30
0
11
350
21
630
31
0
0
LINE
5
126
100
AcDbEntity
8
0
100
AcDbLine
10
350
20
630
30
0
11
350
21
621.10000920891764
31
0
0
LINE
5
127
100
AcDbEntity
8
0
100
AcDbLine
10
353.10000000000002
20
618.00000920891762
30
0
11
446.89999999999998
21
618.00000920891762
31
0
0
LINE
5
128
100
AcDbEntity
8
0
100
AcDbLine
10
450
20
621.10000920891764
30
0
11
450
21
630
31
0
0
LINE
5
129
100
AcDbEntity
8
0
100
AcDbLine
10
450
20
630
30
0
11
500
21
630
31
0
0
ARC
5
130
100
AcDbEntity
8
0
100
AcDbCircle
10
50
20
618.00000920891762
30
0
40
3.1000000000000227
100
AcDbArc
50
-270
51
0
0
ARC
5
131
100
AcDbEntity
8
0
100
AcDbCircle
10
150
20
618.00000920891762
30
0
40
3.100000000000005
100
AcDbArc
50
-180
51
90
0
LINE
5
132
100
AcDbEntity
8
0
100
AcDbLine
10
0
20
150
30
0
11
26.500000000000004
21
150
31
0
0
LINE
5
133
100
AcDbEntity
8
0
100
AcDbLine
10
65
20
150
30
0
11
38.5
21
150
31
0
0
LINE
5
134
100
AcDbEntity
8
0
100
AcDbLine
10
26.500000000000004
20
150
30
0
11
26.500000000000004
21
103.10000000000001
31
0
0
LINE
5
135
100
AcDbEntity
8
0
100
AcDbLine
10
38.5
20
150
30
0
11
38.5
21
103.10000000000001
31
0
0
LINE
5
136
100
AcDbEntity
8
0
100
AcDbLine
10
29.600000000000005
20
100
30
0
11
35.399999999999991
21
100
31
0
0
LINE
5
137
100
AcDbEntity
8
0
100
AcDbLine
10
388.5
20
150
30
0
11
388.5
21
103.10000000000001
31
0
0
LINE
5
138
100
AcDbEntity
8
0
100
AcDbLine
10
379.60000000000002
20
100
30
0
11
385.39999999999998
21
100
31
0
0
LINE
5
139
100
AcDbEntity
8
0
100
AcDbLine
10
415
20
150
30
0
11
388.5
21
150
31
0
0
LINE
5
140
100
AcDbEntity
8
0
100
AcDbLine
10
415
20
100
30
0
11
415
21
150
31
0
0
LINE
5
141
100
AcDbEntity
8
0
100
AcDbLine
10
415
20
0
30
0
11
415
21
100
31
0
0
LINE
5
142
100
AcDbEntity
8
0
100
AcDbLine
10
395
20
0
30
0
11
415
21
0
31
0
0
LINE
5
143
100
AcDbEntity
8
0
100
AcDbLine
10
350
20
0
30
0
11
370
21
0
31
0
0
LINE
5
144
100
AcDbEntity
8
0
100
AcDbLine
10
395
20
46.90000000000002
30
0
11
395
21
0
31
0
0
LINE
5
145
100
AcDbEntity
8
0
100
AcDbLine
10
373.09999999999997
20
50
30
0
11
391.90000000000003
21
50
31
0
0
LINE
5
146
100
AcDbEntity
8
0
100
AcDbLine
10
370
20
0
30
0
11
370
21
46.90000000000002
31
0
0
LINE
5
147
100
AcDbEntity
8
0
100
AcDbLine
10
350
20
150
30
0
11
350
21
0
31
0
0
LINE
5
148
100
AcDbEntity
8
0
100
AcDbLine
10
350
20
150
30
0
11
376.5
21
150
31
0
0
LINE
5
149
100
AcDbEntity
8
0
100
AcDbLine
10
376.5
20
150
30
0
11
376.5
21
103.10000000000002
31
0
0
ARC
5
150
100
AcDbEntity
8
0
100
AcDbCircle
10
200
20
618.00000920891762
30
0
40
3.1000000000000227
100
AcDbArc
50
-270
51
0
0
ARC
5
151
100
AcDbEntity
8
0
100
AcDbCircle
10
300
20
618.00000920891762
30
0
40
3.0999999999999872
100
AcDbArc
50
-180
51
90
0
ARC
5
152
100
AcDbEntity
8
0
100
AcDbCircle
10
350
20
618.00000920891762
30
0
40
3.1000000000000227
100
AcDbArc
50
-270
51
0
0
ARC
5
153
100
AcDbEntity
8
0
100
AcDbCircle
10
450
20
618.00000920891762
30
0
40
3.1000000000000227
100
AcDbArc
50
-180
51
90
0
ARC
5
154
100
AcDbEntity
8
0
100
AcDbCircle
10
112
20
400
30
0
40
3.1000000000000227
100
AcDbArc
50
-90
51
180
0
ARC
5
155
100
AcDbEntity
8
0
100
AcDbCircle
10
100
20
400
30
0
40
3.100000000000005
100
AcDbArc
50
0
51
270
0
ARC
5
156
100
AcDbEntity
8
0
100
AcDbCircle
10
388
20
400
30
0
40
3.1000000000000227
100
AcDbArc
50
0
51
270
0
ARC
5
157
100
AcDbEntity
8
0
100
AcDbCircle
10
400
20
400
30
0
40
3.1000000000000227
100
AcDbArc
50
-90
51
180
0
ARC
5
158
100
AcDbEntity
8
0
100
AcDbCircle
10
26.500000000000004
20
100
30
0
40
3.100000000000005
100
AcDbArc
50
-270
51
0
0
ARC
5
159
100
AcDbEntity
8
0
100
AcDbCircle
10
38.5
20
100
30
0
40
3.100000000000005
100
AcDbArc
50
-180
51
90
0
ARC
5
160
100
AcDbEntity
8
0
100
AcDbCircle
10
376.5
20
100
30
0
40
3.1000000000000227
100
AcDbArc
50
-270
51
0
0
ARC
5
161
100
AcDbEntity
8
0
100
AcDbCircle
10
388.5
20
100
30
0
40
3.1000000000000227
100
AcDbArc
50
-180
51
90
0
ARC
5
162
100
AcDbEntity
8
0
100
AcDbCircle
10
20
20
50
30
0
40
3.1000000000000005
100
AcDbArc
50
0
51
270
0
ARC
5
163
100
AcDbEntity
8
0
100
AcDbCircle
10
45
20
50
30
0
40
3.100000000000005
100
AcDbArc
50
-90
51
180
0
ARC
5
164
100
AcDbEntity
8
0
100
AcDbCircle
10
370
20
50
30
0
40
3.0999999999999517
100
AcDbArc
50
0
51
270
0
ARC
5
165
100
AcDbEntity
8
0
100
AcDbCircle
10
395
20
50
30
0
40
3.0999999999999783
100
AcDbArc
50
-90
51
180
0
LWPOLYLINE
5
166
100
AcDbEntity
8
0
100
AcDbPolyline
90
76
70
1
43
0.0
10
600
20
338.00000503659248
10
600
20
346.89999999999998
42
2.4142135623730945
10
596.89999999999998
20
350
10
562.00000837445259
20
350
10
562.00000837445259
20
452.39999999999998
42
2.4142135623730945
10
558.90000837445257
20
455.5
10
550.00000837445259
20
455.5
10
550.00000837445259
20
555.5
10
558.90000837445257
20
555.5
42
2.4142135623730945
10
562.00000837445259
20
558.60000000000002
10
562.00000837445259
20
602.39999999999998
42
2.4142135623730945
10
558.90000837445257
20
605.5
10
550
20
605.5
10
550
20
705.5
10
562
20
705.5
10
562
20
811
10
550
20
811
10
550
20
1119
10
558.89999999999998
20
1119
42
2.4142135623730945
10
562
20
1122.0999999999999
10
562
20
1221.3999999999999
42
2.4142135623730945
10
558.89999999999998
20
1224.5
10
550
20
1224.5
10
550
20
1324.5
10
558.89999999999998
20
1324.5
42
2.4142135623730945
10
562
20
1327.5999999999999
10
562
20
1371.3999999999999
42
2.4142135623730945
10
558.89999999999998
20
1374.5
10
550
20
1374.5
10
550
20
1474.5
10
558.89999999999998
20
1474.5
42
2.4142135623730945
10
562
20
1477.5999999999999
10
562
20
1580
10
596.89999999999998
20
1580
42
2.4142135623730945
10
600
20
1583.0999999999999
10
600
20
1592.0000237226486
10
700
20
1592.0000237226486
10
700
20
1583.0999999999999
42
2.4142135623730945
10
703.10000000000002
20
1580
10
746.89999999999998
20
1580
42
2.4142135623730945
10
750
20
1583.0999999999999
10
750
20
1592.0000237226486
10
850
20
1592.0000237226486
10
850
20
1583.0999999999999
42
2.4142135623730945
10
853.10000000000002
20
1580
10
896.89999999999998
20
1580
42
2.4142135623730945
10
900
20
1583.0999999999999
10
900
20
1592
10
1000
20
1592
10
1000
20
1583.0999999999999
42
2.4142135623730945
10
1003.1
20
1580
10
1050
20
1580
10
1050
20
1136
42
-0.41421356237310886
10
1044
20
1130
10
850
20
1130
42
0.41421356237309509
10
800
20
1080
10
800
20
810
42
0.41421356237309509
10
850
20
760
10
1044
20
760
42
-0.41421356237310886
10
1050
20
754
10
1050
20
350
10
1003.1
20
350
42
2.4142135623730945
10
1000
20
346.89999999999998
10
1000
20
338.00000503659248
10
900
20
338.00000503659248
10
900
20
346.89999999999998
42
2.4142135623730945
10
896.89999999999998
20
350
10
853.10000000000002
20
350
42
2.4142135623730945
10
850
20
346.90000000000003
10
850
20
338.00000503659248
10
750
20
338.00000503659248
10
750
20
346.89999999999998
42
2.4142135623730945
10
746.89999999999998
20
350
10
703.10000000000002
20
350
42
2.4142135623730945
10
700
20
346.89999999999998
10
700
20
338.00000503659248
0
LINE
5
167
100
AcDbEntity
8
0
100
AcDbLine
10
100
20
350
30
0
11
30
21
350
31
0
0
LINE
5
168
100
AcDbEntity
8
0
100
AcDbLine
10
0
20
630
30
0
11
0
21
567.5
31
0
0
LINE
5
169
100
AcDbEntity
8
0
100
AcDbLine
10
0
20
567.5
30
0
11
8.9000000000000021
21
567.5
31
0
0
LINE
5
170
100
AcDbEntity
8
0
100
AcDbLine
10
12.000000000000002
20
564.39999999999998
30
0
11
12.000000000000002
21
520.60000000000002
31
0
0
LINE
5
171
100
AcDbEntity
8
0
100
AcDbLine
10
8.9000000000000021
20
517.5
30
0
11
0
21
517.5
31
0
0
LINE
5
172
100
AcDbEntity
8
0
100
AcDbLine
10
0
20
517.5
30
0
11
0
21
467.5
31
0
0
LINE
5
173
100
AcDbEntity
8
0
100
AcDbLine
10
0
20
467.5
30
0
11
8.9000000000000021
21
467.5
31
0
0
LINE
5
174
100
AcDbEntity
8
0
100
AcDbLine
10
12.000000000000002
20
464.39999999999998
30
0
11
12.000000000000002
21
420.60000000000002
31
0
0
LINE
5
175
100
AcDbEntity
8
0
100
AcDbLine
10
12.000000000000002
20
417.5
30
0
11
0
21
417.5
31
0
0
LWPOLYLINE
5
176
100
AcDbEntity
8
0
100
AcDbPolyline
90
39
70
1
43
0.0
10
-50
20
570.60000000000002
10
-50
20
630
10
-155.49999999999997
20
630
10
-155.49999999999997
20
621.10000000000002
42
-2.4142135623730945
10
-158.59999999999997
20
618
10
-252.39999999999995
20
618
42
-2.4142135623730945
10
-255.49999999999997
20
621.10000000000002
10
-255.49999999999997
20
630
10
-305.5
20
630
10
-305.5
20
621.10000000000002
42
-2.4142135623730945
10
-308.59999999999997
20
618
10
-402.39999999999998
20
618
42
-2.4142135623730945
10
-405.5
20
621.10000000000002
10
-405.5
20
630
10
-511.00000761449326
20
630.00000938773144
10
-511.00000868229199
20
618.00000938773144
10
-384.9999999999971
20
479.90381578307392
10
-310
20
350.00000521540642
10
-272
20
350.00000521540642
10
-272
20
396.89999999999998
42
-2.4142135623730945
10
-268.89999999999998
20
400
10
-263.10000000000002
20
400
42
-2.4142135623730945
10
-260
20
396.89999999999998
10
-260
20
350.00000521540642
10
-210
20
350.00000521540642
10
-210
20
356.90000536441801
42
-2.4142135623730945
10
-206.90000000000001
20
360.00000536441803
10
-50
20
360.00000536441803
10
-50
20
414.39999999999998
42
-2.4142135623730945
10
-46.899999999999991
20
417.5
10
-38
20
417.5
10
-38
20
467.5
10
-46.899999999999977
20
467.5
42
-2.4142135623730945
10
-50
20
470.60000000000002
10
-50
20
514.39999999999998
42
-2.4142135623730945
10
-46.899999999999991
20
517.5
10
-38
20
517.5
10
-38
20
567.5
10
-46.899999999999977
20
567.5
42
-2.4142135623730945
0
LWPOLYLINE
5
177
100
AcDbEntity
8
0
100
AcDbPolyline
90
49
70
1
43
0.0
10
500
20
980
10
450
20
980
10
450
20
971.10000920891764
42
-2.4142135623730945
10
446.89999999999998
20
968.00000920891762
10
353.10000000000002
20
968.00000920891762
42
-2.4142135623730945
10
350
20
971.10000920891764
10
350
20
980
10
300
20
980
10
300
20
971.10000920891764
42
-2.4142135623730945
10
296.90000000000003
20
968.00000920891762
10
203.10000000000002
20
968.00000920891762
42
-2.4142135623730945
10
200
20
971.10000920891764
10
200
20
980
10
150
20
980
10
150
20
971.10000920891764
42
-2.4142135623730945
10
146.89999999999998
20
968.00000920891762
10
53.100000000000023
20
968.00000920891762
42
-2.4142135623730945
10
50
20
971.10000920891764
10
50
20
980
10
0
20
980
10
0
20
917.5
10
8.899999999999979
20
917.5
42
-2.4142135623730945
10
12.000000000000002
20
914.39999999999998
10
12.000000000000002
20
870.60000000000002
42
-2.4142135623730945
10
8.9000000000000021
20
867.5
10
0
20
867.5
10
0
20
817.5
10
8.899999999999979
20
817.5
42
-2.4142135623730945
10
12.000000000000002
20
814.39999999999998
10
12.000000000000002
20
770.60000000000002
42
-2.4142135623730945
10
8.9000000000000021
20
767.5
10
0
20
767.5
10
0
20
710.00001057982445
10
26.899999999999977
20
710.00001057982445
42
-2.4142135623730945
10
30
20
706.90001057982442
10
30
20
700
10
100
20
700
10
100
20
746.89999999999998
42
-2.4142135623730945
10
103.10000000000001
20
750
10
108.89999999999998
20
750
42
-2.4142135623730945
10
112
20
746.89999999999998
10
112
20
700
10
388
20
700
10
388
20
746.89999999999998
42
-2.4142135623730945
10
391.10000000000002
20
750
10
396.89999999999998
20
750
42
-2.4142135623730945
10
400
20
746.89999999999998
10
400
20
700
10
500
20
700
0
LINE
5
178
100
AcDbEntity
8
0
100
AcDbLine
10
350
20
-200
30
0
11
370
21
-200
31
0
0
LINE
5
179
100
AcDbEntity
8
0
100
AcDbLine
10
29.600000000000005
20
-100
30
0
11
35.399999999999991
21
-100
31
0
0
LINE
5
180
100
AcDbEntity
8
0
100
AcDbLine
10
395
20
-200
30
0
11
415
21
-200
31
0
0
LINE
5
181
100
AcDbEntity
8
0
100
AcDbLine
10
0
20
-50
30
0
11
0
21
-200
31
0
0
LINE
5
182
100
AcDbEntity
8
0
100
AcDbLine
10
20
20
-200
30
0
11
20
21
-153.09999999999999
31
0
0
LINE
5
183
100
AcDbEntity
8
0
100
AcDbLine
10
45
20
-153.09999999999999
30
0
11
45
21
-200
31
0
0
LINE
5
184
100
AcDbEntity
8
0
100
AcDbLine
10
45
20
-200
30
0
11
65
21
-200
31
0
0
LINE
5
185
100
AcDbEntity
8
0
100
AcDbLine
10
395
20
-153.09999999999999
30
0
11
395
21
-200
31
0
0
LINE
5
186
100
AcDbEntity
8
0
100
AcDbLine
10
370
20
-200
30
0
11
370
21
-153.09999999999999
31
0
0
LINE
5
187
100
AcDbEntity
8
0
100
AcDbLine
10
65
20
-100
30
0
11
65.000000000000014
21
-50
31
0
0
LINE
5
188
100
AcDbEntity
8
0
100
AcDbLine
10
0
20
-50
30
0
11
26.500000000000004
21
-50
31
0
0
LINE
5
189
100
AcDbEntity
8
0
100
AcDbLine
10
26.500000000000004
20
-50
30
0
11
26.500000000000004
21
-96.899999999999991
31
0
0
LINE
5
190
100
AcDbEntity
8
0
100
AcDbLine
10
65.000000000000014
20
-50
30
0
11
38.500000000000014
21
-50
31
0
0
LINE
5
191
100
AcDbEntity
8
0
100
AcDbLine
10
415
20
-50.000000000000057
30
0
11
388.5
21
-50.000000000000057
31
0
0
LINE
5
192
100
AcDbEntity
8
0
100
AcDbLine
10
379.60000000000002
20
-100
30
0
11
385.39999999999998
21
-100
31
0
0
LINE
5
193
100
AcDbEntity
8
0
100
AcDbLine
10
388.5
20
-50.000000000000057
30
0
11
388.5
21
-96.899999999999991
31
0
0
LINE
5
194
100
AcDbEntity
8
0
100
AcDbLine
10
415
20
-200
30
0
11
415
21
-100
31
0
0
LINE
5
195
100
AcDbEntity
8
0
100
AcDbLine
10
350
20
-50
30
0
11
350
21
-200
31
0
0
ARC
5
196
100
AcDbEntity
8
0
100
AcDbCircle
10
26.500000000000004
20
-100
30
0
40
3.100000000000005
100
AcDbArc
50
-270
51
0
0
ARC
5
197
100
AcDbEntity
8
0
100
AcDbCircle
10
38.5
20
-100
30
0
40
3.100000000000005
100
AcDbArc
50
-180
51
90
0
ARC
5
198
100
AcDbEntity
8
0
100
AcDbCircle
10
45
20
-150
30
0
40
3.100000000000005
100
AcDbArc
50
-90
51
180
0
LINE
5
199
100
AcDbEntity
8
0
100
AcDbLine
10
65
20
-200
30
0
11
65
21
-100
31
0
0
ARC
5
200
100
AcDbEntity
8
0
100
AcDbCircle
10
20
20
-150
30
0
40
3.1000000000000005
100
AcDbArc
50
0
51
270
0
LINE
5
201
100
AcDbEntity
8
0
100
AcDbLine
10
23.100000000000001
20
-150
30
0
11
41.899999999999991
21
-150
31
0
0
ARC
5
202
100
AcDbEntity
8
0
100
AcDbCircle
10
370
20
-150
30
0
40
3.0999999999999517
100
AcDbArc
50
0
51
270
0
ARC
5
203
100
AcDbEntity
8
0
100
AcDbCircle
10
395
20
-150
30
0
40
3.0999999999999872
100
AcDbArc
50
-90
51
180
0
LINE
5
204
100
AcDbEntity
8
0
100
AcDbLine
10
373.09999999999997
20
-150
30
0
11
391.90000000000003
21
-150
31
0
0
ARC
5
205
100
AcDbEntity
8
0
100
AcDbCircle
10
388.5
20
-100
30
0
40
3.1000000000000227
100
AcDbArc
50
-180
51
90
0
ARC
5
206
100
AcDbEntity
8
0
100
AcDbCircle
10
376.5
20
-100
30
0
40
3.1000000000000227
100
AcDbArc
50
-270
51
0
0
LINE
5
207
100
AcDbEntity
8
0
100
AcDbLine
10
376.5
20
-50
30
0
11
376.5
21
-96.899999999999977
31
0
0
LINE
5
208
100
AcDbEntity
8
0
100
AcDbLine
10
350
20
-50
30
0
11
376.5
21
-50
31
0
0
LINE
5
209
100
AcDbEntity
8
0
100
AcDbLine
10
415
20
-100
30
0
11
415
21
-50.000000000000057
31
0
0
LINE
5
210
100
AcDbEntity
8
0
100
AcDbLine
10
0
20
-200
30
0
11
20
21
-200
31
0
0
LINE
5
211
100
AcDbEntity
8
0
100
AcDbLine
10
38.500000000000014
20
-50
30
0
11
38.5
21
-96.899999999999991
31
0
0
LINE
5
212
100
AcDbEntity
8
0
100
AcDbLine
10
-280
20
-200
30
0
11
-280
21
-153.09999999999999
31
0
0
LINE
5
213
100
AcDbEntity
8
0
100
AcDbLine
10
-255
20
-153.09999999999999
30
0
11
-255
21
-200
31
0
0
LINE
5
214
100
AcDbEntity
8
0
100
AcDbLine
10
-255
20
-200
30
0
11
-235
21
-200
31
0
0
LINE
5
215
100
AcDbEntity
8
0
100
AcDbLine
10
-300
20
-200
30
0
11
-280
21
-200
31
0
0
LINE
5
216
100
AcDbEntity
8
0
100
AcDbLine
10
-276.90000000000003
20
50
30
0
11
-258.10000000000002
21
50
31
0
0
LINE
5
217
100
AcDbEntity
8
0
100
AcDbLine
10
-261.5
20
-50.000000000000007
30
0
11
-261.5
21
-96.899999999999991
31
0
0
LINE
5
218
100
AcDbEntity
8
0
100
AcDbLine
10
-300
20
150
30
0
11
-300
21
0
31
0
0
LINE
5
219
100
AcDbEntity
8
0
100
AcDbLine
10
-235
20
-50.000000000000007
30
0
11
-261.5
21
-50.000000000000007
31
0
0
LINE
5
220
100
AcDbEntity
8
0
100
AcDbLine
10
-235
20
-100
30
0
11
-235
21
-50.000000000000007
31
0
0
LINE
5
221
100
AcDbEntity
8
0
100
AcDbLine
10
-300
20
-50
30
0
11
-273.5
21
-50
31
0
0
LINE
5
222
100
AcDbEntity
8
0
100
AcDbLine
10
-273.5
20
-50
30
0
11
-273.5
21
-96.899999999999991
31
0
0
LINE
5
223
100
AcDbEntity
8
0
100
AcDbLine
10
-255
20
0
30
0
11
-235
21
0
31
0
0
ARC
5
224
100
AcDbEntity
8
0
100
AcDbCircle
10
-255
20
50
30
0
40
3.100000000000005
100
AcDbArc
50
-90
51
180
0
LINE
5
225
100
AcDbEntity
8
0
100
AcDbLine
10
-270.39999999999998
20
100
30
0
11
-264.60000000000002
21
100
31
0
0
LINE
5
226
100
AcDbEntity
8
0
100
AcDbLine
10
-300
20
150
30
0
11
-273.5
21
150
31
0
0
LINE
5
227
100
AcDbEntity
8
0
100
AcDbLine
10
-255
20
46.899999999999991
30
0
11
-255
21
0
31
0
0
ARC
5
228
100
AcDbEntity
8
0
100
AcDbCircle
10
-280
20
50
30
0
40
3.0999999999999872
100
AcDbArc
50
0
51
270
0
LINE
5
229
100
AcDbEntity
8
0
100
AcDbLine
10
-300
20
-50
30
0
11
-300
21
-200
31
0
0
LINE
5
230
100
AcDbEntity
8
0
100
AcDbLine
10
-235
20
150
30
0
11
-261.5
21
150
31
0
0
LINE
5
231
100
AcDbEntity
8
0
100
AcDbLine
10
-235
20
100
30
0
11
-235
21
150
31
0
0
LINE
5
232
100
AcDbEntity
8
0
100
AcDbLine
10
-300
20
0
30
0
11
-280
21
0
31
0
0
ARC
5
233
100
AcDbEntity
8
0
100
AcDbCircle
10
-261.5
20
100
30
0
40
3.1000000000000227
100
AcDbArc
50
-180
51
90
0
LINE
5
234
100
AcDbEntity
8
0
100
AcDbLine
10
-235
20
0
30
0
11
-235
21
100
31
0
0
LINE
5
235
100
AcDbEntity
8
0
100
AcDbLine
10
-280
20
0
30
0
11
-280
21
46.899999999999991
31
0
0
ARC
5
236
100
AcDbEntity
8
0
100
AcDbCircle
10
-273.5
20
100
30
0
40
3.100000000000005
100
AcDbArc
50
-270
51
0
0
LINE
5
237
100
AcDbEntity
8
0
100
AcDbLine
10
-273.5
20
150
30
0
11
-273.5
21
103.10000000000001
31
0
0
LINE
5
238
100
AcDbEntity
8
0
100
AcDbLine
10
-261.5
20
150
30
0
11
-261.5
21
103.10000000000001
31
0
0
ARC
5
239
100
AcDbEntity
8
0
100
AcDbCircle
10
-280
20
-150
30
0
40
3.0999999999999872
100
AcDbArc
50
0
51
270
0
ARC
5
240
100
AcDbEntity
8
0
100
AcDbCircle
10
-255
20
-150
30
0
40
3.100000000000005
100
AcDbArc
50
-90
51
180
0
ARC
5
241
100
AcDbEntity
8
0
100
AcDbCircle
10
-261.5
20
-100
30
0
40
3.1000000000000227
100
AcDbArc
50
-180
51
90
0
ARC
5
242
100
AcDbEntity
8
0
100
AcDbCircle
10
-273.5
20
-100
30
0
40
3.100000000000005
100
AcDbArc
50
-270
51
0
0
LINE
5
243
100
AcDbEntity
8
0
100
AcDbLine
10
-276.90000000000003
20
-150
30
0
11
-258.10000000000002
21
-150
31
0
0
LINE
5
244
100
AcDbEntity
8
0
100
AcDbLine
10
-235
20
-200
30
0
11
-235
21
-100
31
0
0
LINE
5
245
100
AcDbEntity
8
0
100
AcDbLine
10
-270.39999999999998
20
-100
30
0
11
-264.60000000000002
21
-100
31
0
0
ARC
5
246
100
AcDbEntity
8
0
100
AcDbCircle
10
12.000000000000002
20
517.5
30
0
40
3.1000000000000005
100
AcDbArc
50
-180
51
90
0
ARC
5
247
100
AcDbEntity
8
0
100
AcDbCircle
10
12.000000000000002
20
567.5
30
0
40
3.1000000000000227
100
AcDbArc
50
-90
51
180
0
ARC
5
248
100
AcDbEntity
8
0
100
AcDbCircle
10
12.000000000000002
20
417.5
30
0
40
3.1000000000000005
100
AcDbArc
50
-180
51
90
0
ARC
5
249
100
AcDbEntity
8
0
100
AcDbCircle
10
12.000000000000002
20
467.5
30
0
40
3.1000000000000227
100
AcDbArc
50
-90
51
180
0
LWPOLYLINE
5
250
100
AcDbEntity
8
0
100
AcDbPolyline
90
39
70
1
43
0.0
10
-863.10000000000002
20
400
42
-2.4142135623730945
10
-860
20
396.89999999999998
10
-860
20
350.00000521540642
10
-810
20
350.00000521540642
10
-810.00000000000023
20
356.90000536441801
42
-2.4142136196084079
10
-806.90000000000043
20
360.0000052604824
10
-650
20
360
10
-650
20
414.39999999999998
42
-2.4142135623730945
10
-646.89999999999998
20
417.5
10
-638
20
417.5
10
-638
20
467.5
10
-646.89999999999998
20
467.5
42
-2.4142135623730945
10
-650
20
470.60000000000002
10
-650
20
514.39999999999998
42
-2.4142135623730945
10
-646.89999999999998
20
517.5
10
-638
20
517.5
10
-638
20
567.5
10
-646.89999999999998
20
567.5
42
-2.4142135623730945
10
-650
20
570.60000000000002
10
-650
20
630
10
-755.5
20
630
10
-755.5
20
621.10000000000002
42
-2.4142135623730945
10
-758.60000000000002
20
618
10
-852.39999999999998
20
618
42
-2.4142135623730945
10
-855.5
20
621.10000000000002
10
-855.5
20
630
10
-905.5
20
630
10
-905.5
20
621.10000000000002
42
-2.4142135623730945
10
-908.60000000000002
20
618
10
-1002.4
20
618
42
-2.4142135623730945
10
-1005.5
20
621.10000000000002
10
-1005.5
20
630
10
-1111.0000076144931
20
630.00000938773144
10
-1111.000008682292
20
618.00000938773144
10
-985.00000000000784
20
479.9038157830654
10
-910.00000000000784
20
350.00000521539954
10
-872
20
350.00000521540642
10
-872
20
396.89999999999998
42
-2.4142135623730945
10
-868.89999999999998
20
400
0
CIRCLE
5
251
100
AcDbEntity
8
0
100
AcDbCircle
10
562
20
705.5
30
0
40
3.1000000000000307
0
CIRCLE
5
252
100
AcDbEntity
8
0
100
AcDbCircle
10
562
20
811
30
0
40
3.1000000000000307
0
LINE
5
253
100
AcDbEntity
8
0
100
AcDbLine
10
30
20
350
30
0
11
30
21
356.90000536441801
31
0
0
LINE
5
254
100
AcDbEntity
8
0
100
AcDbLine
10
26.899999999999999
20
360.00000536441803
30
0
11
0
21
360.00000536441803
31
0
0
LINE
5
255
100
AcDbEntity
8
0
100
AcDbLine
10
0
20
360.00000536441803
30
0
11
0
21
417.5
31
0
0
ARC
5
256
100
AcDbEntity
8
0
100
AcDbCircle
10
30
20
360.00000536441803
30
0
40
3.1000000000000227
100
AcDbArc
50
-90
51
180
0
ENDSEC
0
SECTION
2
OBJECTS
0
DICTIONARY
5
C
100
AcDbDictionary
3
ACAD_GROUP
350
D
3
ACAD_MLINESTYLE
350
17
0
DICTIONARY
5
D
100
AcDbDictionary
0
DICTIONARY
5
1A
330
C
100
AcDbDictionary
0
DICTIONARY
5
17
100
AcDbDictionary
0
ENDSEC
0
EOF
