  0
SECTION
  2
HEADER
  9
$ACADVER
  1
AC1024
  9
$ACADMAINTVER
 70
     6
  9
$DWGCODEPAGE
  3
UNDEFINED
  9
$INSBASE
 10
0.0
 20
0.0
 30
0.0
  9
$EXTMIN
 10
1.000000000000000E+20
 20
1.000000000000000E+20
 30
1.000000000000000E+20
  9
$EXTMAX
 10
-1.000000000000000E+20
 20
-1.000000000000000E+20
 30
-1.000000000000000E+20
  9
$LIMMIN
 10
0.0
 20
0.0
  9
$LIMMAX
 10
12.0
 20
9.0
  9
$ORTHOMODE
 70
     0
  9
$REGENMODE
 70
     1
  9
$FILLMODE
 70
     1
  9
$QTEXTMODE
 70
     0
  9
$MIRRTEXT
 70
     1
  9
$LTSCALE
 40
1.0
  9
$ATTMODE
 70
     1
  9
$TEXTSIZE
 40
0.2
  9
$TRACEWID
 40
0.05
  9
$TEXTSTYLE
  7
Standard
  9
$CLAYER
  8
0
  9
$CELTYPE
  6
ByLayer
  9
$CECOLOR
 62
   256
  9
$CELTSCALE
 40
1.0
  9
$DISPSILH
 70
     0
  9
$DIMSCALE
 40
1.0
  9
$DIMASZ
 40
0.18
  9
$DIMEXO
 40
0.0625
  9
$DIMDLI
 40
0.38
  9
$DIMRND
 40
0.0
  9
$DIMDLE
 40
0.0
  9
$DIMEXE
 40
0.18
  9
$DIMTP
 40
0.0
  9
$DIMTM
 40
0.0
  9
$DIMTXT
 40
0.18
  9
$DIMCEN
 40
0.09
  9
$DIMTSZ
 40
0.0
  9
$DIMTOL
 70
     0
  9
$DIMLIM
 70
     0
  9
$DIMTIH
 70
     1
  9
$DIMTOH
 70
     1
  9
$DIMSE1
 70
     0
  9
$DIMSE2
 70
     0
  9
$DIMTAD
 70
     0
  9
$DIMZIN
 70
     0
  9
$DIMBLK
  1

  9
$DIMASO
 70
     1
  9
$DIMSHO
 70
     1
  9
$DIMPOST
  1

  9
$DIMAPOST
  1

  9
$DIMALT
 70
     0
  9
$DIMALTD
 70
     2
  9
$DIMALTF
 40
25.4
  9
$DIMLFAC
 40
1.0
  9
$DIMTOFL
 70
     0
  9
$DIMTVP
 40
0.0
  9
$DIMTIX
 70
     0
  9
$DIMSOXD
 70
     0
  9
$DIMSAH
 70
     0
  9
$DIMBLK1
  1

  9
$DIMBLK2
  1

  9
$DIMSTYLE
  2
Standard
  9
$DIMCLRD
 70
     0
  9
$DIMCLRE
 70
     0
  9
$DIMCLRT
 70
     0
  9
$DIMTFAC
 40
1.0
  9
$DIMGAP
 40
0.09
  9
$DIMJUST
 70
     0
  9
$DIMSD1
 70
     0
  9
$DIMSD2
 70
     0
  9
$DIMTOLJ
 70
     1
  9
$DIMTZIN
 70
     0
  9
$DIMALTZ
 70
     0
  9
$DIMALTTZ
 70
     0
  9
$DIMUPT
 70
     0
  9
$DIMDEC
 70
     4
  9
$DIMTDEC
 70
     4
  9
$DIMALTU
 70
     2
  9
$DIMALTTD
 70
     2
  9
$DIMTXSTY
  7
Standard
  9
$DIMAUNIT
 70
     0
  9
$DIMADEC
 70
     0
  9
$DIMALTRND
 40
0.0
  9
$DIMAZIN
 70
     0
  9
$DIMDSEP
 70
    46
  9
$DIMATFIT
 70
     3
  9
$DIMFRAC
 70
     0
  9
$DIMLDRBLK
  1

  9
$DIMLUNIT
 70
     2
  9
$DIMLWD
 70
    -2
  9
$DIMLWE
 70
    -2
  9
$DIMTMOVE
 70
     0
  9
$DIMFXL
 40
1.0
  9
$DIMFXLON
 70
     0
  9
$DIMJOGANG
 40
0.7853981633974483
  9
$DIMTFILL
 70
     0
  9
$DIMTFILLCLR
 70
     0
  9
$DIMARCSYM
 70
     0
  9
$DIMLTYPE
  6

  9
$DIMLTEX1
  6

  9
$DIMLTEX2
  6

  9
$DIMTXTDIRECTION
 70
     0
  9
$LUNITS
 70
     2
  9
$LUPREC
 70
     4
  9
$SKETCHINC
 40
0.1
  9
$FILLETRAD
 40
0.5
  9
$AUNITS
 70
     0
  9
$AUPREC
 70
     0
  9
$MENU
  1
.
  9
$ELEVATION
 40
0.0
  9
$PELEVATION
 40
0.0
  9
$THICKNESS
 40
0.0
  9
$LIMCHECK
 70
     0
  9
$CHAMFERA
 40
0.5
  9
$CHAMFERB
 40
0.5
  9
$CHAMFERC
 40
1.0
  9
$CHAMFERD
 40
0.0
  9
$SKPOLY
 70
     0
  9
$TDCREATE
 40
2458656.414699063
  9
$TDUCREATE
 40
2458656.039699074
  9
$TDUPDATE
 40
2458656.414699063
  9
$TDUUPDATE
 40
2458656.039699074
  9
$TDINDWG
 40
0.0000000116
  9
$TDUSRTIMER
 40
0.0000000116
  9
$USRTIMER
 70
     1
  9
$ANGBASE
 50
0.0
  9
$ANGDIR
 70
     0
  9
$PDMODE
 70
     0
  9
$PDSIZE
 40
0.0
  9
$PLINEWID
 40
0.0
  9
$SPLFRAME
 70
     0
  9
$SPLINETYPE
 70
     6
  9
$SPLINESEGS
 70
     8
  9
$HANDSEED
  5
389
  9
$SURFTAB1
 70
     6
  9
$SURFTAB2
 70
     6
  9
$SURFTYPE
 70
     6
  9
$SURFU
 70
     6
  9
$SURFV
 70
     6
  9
$UCSBASE
  2

  9
$UCSNAME
  2

  9
$UCSORG
 10
0.0
 20
0.0
 30
0.0
  9
$UCSXDIR
 10
1.0
 20
0.0
 30
0.0
  9
$UCSYDIR
 10
0.0
 20
1.0
 30
0.0
  9
$UCSORTHOREF
  2

  9
$UCSORTHOVIEW
 70
     0
  9
$UCSORGTOP
 10
0.0
 20
0.0
 30
0.0
  9
$UCSORGBOTTOM
 10
0.0
 20
0.0
 30
0.0
  9
$UCSORGLEFT
 10
0.0
 20
0.0
 30
0.0
  9
$UCSORGRIGHT
 10
0.0
 20
0.0
 30
0.0
  9
$UCSORGFRONT
 10
0.0
 20
0.0
 30
0.0
  9
$UCSORGBACK
 10
0.0
 20
0.0
 30
0.0
  9
$PUCSBASE
  2

  9
$PUCSNAME
  2

  9
$PUCSORG
 10
0.0
 20
0.0
 30
0.0
  9
$PUCSXDIR
 10
1.0
 20
0.0
 30
0.0
  9
$PUCSYDIR
 10
0.0
 20
1.0
 30
0.0
  9
$PUCSORTHOREF
  2

  9
$PUCSORTHOVIEW
 70
     0
  9
$PUCSORGTOP
 10
0.0
 20
0.0
 30
0.0
  9
$PUCSORGBOTTOM
 10
0.0
 20
0.0
 30
0.0
  9
$PUCSORGLEFT
 10
0.0
 20
0.0
 30
0.0
  9
$PUCSORGRIGHT
 10
0.0
 20
0.0
 30
0.0
  9
$PUCSORGFRONT
 10
0.0
 20
0.0
 30
0.0
  9
$PUCSORGBACK
 10
0.0
 20
0.0
 30
0.0
  9
$USERI1
 70
     0
  9
$USERI2
 70
     0
  9
$USERI3
 70
     0
  9
$USERI4
 70
     0
  9
$USERI5
 70
     0
  9
$USERR1
 40
0.0
  9
$USERR2
 40
0.0
  9
$USERR3
 40
0.0
  9
$USERR4
 40
0.0
  9
$USERR5
 40
0.0
  9
$WORLDVIEW
 70
     1
  9
$SHADEDGE
 70
     3
  9
$SHADEDIF
 70
    70
  9
$TILEMODE
 70
     1
  9
$MAXACTVP
 70
    64
  9
$PINSBASE
 10
0.0
 20
0.0
 30
0.0
  9
$PLIMCHECK
 70
     0
  9
$PEXTMIN
 10
1.000000000000000E+20
 20
1.000000000000000E+20
 30
1.000000000000000E+20
  9
$PEXTMAX
 10
-1.000000000000000E+20
 20
-1.000000000000000E+20
 30
-1.000000000000000E+20
  9
$PLIMMIN
 10
0.0
 20
0.0
  9
$PLIMMAX
 10
12.0
 20
9.0
  9
$UNITMODE
 70
     0
  9
$VISRETAIN
 70
     1
  9
$PLINEGEN
 70
     0
  9
$PSLTSCALE
 70
     1
  9
$TREEDEPTH
 70
  3020
  9
$CMLSTYLE
  2
Standard
  9
$CMLJUST
 70
     0
  9
$CMLSCALE
 40
1.0
  9
$PROXYGRAPHICS
 70
     1
  9
$MEASUREMENT
 70
     0
  9
$CELWEIGHT
370
    -1
  9
$ENDCAPS
280
     0
  9
$JOINSTYLE
280
     0
  9
$LWDISPLAY
290
     1
  9
$INSUNITS
 70
     1
  9
$HYPERLINKBASE
  1

  9
$STYLESHEET
  1

  9
$XEDIT
290
     1
  9
$CEPSNTYPE
380
     0
  9
$PSTYLEMODE
290
     1
  9
$FINGERPRINTGUID
  2
{844646B6-4497-7604-11AC-E6C9C48B7CE8}
  9
$VERSIONGUID
  2
{FAEB1C32-E019-11D5-929B-00C0DF256EC4}
  9
$EXTNAMES
290
     1
  9
$PSVPSCALE
 40
0.0
  9
$OLESTARTUP
290
     0
  9
$SORTENTS
280
   127
  9
$INDEXCTL
280
     0
  9
$HIDETEXT
280
     1
  9
$XCLIPFRAME
280
     2
  9
$HALOGAP
280
     0
  9
$OBSCOLOR
 70
   257
  9
$OBSLTYPE
280
     0
  9
$INTERSECTIONDISPLAY
280
     0
  9
$INTERSECTIONCOLOR
 70
   257
  9
$DIMASSOC
280
     2
  9
$PROJECTNAME
  1

  9
$CAMERADISPLAY
290
     0
  9
$LENSLENGTH
 40
50.0
  9
$CAMERAHEIGHT
 40
0.0
  9
$STEPSPERSEC
 40
2.0
  9
$STEPSIZE
 40
6.0
  9
$3DDWFPREC
 40
2.0
  9
$PSOLWIDTH
 40
0.25
  9
$PSOLHEIGHT
 40
4.0
  9
$LOFTANG1
 40
1.570796326794897
  9
$LOFTANG2
 40
1.570796326794897
  9
$LOFTMAG1
 40
0.0
  9
$LOFTMAG2
 40
0.0
  9
$LOFTPARAM
 70
     7
  9
$LOFTNORMALS
280
     1
  9
$LATITUDE
 40
37.795
  9
$LONGITUDE
 40
-122.394
  9
$NORTHDIRECTION
 40
0.0
  9
$TIMEZONE
 70
 -8000
  9
$LIGHTGLYPHDISPLAY
280
     1
  9
$TILEMODELIGHTSYNCH
280
     1
  9
$CMATERIAL
347
3C
  9
$SOLIDHIST
280
     1
  9
$SHOWHIST
280
     1
  9
$DWFFRAME
280
     2
  9
$DGNFRAME
280
     2
  9
$REALWORLDSCALE
290
     1
  9
$INTERFERECOLOR
 62
   256
  9
$CSHADOW
280
     0
  9
$SHADOWPLANELOCATION
 40
0.0
  0
ENDSEC
  0
SECTION
  2
CLASSES
  0
CLASS
  1
ACDBDICTIONARYWDFLT
  2
AcDbDictionaryWithDefault
  3
ObjectDBX Classes
 90
        0
 91
        4
280
     0
281
     0
  0
CLASS
  1
VISUALSTYLE
  2
AcDbVisualStyle
  3
ObjectDBX Classes
 90
     4095
 91
        4
280
     0
281
     0
  0
CLASS
  1
MATERIAL
  2
AcDbMaterial
  3
ObjectDBX Classes
 90
     1153
 91
        4
280
     0
281
     0
  0
CLASS
  1
SUN
  2
AcDbSun
  3
SCENEOE
 90
     1024
 91
        4
280
     0
281
     0
  0
ENDSEC
  0
SECTION
  2
TABLES
  0
TABLE
  2
VPORT
  5
8
330
0
100
AcDbSymbolTable
 70
     1
  0
VPORT
  5
29
330
8
100
AcDbSymbolTableRecord
100
AcDbViewportTableRecord
  2
*Active
 70
     0
 10
0.0
 20
0.0
 11
1.0
 21
1.0
 12
0.0
 22
0.0
 13
0.0
 23
0.0
 14
0.5
 24
0.5
 15
0.5
 25
0.5
 16
0.0
 26
0.0
 36
1.0
 17
137.317061448448
 27
-83.01906454374372
 37
0.0
 40
166.0381290874874
 41
1.654042504611624
 42
50.0
 43
0.0
 44
0.0
 50
0.0
 51
0.0
 71
     0
 72
   100
 73
     1
 74
     3
 75
     0
 76
     0
 77
     0
 78
     0
281
     0
 65
     1
110
0.0
120
0.0
130
0.0
111
1.0
121
0.0
131
0.0
112
0.0
122
1.0
132
0.0
 79
     0
146
0.0
 60
     3
 61
     5
292
     1
282
     1
141
0.0
142
0.0
 63
   250
361
3F
  0
ENDTAB
  0
TABLE
  2
LTYPE
  5
5
330
0
100
AcDbSymbolTable
 70
     1
  0
LTYPE
  5
14
330
5
100
AcDbSymbolTableRecord
100
AcDbLinetypeTableRecord
  2
ByBlock
 70
     0
  3

 72
    65
 73
     0
 40
0.0
  0
LTYPE
  5
15
330
5
100
AcDbSymbolTableRecord
100
AcDbLinetypeTableRecord
  2
ByLayer
 70
     0
  3

 72
    65
 73
     0
 40
0.0
  0
LTYPE
  5
16
330
5
100
AcDbSymbolTableRecord
100
AcDbLinetypeTableRecord
  2
Continuous
 70
     0
  3
Solid line
 72
    65
 73
     0
 40
0.0
  0
ENDTAB
  0
TABLE
  2
LAYER
  5
2
330
0
100
AcDbSymbolTable
 70
     2
  0
LAYER
  5
10
330
2
100
AcDbSymbolTableRecord
100
AcDbLayerTableRecord
  2
0
 70
     0
 62
     7
  6
Continuous
370
    -3
390
F
347
3E
  0
LAYER
  5
40
330
2
100
AcDbSymbolTableRecord
100
AcDbLayerTableRecord
  2
_U+30EC_U+30A4_U+30E4_U+30FC 1
 70
     0
 62
     7
  6
Continuous
370
    -3
390
F
347
3E
  0
ENDTAB
  0
TABLE
  2
STYLE
  5
3
330
0
100
AcDbSymbolTable
 70
     1
  0
STYLE
  5
11
330
3
100
AcDbSymbolTableRecord
100
AcDbTextStyleTableRecord
  2
Standard
 70
     0
 40
0.0
 41
1.0
 50
0.0
 71
     0
 42
0.2
  3
txt
  4

  0
ENDTAB
  0
TABLE
  2
VIEW
  5
6
330
0
100
AcDbSymbolTable
 70
     0
  0
ENDTAB
  0
TABLE
  2
UCS
  5
7
330
0
100
AcDbSymbolTable
 70
     0
  0
ENDTAB
  0
TABLE
  2
APPID
  5
9
330
0
100
AcDbSymbolTable
 70
     1
  0
APPID
  5
12
330
9
100
AcDbSymbolTableRecord
100
AcDbRegAppTableRecord
  2
ACAD
 70
     0
  0
ENDTAB
  0
TABLE
  2
DIMSTYLE
  5
A
330
0
100
AcDbSymbolTable
 70
     1
100
AcDbDimStyleTable
  0
DIMSTYLE
105
27
330
A
100
AcDbSymbolTableRecord
100
AcDbDimStyleTableRecord
  2
Standard
 70
     0
178
     0
340
11
  0
ENDTAB
  0
TABLE
  2
BLOCK_RECORD
  5
1
330
0
100
AcDbSymbolTable
 70
   103
  0
BLOCK_RECORD
  5
1F
330
1
100
AcDbSymbolTableRecord
100
AcDbBlockTableRecord
  2
*Model_Space
340
22
 70
     0
280
     1
281
     0
  0
BLOCK_RECORD
  5
1B
330
1
100
AcDbSymbolTableRecord
100
AcDbBlockTableRecord
  2
*Paper_Space
340
1E
 70
     0
280
     1
281
     0
  0
BLOCK_RECORD
  5
23
330
1
100
AcDbSymbolTableRecord
100
AcDbBlockTableRecord
  2
*Paper_Space0
340
26
 70
     0
280
     1
281
     0
  0
BLOCK_RECORD
  5
41
330
1
100
AcDbSymbolTableRecord
100
AcDbBlockTableRecord
  2
block 2
340
0
102
{BLKREFS
331
42
102
}
 70
     0
280
     1
281
     0
  0
BLOCK_RECORD
  5
46
330
1
100
AcDbSymbolTableRecord
100
AcDbBlockTableRecord
  2
block 3
340
0
102
{BLKREFS
331
47
102
}
 70
     0
280
     1
281
     0
  0
BLOCK_RECORD
  5
4B
330
1
100
AcDbSymbolTableRecord
100
AcDbBlockTableRecord
  2
block 4
340
0
102
{BLKREFS
331
4C
102
}
 70
     0
280
     1
281
     0
  0
BLOCK_RECORD
  5
50
330
1
100
AcDbSymbolTableRecord
100
AcDbBlockTableRecord
  2
block 5
340
0
102
{BLKREFS
331
51
102
}
 70
     0
280
     1
281
     0
  0
BLOCK_RECORD
  5
55
330
1
100
AcDbSymbolTableRecord
100
AcDbBlockTableRecord
  2
block 6
340
0
102
{BLKREFS
331
56
102
}
 70
     0
280
     1
281
     0
  0
BLOCK_RECORD
  5
5A
330
1
100
AcDbSymbolTableRecord
100
AcDbBlockTableRecord
  2
block 7
340
0
102
{BLKREFS
331
5B
102
}
 70
     0
280
     1
281
     0
  0
BLOCK_RECORD
  5
5F
330
1
100
AcDbSymbolTableRecord
100
AcDbBlockTableRecord
  2
block 8
340
0
102
{BLKREFS
331
60
102
}
 70
     0
280
     1
281
     0
  0
BLOCK_RECORD
  5
64
330
1
100
AcDbSymbolTableRecord
100
AcDbBlockTableRecord
  2
block 9
340
0
102
{BLKREFS
331
65
102
}
 70
     0
280
     1
281
     0
  0
BLOCK_RECORD
  5
69
330
1
100
AcDbSymbolTableRecord
100
AcDbBlockTableRecord
  2
block 10
340
0
102
{BLKREFS
331
6A
102
}
 70
     0
280
     1
281
     0
  0
BLOCK_RECORD
  5
6E
330
1
100
AcDbSymbolTableRecord
100
AcDbBlockTableRecord
  2
block 11
340
0
102
{BLKREFS
331
6F
102
}
 70
     0
280
     1
281
     0
  0
BLOCK_RECORD
  5
73
330
1
100
AcDbSymbolTableRecord
100
AcDbBlockTableRecord
  2
block 12
340
0
102
{BLKREFS
331
74
102
}
 70
     0
280
     1
281
     0
  0
BLOCK_RECORD
  5
78
330
1
100
AcDbSymbolTableRecord
100
AcDbBlockTableRecord
  2
block 13
340
0
102
{BLKREFS
331
79
102
}
 70
     0
280
     1
281
     0
  0
BLOCK_RECORD
  5
7D
330
1
100
AcDbSymbolTableRecord
100
AcDbBlockTableRecord
  2
block 14
340
0
102
{BLKREFS
331
7E
102
}
 70
     0
280
     1
281
     0
  0
BLOCK_RECORD
  5
82
330
1
100
AcDbSymbolTableRecord
100
AcDbBlockTableRecord
  2
block 15
340
0
102
{BLKREFS
331
83
102
}
 70
     0
280
     1
281
     0
  0
BLOCK_RECORD
  5
87
330
1
100
AcDbSymbolTableRecord
100
AcDbBlockTableRecord
  2
block 16
340
0
102
{BLKREFS
331
88
102
}
 70
     0
280
     1
281
     0
  0
BLOCK_RECORD
  5
8C
330
1
100
AcDbSymbolTableRecord
100
AcDbBlockTableRecord
  2
block 17
340
0
102
{BLKREFS
331
8D
102
}
 70
     0
280
     1
281
     0
  0
BLOCK_RECORD
  5
91
330
1
100
AcDbSymbolTableRecord
100
AcDbBlockTableRecord
  2
block 18
340
0
102
{BLKREFS
331
92
102
}
 70
     0
280
     1
281
     0
  0
BLOCK_RECORD
  5
96
330
1
100
AcDbSymbolTableRecord
100
AcDbBlockTableRecord
  2
block 19
340
0
102
{BLKREFS
331
97
102
}
 70
     0
280
     1
281
     0
  0
BLOCK_RECORD
  5
9E
330
1
100
AcDbSymbolTableRecord
100
AcDbBlockTableRecord
  2
block 20
340
0
102
{BLKREFS
331
9F
102
}
 70
     0
280
     1
281
     0
  0
BLOCK_RECORD
  5
C3
330
1
100
AcDbSymbolTableRecord
100
AcDbBlockTableRecord
  2
block 21
340
0
102
{BLKREFS
331
C4
102
}
 70
     0
280
     1
281
     0
  0
BLOCK_RECORD
  5
C8
330
1
100
AcDbSymbolTableRecord
100
AcDbBlockTableRecord
  2
block 22
340
0
102
{BLKREFS
331
C9
102
}
 70
     0
280
     1
281
     0
  0
BLOCK_RECORD
  5
CD
330
1
100
AcDbSymbolTableRecord
100
AcDbBlockTableRecord
  2
block 23
340
0
102
{BLKREFS
331
CE
102
}
 70
     0
280
     1
281
     0
  0
BLOCK_RECORD
  5
D5
330
1
100
AcDbSymbolTableRecord
100
AcDbBlockTableRecord
  2
block 24
340
0
102
{BLKREFS
331
D6
102
}
 70
     0
280
     1
281
     0
  0
BLOCK_RECORD
  5
FA
330
1
100
AcDbSymbolTableRecord
100
AcDbBlockTableRecord
  2
block 25
340
0
102
{BLKREFS
331
FB
102
}
 70
     0
280
     1
281
     0
  0
BLOCK_RECORD
  5
FF
330
1
100
AcDbSymbolTableRecord
100
AcDbBlockTableRecord
  2
block 26
340
0
102
{BLKREFS
331
100
102
}
 70
     0
280
     1
281
     0
  0
BLOCK_RECORD
  5
104
330
1
100
AcDbSymbolTableRecord
100
AcDbBlockTableRecord
  2
block 27
340
0
102
{BLKREFS
331
105
102
}
 70
     0
280
     1
281
     0
  0
BLOCK_RECORD
  5
10C
330
1
100
AcDbSymbolTableRecord
100
AcDbBlockTableRecord
  2
block 28
340
0
102
{BLKREFS
331
10D
102
}
 70
     0
280
     1
281
     0
  0
BLOCK_RECORD
  5
131
330
1
100
AcDbSymbolTableRecord
100
AcDbBlockTableRecord
  2
block 29
340
0
102
{BLKREFS
331
132
102
}
 70
     0
280
     1
281
     0
  0
BLOCK_RECORD
  5
136
330
1
100
AcDbSymbolTableRecord
100
AcDbBlockTableRecord
  2
block 30
340
0
102
{BLKREFS
331
137
102
}
 70
     0
280
     1
281
     0
  0
BLOCK_RECORD
  5
13B
330
1
100
AcDbSymbolTableRecord
100
AcDbBlockTableRecord
  2
block 31
340
0
102
{BLKREFS
331
13C
102
}
 70
     0
280
     1
281
     0
  0
BLOCK_RECORD
  5
143
330
1
100
AcDbSymbolTableRecord
100
AcDbBlockTableRecord
  2
block 32
340
0
102
{BLKREFS
331
144
102
}
 70
     0
280
     1
281
     0
  0
BLOCK_RECORD
  5
168
330
1
100
AcDbSymbolTableRecord
100
AcDbBlockTableRecord
  2
block 33
340
0
102
{BLKREFS
331
169
102
}
 70
     0
280
     1
281
     0
  0
BLOCK_RECORD
  5
16D
330
1
100
AcDbSymbolTableRecord
100
AcDbBlockTableRecord
  2
block 34
340
0
102
{BLKREFS
331
16E
102
}
 70
     0
280
     1
281
     0
  0
BLOCK_RECORD
  5
172
330
1
100
AcDbSymbolTableRecord
100
AcDbBlockTableRecord
  2
block 35
340
0
102
{BLKREFS
331
173
102
}
 70
     0
280
     1
281
     0
  0
BLOCK_RECORD
  5
17A
330
1
100
AcDbSymbolTableRecord
100
AcDbBlockTableRecord
  2
block 36
340
0
102
{BLKREFS
331
17B
102
}
 70
     0
280
     1
281
     0
  0
BLOCK_RECORD
  5
19F
330
1
100
AcDbSymbolTableRecord
100
AcDbBlockTableRecord
  2
block 37
340
0
102
{BLKREFS
331
1A0
102
}
 70
     0
280
     1
281
     0
  0
BLOCK_RECORD
  5
1A4
330
1
100
AcDbSymbolTableRecord
100
AcDbBlockTableRecord
  2
block 38
340
0
102
{BLKREFS
331
1A5
102
}
 70
     0
280
     1
281
     0
  0
BLOCK_RECORD
  5
1A9
330
1
100
AcDbSymbolTableRecord
100
AcDbBlockTableRecord
  2
block 39
340
0
102
{BLKREFS
331
1AA
102
}
 70
     0
280
     1
281
     0
  0
BLOCK_RECORD
  5
1B1
330
1
100
AcDbSymbolTableRecord
100
AcDbBlockTableRecord
  2
block 40
340
0
102
{BLKREFS
331
1B2
102
}
 70
     0
280
     1
281
     0
  0
BLOCK_RECORD
  5
1D6
330
1
100
AcDbSymbolTableRecord
100
AcDbBlockTableRecord
  2
block 41
340
0
102
{BLKREFS
331
1D7
102
}
 70
     0
280
     1
281
     0
  0
BLOCK_RECORD
  5
1ED
330
1
100
AcDbSymbolTableRecord
100
AcDbBlockTableRecord
  2
block 42
340
0
102
{BLKREFS
331
1EE
102
}
 70
     0
280
     1
281
     0
  0
BLOCK_RECORD
  5
204
330
1
100
AcDbSymbolTableRecord
100
AcDbBlockTableRecord
  2
block 43
340
0
102
{BLKREFS
331
205
102
}
 70
     0
280
     1
281
     0
  0
BLOCK_RECORD
  5
21B
330
1
100
AcDbSymbolTableRecord
100
AcDbBlockTableRecord
  2
block 44
340
0
102
{BLKREFS
331
21C
102
}
 70
     0
280
     1
281
     0
  0
BLOCK_RECORD
  5
232
330
1
100
AcDbSymbolTableRecord
100
AcDbBlockTableRecord
  2
block 45
340
0
102
{BLKREFS
331
233
102
}
 70
     0
280
     1
281
     0
  0
BLOCK_RECORD
  5
249
330
1
100
AcDbSymbolTableRecord
100
AcDbBlockTableRecord
  2
block 46
340
0
102
{BLKREFS
331
24A
102
}
 70
     0
280
     1
281
     0
  0
BLOCK_RECORD
  5
260
330
1
100
AcDbSymbolTableRecord
100
AcDbBlockTableRecord
  2
block 47
340
0
102
{BLKREFS
331
261
102
}
 70
     0
280
     1
281
     0
  0
BLOCK_RECORD
  5
265
330
1
100
AcDbSymbolTableRecord
100
AcDbBlockTableRecord
  2
block 48
340
0
102
{BLKREFS
331
266
102
}
 70
     0
280
     1
281
     0
  0
BLOCK_RECORD
  5
26A
330
1
100
AcDbSymbolTableRecord
100
AcDbBlockTableRecord
  2
block 49
340
0
102
{BLKREFS
331
26B
102
}
 70
     0
280
     1
281
     0
  0
BLOCK_RECORD
  5
26F
330
1
100
AcDbSymbolTableRecord
100
AcDbBlockTableRecord
  2
block 50
340
0
102
{BLKREFS
331
270
102
}
 70
     0
280
     1
281
     0
  0
BLOCK_RECORD
  5
277
330
1
100
AcDbSymbolTableRecord
100
AcDbBlockTableRecord
  2
block 51
340
0
102
{BLKREFS
331
278
102
}
 70
     0
280
     1
281
     0
  0
BLOCK_RECORD
  5
27C
330
1
100
AcDbSymbolTableRecord
100
AcDbBlockTableRecord
  2
block 52
340
0
102
{BLKREFS
331
27D
102
}
 70
     0
280
     1
281
     0
  0
BLOCK_RECORD
  5
284
330
1
100
AcDbSymbolTableRecord
100
AcDbBlockTableRecord
  2
block 53
340
0
102
{BLKREFS
331
285
102
}
 70
     0
280
     1
281
     0
  0
BLOCK_RECORD
  5
28C
330
1
100
AcDbSymbolTableRecord
100
AcDbBlockTableRecord
  2
block 54
340
0
102
{BLKREFS
331
28D
102
}
 70
     0
280
     1
281
     0
  0
BLOCK_RECORD
  5
291
330
1
100
AcDbSymbolTableRecord
100
AcDbBlockTableRecord
  2
block 55
340
0
102
{BLKREFS
331
292
102
}
 70
     0
280
     1
281
     0
  0
BLOCK_RECORD
  5
296
330
1
100
AcDbSymbolTableRecord
100
AcDbBlockTableRecord
  2
block 56
340
0
102
{BLKREFS
331
297
102
}
 70
     0
280
     1
281
     0
  0
BLOCK_RECORD
  5
29B
330
1
100
AcDbSymbolTableRecord
100
AcDbBlockTableRecord
  2
block 57
340
0
102
{BLKREFS
331
29C
102
}
 70
     0
280
     1
281
     0
  0
BLOCK_RECORD
  5
2A3
330
1
100
AcDbSymbolTableRecord
100
AcDbBlockTableRecord
  2
block 58
340
0
102
{BLKREFS
331
2A4
102
}
 70
     0
280
     1
281
     0
  0
BLOCK_RECORD
  5
2A8
330
1
100
AcDbSymbolTableRecord
100
AcDbBlockTableRecord
  2
block 59
340
0
102
{BLKREFS
331
2A9
102
}
 70
     0
280
     1
281
     0
  0
BLOCK_RECORD
  5
2B0
330
1
100
AcDbSymbolTableRecord
100
AcDbBlockTableRecord
  2
block 60
340
0
102
{BLKREFS
331
2B1
102
}
 70
     0
280
     1
281
     0
  0
BLOCK_RECORD
  5
2B8
330
1
100
AcDbSymbolTableRecord
100
AcDbBlockTableRecord
  2
block 61
340
0
102
{BLKREFS
331
2B9
102
}
 70
     0
280
     1
281
     0
  0
BLOCK_RECORD
  5
2BC
330
1
100
AcDbSymbolTableRecord
100
AcDbBlockTableRecord
  2
block 62
340
0
102
{BLKREFS
331
2BD
102
}
 70
     0
280
     1
281
     0
  0
BLOCK_RECORD
  5
2C1
330
1
100
AcDbSymbolTableRecord
100
AcDbBlockTableRecord
  2
block 63
340
0
102
{BLKREFS
331
2C2
102
}
 70
     0
280
     1
281
     0
  0
BLOCK_RECORD
  5
2C6
330
1
100
AcDbSymbolTableRecord
100
AcDbBlockTableRecord
  2
block 64
340
0
102
{BLKREFS
331
2C7
102
}
 70
     0
280
     1
281
     0
  0
BLOCK_RECORD
  5
2CB
330
1
100
AcDbSymbolTableRecord
100
AcDbBlockTableRecord
  2
block 65
340
0
102
{BLKREFS
331
2CC
102
}
 70
     0
280
     1
281
     0
  0
BLOCK_RECORD
  5
2D0
330
1
100
AcDbSymbolTableRecord
100
AcDbBlockTableRecord
  2
block 66
340
0
102
{BLKREFS
331
2D1
102
}
 70
     0
280
     1
281
     0
  0
BLOCK_RECORD
  5
2D4
330
1
100
AcDbSymbolTableRecord
100
AcDbBlockTableRecord
  2
block 67
340
0
102
{BLKREFS
331
2D5
102
}
 70
     0
280
     1
281
     0
  0
BLOCK_RECORD
  5
2D9
330
1
100
AcDbSymbolTableRecord
100
AcDbBlockTableRecord
  2
block 68
340
0
102
{BLKREFS
331
2DA
102
}
 70
     0
280
     1
281
     0
  0
BLOCK_RECORD
  5
2DE
330
1
100
AcDbSymbolTableRecord
100
AcDbBlockTableRecord
  2
block 69
340
0
102
{BLKREFS
331
2DF
102
}
 70
     0
280
     1
281
     0
  0
BLOCK_RECORD
  5
2E3
330
1
100
AcDbSymbolTableRecord
100
AcDbBlockTableRecord
  2
block 70
340
0
102
{BLKREFS
331
2E4
102
}
 70
     0
280
     1
281
     0
  0
BLOCK_RECORD
  5
2E8
330
1
100
AcDbSymbolTableRecord
100
AcDbBlockTableRecord
  2
block 71
340
0
102
{BLKREFS
331
2E9
102
}
 70
     0
280
     1
281
     0
  0
BLOCK_RECORD
  5
2EC
330
1
100
AcDbSymbolTableRecord
100
AcDbBlockTableRecord
  2
block 72
340
0
102
{BLKREFS
331
2ED
102
}
 70
     0
280
     1
281
     0
  0
BLOCK_RECORD
  5
2F1
330
1
100
AcDbSymbolTableRecord
100
AcDbBlockTableRecord
  2
block 73
340
0
102
{BLKREFS
331
2F2
102
}
 70
     0
280
     1
281
     0
  0
BLOCK_RECORD
  5
2F6
330
1
100
AcDbSymbolTableRecord
100
AcDbBlockTableRecord
  2
block 74
340
0
102
{BLKREFS
331
2F7
102
}
 70
     0
280
     1
281
     0
  0
BLOCK_RECORD
  5
2FB
330
1
100
AcDbSymbolTableRecord
100
AcDbBlockTableRecord
  2
block 75
340
0
102
{BLKREFS
331
2FC
102
}
 70
     0
280
     1
281
     0
  0
BLOCK_RECORD
  5
300
330
1
100
AcDbSymbolTableRecord
100
AcDbBlockTableRecord
  2
block 76
340
0
102
{BLKREFS
331
301
102
}
 70
     0
280
     1
281
     0
  0
BLOCK_RECORD
  5
304
330
1
100
AcDbSymbolTableRecord
100
AcDbBlockTableRecord
  2
block 77
340
0
102
{BLKREFS
331
305
102
}
 70
     0
280
     1
281
     0
  0
BLOCK_RECORD
  5
309
330
1
100
AcDbSymbolTableRecord
100
AcDbBlockTableRecord
  2
block 78
340
0
102
{BLKREFS
331
30A
102
}
 70
     0
280
     1
281
     0
  0
BLOCK_RECORD
  5
30E
330
1
100
AcDbSymbolTableRecord
100
AcDbBlockTableRecord
  2
block 79
340
0
102
{BLKREFS
331
30F
102
}
 70
     0
280
     1
281
     0
  0
BLOCK_RECORD
  5
313
330
1
100
AcDbSymbolTableRecord
100
AcDbBlockTableRecord
  2
block 80
340
0
102
{BLKREFS
331
314
102
}
 70
     0
280
     1
281
     0
  0
BLOCK_RECORD
  5
318
330
1
100
AcDbSymbolTableRecord
100
AcDbBlockTableRecord
  2
block 81
340
0
102
{BLKREFS
331
319
102
}
 70
     0
280
     1
281
     0
  0
BLOCK_RECORD
  5
31C
330
1
100
AcDbSymbolTableRecord
100
AcDbBlockTableRecord
  2
block 82
340
0
102
{BLKREFS
331
31D
102
}
 70
     0
280
     1
281
     0
  0
BLOCK_RECORD
  5
321
330
1
100
AcDbSymbolTableRecord
100
AcDbBlockTableRecord
  2
block 83
340
0
102
{BLKREFS
331
322
102
}
 70
     0
280
     1
281
     0
  0
BLOCK_RECORD
  5
326
330
1
100
AcDbSymbolTableRecord
100
AcDbBlockTableRecord
  2
block 84
340
0
102
{BLKREFS
331
327
102
}
 70
     0
280
     1
281
     0
  0
BLOCK_RECORD
  5
32B
330
1
100
AcDbSymbolTableRecord
100
AcDbBlockTableRecord
  2
block 85
340
0
102
{BLKREFS
331
32C
102
}
 70
     0
280
     1
281
     0
  0
BLOCK_RECORD
  5
330
330
1
100
AcDbSymbolTableRecord
100
AcDbBlockTableRecord
  2
block 86
340
0
102
{BLKREFS
331
331
102
}
 70
     0
280
     1
281
     0
  0
BLOCK_RECORD
  5
334
330
1
100
AcDbSymbolTableRecord
100
AcDbBlockTableRecord
  2
block 87
340
0
102
{BLKREFS
331
335
102
}
 70
     0
280
     1
281
     0
  0
BLOCK_RECORD
  5
339
330
1
100
AcDbSymbolTableRecord
100
AcDbBlockTableRecord
  2
block 88
340
0
102
{BLKREFS
331
33A
102
}
 70
     0
280
     1
281
     0
  0
BLOCK_RECORD
  5
33E
330
1
100
AcDbSymbolTableRecord
100
AcDbBlockTableRecord
  2
block 89
340
0
102
{BLKREFS
331
33F
102
}
 70
     0
280
     1
281
     0
  0
BLOCK_RECORD
  5
343
330
1
100
AcDbSymbolTableRecord
100
AcDbBlockTableRecord
  2
block 90
340
0
102
{BLKREFS
331
344
102
}
 70
     0
280
     1
281
     0
  0
BLOCK_RECORD
  5
348
330
1
100
AcDbSymbolTableRecord
100
AcDbBlockTableRecord
  2
block 91
340
0
102
{BLKREFS
331
349
102
}
 70
     0
280
     1
281
     0
  0
BLOCK_RECORD
  5
34C
330
1
100
AcDbSymbolTableRecord
100
AcDbBlockTableRecord
  2
block 92
340
0
102
{BLKREFS
331
34D
102
}
 70
     0
280
     1
281
     0
  0
BLOCK_RECORD
  5
351
330
1
100
AcDbSymbolTableRecord
100
AcDbBlockTableRecord
  2
block 93
340
0
102
{BLKREFS
331
352
102
}
 70
     0
280
     1
281
     0
  0
BLOCK_RECORD
  5
356
330
1
100
AcDbSymbolTableRecord
100
AcDbBlockTableRecord
  2
block 94
340
0
102
{BLKREFS
331
357
102
}
 70
     0
280
     1
281
     0
  0
BLOCK_RECORD
  5
35B
330
1
100
AcDbSymbolTableRecord
100
AcDbBlockTableRecord
  2
block 95
340
0
102
{BLKREFS
331
35C
102
}
 70
     0
280
     1
281
     0
  0
BLOCK_RECORD
  5
360
330
1
100
AcDbSymbolTableRecord
100
AcDbBlockTableRecord
  2
block 96
340
0
102
{BLKREFS
331
361
102
}
 70
     0
280
     1
281
     0
  0
BLOCK_RECORD
  5
364
330
1
100
AcDbSymbolTableRecord
100
AcDbBlockTableRecord
  2
block 97
340
0
102
{BLKREFS
331
365
102
}
 70
     0
280
     1
281
     0
  0
BLOCK_RECORD
  5
369
330
1
100
AcDbSymbolTableRecord
100
AcDbBlockTableRecord
  2
block 98
340
0
102
{BLKREFS
331
36A
102
}
 70
     0
280
     1
281
     0
  0
BLOCK_RECORD
  5
36E
330
1
100
AcDbSymbolTableRecord
100
AcDbBlockTableRecord
  2
block 99
340
0
102
{BLKREFS
331
36F
102
}
 70
     0
280
     1
281
     0
  0
BLOCK_RECORD
  5
373
330
1
100
AcDbSymbolTableRecord
100
AcDbBlockTableRecord
  2
block 100
340
0
102
{BLKREFS
331
374
102
}
 70
     0
280
     1
281
     0
  0
BLOCK_RECORD
  5
378
330
1
100
AcDbSymbolTableRecord
100
AcDbBlockTableRecord
  2
block 101
340
0
102
{BLKREFS
331
379
102
}
 70
     0
280
     1
281
     0
  0
BLOCK_RECORD
  5
37D
330
1
100
AcDbSymbolTableRecord
100
AcDbBlockTableRecord
  2
block 102
340
0
102
{BLKREFS
331
37E
102
}
 70
     0
280
     1
281
     0
  0
BLOCK_RECORD
  5
382
330
1
100
AcDbSymbolTableRecord
100
AcDbBlockTableRecord
  2
block 103
340
0
102
{BLKREFS
331
383
102
}
 70
     0
280
     1
281
     0
  0
ENDTAB
  0
ENDSEC
  0
SECTION
  2
BLOCKS
  0
BLOCK
  5
20
330
1F
100
AcDbEntity
  8
0
100
AcDbBlockBegin
  2
*Model_Space
 70
     0
 10
0.0
 20
0.0
 30
0.0
  3
*Model_Space
  1

  0
ENDBLK
  5
21
330
1F
100
AcDbEntity
  8
0
100
AcDbBlockEnd
  0
BLOCK
  5
1C
330
1B
100
AcDbEntity
 67
     1
  8
0
100
AcDbBlockBegin
  2
*Paper_Space
 70
     0
 10
0.0
 20
0.0
 30
0.0
  3
*Paper_Space
  1

  0
ENDBLK
  5
1D
330
1B
100
AcDbEntity
 67
     1
  8
0
100
AcDbBlockEnd
  0
BLOCK
  5
24
330
23
100
AcDbEntity
  8
0
100
AcDbBlockBegin
  2
*Paper_Space0
 70
     0
 10
0.0
 20
0.0
 30
0.0
  3
*Paper_Space0
  1

  0
ENDBLK
  5
25
330
23
100
AcDbEntity
  8
0
100
AcDbBlockEnd
  0
BLOCK
  5
43
330
41
100
AcDbEntity
  8
0
100
AcDbBlockBegin
  2
block 2
 70
     0
 10
0.0
 20
0.0
 30
0.0
  3
block 2
  1

  0
SPLINE
  5
45
330
41
100
AcDbEntity
  8
_U+30EC_U+30A4_U+30E4_U+30FC 1
 62
    12
420
 15007761
370
    35
100
AcDbSpline
210
0.0
220
0.0
230
1.0
 70
    11
 71
     3
 72
    20
 73
    16
 74
     0
 42
0.0000000001
 43
0.0000000001
 12
1.0
 22
0.0
 32
0.0
 13
1.0
 23
0.0
 33
0.0
 40
0.0
 40
0.0
 40
0.0
 40
0.0
 40
1.0
 40
1.0
 40
1.0
 40
2.0
 40
2.0
 40
2.0
 40
3.0
 40
3.0
 40
3.0
 40
4.0
 40
4.0
 40
4.0
 40
5.0
 40
5.0
 40
5.0
 40
5.0
 10
21.6809437172948
 20
-67.03399071708465
 30
0.0
 10
21.6809437172948
 20
-66.20556359233854
 30
0.0
 10
22.35251659254842
 20
-65.53399071708459
 30
0.0
 10
23.18094371729453
 20
-65.53399071708459
 30
0.0
 10
24.00937084204096
 20
-65.53399071708459
 30
0.0
 10
24.68094371729458
 20
-66.20556359233854
 30
0.0
 10
24.68094371729458
 20
-67.03399071708465
 30
0.0
 10
24.68094371729458
 20
-67.86241784183076
 30
0.0
 10
24.00937084204096
 20
-68.53399071708469
 30
0.0
 10
23.18094371729453
 20
-68.53399071708469
 30
0.0
 10
22.35251659254842
 20
-68.53399071708469
 30
0.0
 10
21.6809437172948
 20
-67.86241784183076
 30
0.0
 10
21.6809437172948
 20
-67.03399071708465
 30
0.0
 10
21.6809437172948
 20
-67.03399071708465
 30
0.0
 10
21.6809437172948
 20
-67.03399071708465
 30
0.0
 10
21.6809437172948
 20
-67.03399071708465
 30
0.0
  0
ENDBLK
  5
44
330
41
100
AcDbEntity
  8
0
100
AcDbBlockEnd
  0
BLOCK
  5
48
330
46
100
AcDbEntity
  8
0
100
AcDbBlockBegin
  2
block 3
 70
     0
 10
0.0
 20
0.0
 30
0.0
  3
block 3
  1

  0
SPLINE
  5
4A
330
46
100
AcDbEntity
  8
_U+30EC_U+30A4_U+30E4_U+30FC 1
 62
    12
420
 15007761
370
    35
100
AcDbSpline
210
0.0
220
0.0
230
1.0
 70
    11
 71
     3
 72
    20
 73
    16
 74
     0
 42
0.0000000001
 43
0.0000000001
 12
1.0
 22
0.0
 32
0.0
 13
1.0
 23
0.0
 33
0.0
 40
0.0
 40
0.0
 40
0.0
 40
0.0
 40
1.0
 40
1.0
 40
1.0
 40
2.0
 40
2.0
 40
2.0
 40
3.0
 40
3.0
 40
3.0
 40
4.0
 40
4.0
 40
4.0
 40
5.0
 40
5.0
 40
5.0
 40
5.0
 10
21.62140235380177
 20
-26.03348422701335
 30
0.0
 10
21.62140235380177
 20
-25.20505710226724
 30
0.0
 10
22.29297522905571
 20
-24.5334842270133
 30
0.0
 10
23.12140235380182
 20
-24.5334842270133
 30
0.0
 10
23.94982947854793
 20
-24.5334842270133
 30
0.0
 10
24.62140235380187
 20
-25.20505710226724
 30
0.0
 10
24.62140235380187
 20
-26.03348422701335
 30
0.0
 10
24.62140235380187
 20
-26.86191135175979
 30
0.0
 10
23.94982947854793
 20
-27.53348422701341
 30
0.0
 10
23.12140235380182
 20
-27.53348422701341
 30
0.0
 10
22.29297522905571
 20
-27.53348422701341
 30
0.0
 10
21.62140235380177
 20
-26.86191135175979
 30
0.0
 10
21.62140235380177
 20
-26.03348422701335
 30
0.0
 10
21.62140235380177
 20
-26.03348422701335
 30
0.0
 10
21.62140235380177
 20
-26.03348422701335
 30
0.0
 10
21.62140235380177
 20
-26.03348422701335
 30
0.0
  0
ENDBLK
  5
49
330
46
100
AcDbEntity
  8
0
100
AcDbBlockEnd
  0
BLOCK
  5
4D
330
4B
100
AcDbEntity
  8
0
100
AcDbBlockBegin
  2
block 4
 70
     0
 10
0.0
 20
0.0
 30
0.0
  3
block 4
  1

  0
SPLINE
  5
4F
330
4B
100
AcDbEntity
  8
_U+30EC_U+30A4_U+30E4_U+30FC 1
 62
    12
420
 15007761
370
    35
100
AcDbSpline
210
0.0
220
0.0
230
1.0
 70
    11
 71
     3
 72
    35
 73
    31
 74
     0
 42
0.0000000001
 43
0.0000000001
 12
1.0
 22
0.0
 32
0.0
 13
1.0
 23
0.0
 33
0.0
 40
0.0
 40
0.0
 40
0.0
 40
0.0
 40
1.0
 40
1.0
 40
1.0
 40
2.0
 40
2.0
 40
2.0
 40
3.0
 40
3.0
 40
3.0
 40
4.0
 40
4.0
 40
4.0
 40
5.0
 40
5.0
 40
5.0
 40
6.0
 40
6.0
 40
6.0
 40
7.0
 40
7.0
 40
7.0
 40
8.0
 40
8.0
 40
8.0
 40
9.0
 40
9.0
 40
9.0
 40
10.0
 40
10.0
 40
10.0
 40
10.0
 10
25.62140235380191
 20
-64.5251739355125
 30
0.0
 10
25.62458746152258
 20
-64.52827225807756
 30
0.0
 10
25.62776666606993
 20
-64.53137664338885
 30
0.0
 10
25.63093995014923
 20
-64.53448707455908
 30
0.0
 10
27.01137769406248
 20
-65.88758263110697
 30
0.0
 10
27.03354291636861
 20
-68.10354920602578
 30
0.0
 10
25.68044735982041
 20
-69.48398694993902
 30
0.0
 10
24.32735180327189
 20
-70.8644246938526
 30
0.0
 10
22.11138522835372
 20
-70.88658991615873
 30
0.0
 10
20.73094748444015
 20
-69.53349435961053
 30
0.0
 10
19.3505097405269
 20
-68.180398803062
 30
0.0
 10
19.32834451822045
 20
-65.96443222814383
 30
0.0
 10
20.68144007476897
 20
-64.58399448423026
 30
0.0
 10
20.68144007476897
 20
-64.58399448423026
 30
0.0
 10
20.62140235380173
 20
-64.58399448423026
 30
0.0
 10
20.62140235380173
 20
-64.58399448423026
 30
0.0
 10
20.62140235380173
 20
-64.58399448423026
 30
0.0
 10
20.62140235380173
 20
-28.48297396979661
 30
0.0
 10
20.62140235380173
 20
-28.48297396979661
 30
0.0
 10
19.28806902046835
 20
-27.12214633491713
 30
0.0
 10
19.28806902046835
 20
-24.9448221191099
 30
0.0
 10
20.62140235380173
 20
-23.5839944842301
 30
0.0
 10
21.97421818360782
 20
-22.20328260965335
 30
0.0
 10
24.19018022200801
 20
-22.18066839720717
 30
0.0
 10
25.57089209658507
 20
-23.53348422701326
 30
0.0
 10
26.95160397116182
 20
-24.88630005681936
 30
0.0
 10
26.974218183608
 20
-27.10226209521954
 30
0.0
 10
25.62140235380191
 20
-28.48297396979661
 30
0.0
 10
25.62140235380191
 20
-28.48297396979661
 30
0.0
 10
25.62140235380191
 20
-64.5251739355125
 30
0.0
 10
25.62140235380191
 20
-64.5251739355125
 30
0.0
  0
ENDBLK
  5
4E
330
4B
100
AcDbEntity
  8
0
100
AcDbBlockEnd
  0
BLOCK
  5
52
330
50
100
AcDbEntity
  8
0
100
AcDbBlockBegin
  2
block 5
 70
     0
 10
0.0
 20
0.0
 30
0.0
  3
block 5
  1

  0
SPLINE
  5
54
330
50
100
AcDbEntity
  8
_U+30EC_U+30A4_U+30E4_U+30FC 1
 62
    12
420
 15007761
370
    35
100
AcDbSpline
210
0.0
220
0.0
230
1.0
 70
    11
 71
     3
 72
    20
 73
    16
 74
     0
 42
0.0000000001
 43
0.0000000001
 12
1.0
 22
0.0
 32
0.0
 13
1.0
 23
0.0
 33
0.0
 40
0.0
 40
0.0
 40
0.0
 40
0.0
 40
1.0
 40
1.0
 40
1.0
 40
2.0
 40
2.0
 40
2.0
 40
3.0
 40
3.0
 40
3.0
 40
4.0
 40
4.0
 40
4.0
 40
5.0
 40
5.0
 40
5.0
 40
5.0
 10
41.68094371729454
 20
-67.03399071708465
 30
0.0
 10
41.68094371729454
 20
-66.20556359233854
 30
0.0
 10
42.35251659254848
 20
-65.53399071708459
 30
0.0
 10
43.1809437172946
 20
-65.53399071708459
 30
0.0
 10
44.00937084204071
 20
-65.53399071708459
 30
0.0
 10
44.68094371729465
 20
-66.20556359233854
 30
0.0
 10
44.68094371729465
 20
-67.03399071708465
 30
0.0
 10
44.68094371729465
 20
-67.86241784183076
 30
0.0
 10
44.00937084204071
 20
-68.53399071708469
 30
0.0
 10
43.1809437172946
 20
-68.53399071708469
 30
0.0
 10
42.35251659254848
 20
-68.53399071708469
 30
0.0
 10
41.68094371729454
 20
-67.86241784183076
 30
0.0
 10
41.68094371729454
 20
-67.03399071708465
 30
0.0
 10
41.68094371729454
 20
-67.03399071708465
 30
0.0
 10
41.68094371729454
 20
-67.03399071708465
 30
0.0
 10
41.68094371729454
 20
-67.03399071708465
 30
0.0
  0
ENDBLK
  5
53
330
50
100
AcDbEntity
  8
0
100
AcDbBlockEnd
  0
BLOCK
  5
57
330
55
100
AcDbEntity
  8
0
100
AcDbBlockBegin
  2
block 6
 70
     0
 10
0.0
 20
0.0
 30
0.0
  3
block 6
  1

  0
SPLINE
  5
59
330
55
100
AcDbEntity
  8
_U+30EC_U+30A4_U+30E4_U+30FC 1
 62
    12
420
 15007761
370
    35
100
AcDbSpline
210
0.0
220
0.0
230
1.0
 70
    11
 71
     3
 72
    20
 73
    16
 74
     0
 42
0.0000000001
 43
0.0000000001
 12
1.0
 22
0.0
 32
0.0
 13
1.0
 23
0.0
 33
0.0
 40
0.0
 40
0.0
 40
0.0
 40
0.0
 40
1.0
 40
1.0
 40
1.0
 40
2.0
 40
2.0
 40
2.0
 40
3.0
 40
3.0
 40
3.0
 40
4.0
 40
4.0
 40
4.0
 40
5.0
 40
5.0
 40
5.0
 40
5.0
 10
41.62140235380183
 20
-26.03348422701335
 30
0.0
 10
41.62140235380183
 20
-25.20505710226724
 30
0.0
 10
42.29297522905577
 20
-24.5334842270133
 30
0.0
 10
43.12140235380188
 20
-24.5334842270133
 30
0.0
 10
43.949829478548
 20
-24.5334842270133
 30
0.0
 10
44.62140235380161
 20
-25.20505710226724
 30
0.0
 10
44.62140235380161
 20
-26.03348422701335
 30
0.0
 10
44.62140235380161
 20
-26.86191135175979
 30
0.0
 10
43.949829478548
 20
-27.53348422701341
 30
0.0
 10
43.12140235380188
 20
-27.53348422701341
 30
0.0
 10
42.29297522905577
 20
-27.53348422701341
 30
0.0
 10
41.62140235380183
 20
-26.86191135175979
 30
0.0
 10
41.62140235380183
 20
-26.03348422701335
 30
0.0
 10
41.62140235380183
 20
-26.03348422701335
 30
0.0
 10
41.62140235380183
 20
-26.03348422701335
 30
0.0
 10
41.62140235380183
 20
-26.03348422701335
 30
0.0
  0
ENDBLK
  5
58
330
55
100
AcDbEntity
  8
0
100
AcDbBlockEnd
  0
BLOCK
  5
5C
330
5A
100
AcDbEntity
  8
0
100
AcDbBlockBegin
  2
block 7
 70
     0
 10
0.0
 20
0.0
 30
0.0
  3
block 7
  1

  0
SPLINE
  5
5E
330
5A
100
AcDbEntity
  8
_U+30EC_U+30A4_U+30E4_U+30FC 1
 62
    12
420
 15007761
370
    35
100
AcDbSpline
210
0.0
220
0.0
230
1.0
 70
    11
 71
     3
 72
    35
 73
    31
 74
     0
 42
0.0000000001
 43
0.0000000001
 12
1.0
 22
0.0
 32
0.0
 13
1.0
 23
0.0
 33
0.0
 40
0.0
 40
0.0
 40
0.0
 40
0.0
 40
1.0
 40
1.0
 40
1.0
 40
2.0
 40
2.0
 40
2.0
 40
3.0
 40
3.0
 40
3.0
 40
4.0
 40
4.0
 40
4.0
 40
5.0
 40
5.0
 40
5.0
 40
6.0
 40
6.0
 40
6.0
 40
7.0
 40
7.0
 40
7.0
 40
8.0
 40
8.0
 40
8.0
 40
9.0
 40
9.0
 40
9.0
 40
10.0
 40
10.0
 40
10.0
 40
10.0
 10
45.62140235380165
 20
-64.5251739355125
 30
0.0
 10
45.62458746152264
 20
-64.52827225807756
 30
0.0
 10
45.62776666607
 20
-64.53137664338885
 30
0.0
 10
45.63093995014897
 20
-64.53448707455908
 30
0.0
 10
47.01137769406255
 20
-65.88758263110697
 30
0.0
 10
47.03354291636867
 20
-68.10354920602578
 30
0.0
 10
45.68044735982016
 20
-69.48398694993902
 30
0.0
 10
44.32735180327196
 20
-70.8644246938526
 30
0.0
 10
42.11138522835346
 20
-70.88658991615873
 30
0.0
 10
40.73094748444021
 20
-69.53349435960989
 30
0.0
 10
39.35050974052665
 20
-68.180398803062
 30
0.0
 10
39.32834451822051
 20
-65.96443222814383
 30
0.0
 10
40.68144007476936
 20
-64.58399448423026
 30
0.0
 10
40.68144007476936
 20
-64.58399448423026
 30
0.0
 10
40.6214023538018
 20
-64.58399448423026
 30
0.0
 10
40.6214023538018
 20
-64.58399448423026
 30
0.0
 10
40.6214023538018
 20
-64.58399448423026
 30
0.0
 10
40.6214023538018
 20
-28.48297396979661
 30
0.0
 10
40.6214023538018
 20
-28.48297396979661
 30
0.0
 10
39.28806902046841
 20
-27.12214633491713
 30
0.0
 10
39.28806902046841
 20
-24.9448221191099
 30
0.0
 10
40.6214023538018
 20
-23.5839944842301
 30
0.0
 10
41.97421818360789
 20
-22.20328260965335
 30
0.0
 10
44.19018022200807
 20
-22.18066839720717
 30
0.0
 10
45.57089209658482
 20
-23.53348422701326
 30
0.0
 10
46.95160397116189
 20
-24.88630005681936
 30
0.0
 10
46.97421818360775
 20
-27.10226209521954
 30
0.0
 10
45.62140235380165
 20
-28.48297396979661
 30
0.0
 10
45.62140235380165
 20
-28.48297396979661
 30
0.0
 10
45.62140235380165
 20
-64.5251739355125
 30
0.0
 10
45.62140235380165
 20
-64.5251739355125
 30
0.0
  0
ENDBLK
  5
5D
330
5A
100
AcDbEntity
  8
0
100
AcDbBlockEnd
  0
BLOCK
  5
61
330
5F
100
AcDbEntity
  8
0
100
AcDbBlockBegin
  2
block 8
 70
     0
 10
0.0
 20
0.0
 30
0.0
  3
block 8
  1

  0
SPLINE
  5
63
330
5F
100
AcDbEntity
  8
_U+30EC_U+30A4_U+30E4_U+30FC 1
 62
    12
420
 15007761
370
    35
100
AcDbSpline
210
0.0
220
0.0
230
1.0
 70
    11
 71
     3
 72
    20
 73
    16
 74
     0
 42
0.0000000001
 43
0.0000000001
 12
1.0
 22
0.0
 32
0.0
 13
1.0
 23
0.0
 33
0.0
 40
0.0
 40
0.0
 40
0.0
 40
0.0
 40
1.0
 40
1.0
 40
1.0
 40
2.0
 40
2.0
 40
2.0
 40
3.0
 40
3.0
 40
3.0
 40
4.0
 40
4.0
 40
4.0
 40
5.0
 40
5.0
 40
5.0
 40
5.0
 10
61.68094371729428
 20
-67.03399071708465
 30
0.0
 10
61.68094371729428
 20
-66.20556359233854
 30
0.0
 10
62.35251659254823
 20
-65.53399071708459
 30
0.0
 10
63.18094371729434
 20
-65.53399071708459
 30
0.0
 10
64.00937084204077
 20
-65.53399071708459
 30
0.0
 10
64.6809437172944
 20
-66.20556359233854
 30
0.0
 10
64.6809437172944
 20
-67.03399071708465
 30
0.0
 10
64.6809437172944
 20
-67.86241784183076
 30
0.0
 10
64.00937084204077
 20
-68.53399071708469
 30
0.0
 10
63.18094371729434
 20
-68.53399071708469
 30
0.0
 10
62.35251659254823
 20
-68.53399071708469
 30
0.0
 10
61.68094371729428
 20
-67.86241784183076
 30
0.0
 10
61.68094371729428
 20
-67.03399071708465
 30
0.0
 10
61.68094371729428
 20
-67.03399071708465
 30
0.0
 10
61.68094371729428
 20
-67.03399071708465
 30
0.0
 10
61.68094371729428
 20
-67.03399071708465
 30
0.0
  0
ENDBLK
  5
62
330
5F
100
AcDbEntity
  8
0
100
AcDbBlockEnd
  0
BLOCK
  5
66
330
64
100
AcDbEntity
  8
0
100
AcDbBlockBegin
  2
block 9
 70
     0
 10
0.0
 20
0.0
 30
0.0
  3
block 9
  1

  0
SPLINE
  5
68
330
64
100
AcDbEntity
  8
_U+30EC_U+30A4_U+30E4_U+30FC 1
 62
    12
420
 15007761
370
    35
100
AcDbSpline
210
0.0
220
0.0
230
1.0
 70
    11
 71
     3
 72
    20
 73
    16
 74
     0
 42
0.0000000001
 43
0.0000000001
 12
1.0
 22
0.0
 32
0.0
 13
1.0
 23
0.0
 33
0.0
 40
0.0
 40
0.0
 40
0.0
 40
0.0
 40
1.0
 40
1.0
 40
1.0
 40
2.0
 40
2.0
 40
2.0
 40
3.0
 40
3.0
 40
3.0
 40
4.0
 40
4.0
 40
4.0
 40
5.0
 40
5.0
 40
5.0
 40
5.0
 10
61.62140235380158
 20
-26.03348422701335
 30
0.0
 10
61.62140235380158
 20
-25.20505710226724
 30
0.0
 10
62.29297522905519
 20
-24.5334842270133
 30
0.0
 10
63.12140235380163
 20
-24.5334842270133
 30
0.0
 10
63.94982947854774
 20
-24.5334842270133
 30
0.0
 10
64.62140235380168
 20
-25.20505710226724
 30
0.0
 10
64.62140235380168
 20
-26.03348422701335
 30
0.0
 10
64.62140235380168
 20
-26.86191135175979
 30
0.0
 10
63.94982947854774
 20
-27.53348422701341
 30
0.0
 10
63.12140235380163
 20
-27.53348422701341
 30
0.0
 10
62.29297522905519
 20
-27.53348422701341
 30
0.0
 10
61.62140235380158
 20
-26.86191135175979
 30
0.0
 10
61.62140235380158
 20
-26.03348422701335
 30
0.0
 10
61.62140235380158
 20
-26.03348422701335
 30
0.0
 10
61.62140235380158
 20
-26.03348422701335
 30
0.0
 10
61.62140235380158
 20
-26.03348422701335
 30
0.0
  0
ENDBLK
  5
67
330
64
100
AcDbEntity
  8
0
100
AcDbBlockEnd
  0
BLOCK
  5
6B
330
69
100
AcDbEntity
  8
0
100
AcDbBlockBegin
  2
block 10
 70
     0
 10
0.0
 20
0.0
 30
0.0
  3
block 10
  1

  0
SPLINE
  5
6D
330
69
100
AcDbEntity
  8
_U+30EC_U+30A4_U+30E4_U+30FC 1
 62
    12
420
 15007761
370
    35
100
AcDbSpline
210
0.0
220
0.0
230
1.0
 70
    11
 71
     3
 72
    35
 73
    31
 74
     0
 42
0.0000000001
 43
0.0000000001
 12
1.0
 22
0.0
 32
0.0
 13
1.0
 23
0.0
 33
0.0
 40
0.0
 40
0.0
 40
0.0
 40
0.0
 40
1.0
 40
1.0
 40
1.0
 40
2.0
 40
2.0
 40
2.0
 40
3.0
 40
3.0
 40
3.0
 40
4.0
 40
4.0
 40
4.0
 40
5.0
 40
5.0
 40
5.0
 40
6.0
 40
6.0
 40
6.0
 40
7.0
 40
7.0
 40
7.0
 40
8.0
 40
8.0
 40
8.0
 40
9.0
 40
9.0
 40
9.0
 40
10.0
 40
10.0
 40
10.0
 40
10.0
 10
65.62140235380171
 20
-64.5251739355125
 30
0.0
 10
65.62458746152238
 20
-64.52827225807756
 30
0.0
 10
65.62776666606975
 20
-64.53137664338885
 30
0.0
 10
65.63093995014871
 20
-64.53448707455908
 30
0.0
 10
67.01137769406229
 20
-65.88758263110697
 30
0.0
 10
67.03354291636842
 20
-68.10354920602578
 30
0.0
 10
65.68044735982022
 20
-69.48398694993902
 30
0.0
 10
64.3273518032717
 20
-70.8644246938526
 30
0.0
 10
62.11138522835353
 20
-70.88658991615873
 30
0.0
 10
60.73094748443996
 20
-69.53349435960989
 30
0.0
 10
59.35050974052639
 20
-68.180398803062
 30
0.0
 10
59.32834451822026
 20
-65.96443222814383
 30
0.0
 10
60.68144007476877
 20
-64.58399448423026
 30
0.0
 10
60.68144007476877
 20
-64.58399448423026
 30
0.0
 10
60.62140235380154
 20
-64.58399448423026
 30
0.0
 10
60.62140235380154
 20
-64.58399448423026
 30
0.0
 10
60.62140235380154
 20
-64.58399448423026
 30
0.0
 10
60.62140235380154
 20
-28.48297396979661
 30
0.0
 10
60.62140235380154
 20
-28.48297396979661
 30
0.0
 10
59.28806902046816
 20
-27.12214633491713
 30
0.0
 10
59.28806902046816
 20
-24.9448221191099
 30
0.0
 10
60.62140235380154
 20
-23.5839944842301
 30
0.0
 10
61.97421818360763
 20
-22.20328260965335
 30
0.0
 10
64.19018022200781
 20
-22.18066839720717
 30
0.0
 10
65.57089209658488
 20
-23.53348422701326
 30
0.0
 10
66.95160397116163
 20
-24.88630005681936
 30
0.0
 10
66.9742181836078
 20
-27.10226209521954
 30
0.0
 10
65.62140235380171
 20
-28.48297396979661
 30
0.0
 10
65.62140235380171
 20
-28.48297396979661
 30
0.0
 10
65.62140235380171
 20
-64.5251739355125
 30
0.0
 10
65.62140235380171
 20
-64.5251739355125
 30
0.0
  0
ENDBLK
  5
6C
330
69
100
AcDbEntity
  8
0
100
AcDbBlockEnd
  0
BLOCK
  5
70
330
6E
100
AcDbEntity
  8
0
100
AcDbBlockBegin
  2
block 11
 70
     0
 10
0.0
 20
0.0
 30
0.0
  3
block 11
  1

  0
SPLINE
  5
72
330
6E
100
AcDbEntity
  8
_U+30EC_U+30A4_U+30E4_U+30FC 1
 62
    12
420
 15007761
370
    35
100
AcDbSpline
210
0.0
220
0.0
230
1.0
 70
    11
 71
     3
 72
    20
 73
    16
 74
     0
 42
0.0000000001
 43
0.0000000001
 12
1.0
 22
0.0
 32
0.0
 13
1.0
 23
0.0
 33
0.0
 40
0.0
 40
0.0
 40
0.0
 40
0.0
 40
1.0
 40
1.0
 40
1.0
 40
2.0
 40
2.0
 40
2.0
 40
3.0
 40
3.0
 40
3.0
 40
4.0
 40
4.0
 40
4.0
 40
5.0
 40
5.0
 40
5.0
 40
5.0
 10
83.62140459750626
 20
-67.03348422701352
 30
0.0
 10
83.62140459750626
 20
-66.20505710226709
 30
0.0
 10
84.29297747275987
 20
-65.53348422701346
 30
0.0
 10
85.1214045975063
 20
-65.53348422701346
 30
0.0
 10
85.9498317222521
 20
-65.53348422701346
 30
0.0
 10
86.62140459750604
 20
-66.20505710226709
 30
0.0
 10
86.62140459750604
 20
-67.03348422701352
 30
0.0
 10
86.62140459750604
 20
-67.86191135175963
 30
0.0
 10
85.9498317222521
 20
-68.53348422701357
 30
0.0
 10
85.1214045975063
 20
-68.53348422701357
 30
0.0
 10
84.29297747275987
 20
-68.53348422701357
 30
0.0
 10
83.62140459750626
 20
-67.86191135175963
 30
0.0
 10
83.62140459750626
 20
-67.03348422701352
 30
0.0
 10
83.62140459750626
 20
-67.03348422701352
 30
0.0
 10
83.62140459750626
 20
-67.03348422701352
 30
0.0
 10
83.62140459750626
 20
-67.03348422701352
 30
0.0
  0
ENDBLK
  5
71
330
6E
100
AcDbEntity
  8
0
100
AcDbBlockEnd
  0
BLOCK
  5
75
330
73
100
AcDbEntity
  8
0
100
AcDbBlockBegin
  2
block 12
 70
     0
 10
0.0
 20
0.0
 30
0.0
  3
block 12
  1

  0
SPLINE
  5
77
330
73
100
AcDbEntity
  8
_U+30EC_U+30A4_U+30E4_U+30FC 1
 62
    12
420
 15007761
370
    35
100
AcDbSpline
210
0.0
220
0.0
230
1.0
 70
    11
 71
     3
 72
    20
 73
    16
 74
     0
 42
0.0000000001
 43
0.0000000001
 12
1.0
 22
0.0
 32
0.0
 13
1.0
 23
0.0
 33
0.0
 40
0.0
 40
0.0
 40
0.0
 40
0.0
 40
1.0
 40
1.0
 40
1.0
 40
2.0
 40
2.0
 40
2.0
 40
3.0
 40
3.0
 40
3.0
 40
4.0
 40
4.0
 40
4.0
 40
5.0
 40
5.0
 40
5.0
 40
5.0
 10
83.62140459750626
 20
-18.03348422701339
 30
0.0
 10
83.62140459750626
 20
-17.20505710226728
 30
0.0
 10
84.29297747275987
 20
-16.53348422701334
 30
0.0
 10
85.1214045975063
 20
-16.53348422701334
 30
0.0
 10
85.9498317222521
 20
-16.53348422701334
 30
0.0
 10
86.62140459750604
 20
-17.20505710226728
 30
0.0
 10
86.62140459750604
 20
-18.03348422701339
 30
0.0
 10
86.62140459750604
 20
-18.86191135175951
 30
0.0
 10
85.9498317222521
 20
-19.53348422701345
 30
0.0
 10
85.1214045975063
 20
-19.53348422701345
 30
0.0
 10
84.29297747275987
 20
-19.53348422701345
 30
0.0
 10
83.62140459750626
 20
-18.86191135175951
 30
0.0
 10
83.62140459750626
 20
-18.03348422701339
 30
0.0
 10
83.62140459750626
 20
-18.03348422701339
 30
0.0
 10
83.62140459750626
 20
-18.03348422701339
 30
0.0
 10
83.62140459750626
 20
-18.03348422701339
 30
0.0
  0
ENDBLK
  5
76
330
73
100
AcDbEntity
  8
0
100
AcDbBlockEnd
  0
BLOCK
  5
7A
330
78
100
AcDbEntity
  8
0
100
AcDbBlockBegin
  2
block 13
 70
     0
 10
0.0
 20
0.0
 30
0.0
  3
block 13
  1

  0
SPLINE
  5
7C
330
78
100
AcDbEntity
  8
_U+30EC_U+30A4_U+30E4_U+30FC 1
 62
    12
420
 15007761
370
    35
100
AcDbSpline
210
0.0
220
0.0
230
1.0
 70
    11
 71
     3
 72
    29
 73
    25
 74
     0
 42
0.0000000001
 43
0.0000000001
 12
1.0
 22
0.0
 32
0.0
 13
1.0
 23
0.0
 33
0.0
 40
0.0
 40
0.0
 40
0.0
 40
0.0
 40
1.0
 40
1.0
 40
1.0
 40
2.0
 40
2.0
 40
2.0
 40
3.0
 40
3.0
 40
3.0
 40
4.0
 40
4.0
 40
4.0
 40
5.0
 40
5.0
 40
5.0
 40
6.0
 40
6.0
 40
6.0
 40
7.0
 40
7.0
 40
7.0
 40
8.0
 40
8.0
 40
8.0
 40
8.0
 10
87.6214045975064
 20
-20.48297396979665
 30
0.0
 10
87.6214045975064
 20
-20.48297396979665
 30
0.0
 10
87.6214045975064
 20
-64.58399448423026
 30
0.0
 10
87.6214045975064
 20
-64.58399448423026
 30
0.0
 10
88.95473793083946
 20
-65.94482211910974
 30
0.0
 10
88.95473793083946
 20
-68.12214633491698
 30
0.0
 10
87.6214045975064
 20
-69.48297396979677
 30
0.0
 10
86.26858876770031
 20
-70.86368584437352
 30
0.0
 10
84.05262672930012
 20
-70.88630005681969
 30
0.0
 10
82.67191485472306
 20
-69.5334842270136
 30
0.0
 10
81.29120298014598
 20
-68.1806683972072
 30
0.0
 10
81.26858876770012
 20
-65.96470635880733
 30
0.0
 10
82.62140459750621
 20
-64.58399448423026
 30
0.0
 10
82.62140459750621
 20
-64.58399448423026
 30
0.0
 10
82.62140459750621
 20
-20.48297396979665
 30
0.0
 10
82.62140459750621
 20
-20.48297396979665
 30
0.0
 10
81.28807126417284
 20
-19.12214633491717
 30
0.0
 10
81.28807126417284
 20
-16.94482211910994
 30
0.0
 10
82.62140459750621
 20
-15.58399448423014
 30
0.0
 10
83.9742204273123
 20
-14.20328260965339
 30
0.0
 10
86.1901824657125
 20
-14.18066839720721
 30
0.0
 10
87.57089434028924
 20
-15.5334842270133
 30
0.0
 10
88.9516062148663
 20
-16.88630005681939
 30
0.0
 10
88.97422042731216
 20
-19.10226209521958
 30
0.0
 10
87.6214045975064
 20
-20.48297396979665
 30
0.0
  0
ENDBLK
  5
7B
330
78
100
AcDbEntity
  8
0
100
AcDbBlockEnd
  0
BLOCK
  5
7F
330
7D
100
AcDbEntity
  8
0
100
AcDbBlockBegin
  2
block 14
 70
     0
 10
0.0
 20
0.0
 30
0.0
  3
block 14
  1

  0
SPLINE
  5
81
330
7D
100
AcDbEntity
  8
_U+30EC_U+30A4_U+30E4_U+30FC 1
 62
    12
420
 15007761
370
    35
100
AcDbSpline
210
0.0
220
0.0
230
1.0
 70
    11
 71
     3
 72
    20
 73
    16
 74
     0
 42
0.0000000001
 43
0.0000000001
 12
1.0
 22
0.0
 32
0.0
 13
1.0
 23
0.0
 33
0.0
 40
0.0
 40
0.0
 40
0.0
 40
0.0
 40
1.0
 40
1.0
 40
1.0
 40
2.0
 40
2.0
 40
2.0
 40
3.0
 40
3.0
 40
3.0
 40
4.0
 40
4.0
 40
4.0
 40
5.0
 40
5.0
 40
5.0
 40
5.0
 10
103.6214045975063
 20
-67.03348422701352
 30
0.0
 10
103.6214045975063
 20
-66.20505710226709
 30
0.0
 10
104.2929774727603
 20
-65.53348422701346
 30
0.0
 10
105.121404597506
 20
-65.53348422701346
 30
0.0
 10
105.9498317222522
 20
-65.53348422701346
 30
0.0
 10
106.6214045975064
 20
-66.20505710226709
 30
0.0
 10
106.6214045975064
 20
-67.03348422701352
 30
0.0
 10
106.6214045975064
 20
-67.86191135175963
 30
0.0
 10
105.9498317222522
 20
-68.53348422701357
 30
0.0
 10
105.121404597506
 20
-68.53348422701357
 30
0.0
 10
104.2929774727603
 20
-68.53348422701357
 30
0.0
 10
103.6214045975063
 20
-67.86191135175963
 30
0.0
 10
103.6214045975063
 20
-67.03348422701352
 30
0.0
 10
103.6214045975063
 20
-67.03348422701352
 30
0.0
 10
103.6214045975063
 20
-67.03348422701352
 30
0.0
 10
103.6214045975063
 20
-67.03348422701352
 30
0.0
  0
ENDBLK
  5
80
330
7D
100
AcDbEntity
  8
0
100
AcDbBlockEnd
  0
BLOCK
  5
84
330
82
100
AcDbEntity
  8
0
100
AcDbBlockBegin
  2
block 15
 70
     0
 10
0.0
 20
0.0
 30
0.0
  3
block 15
  1

  0
SPLINE
  5
86
330
82
100
AcDbEntity
  8
_U+30EC_U+30A4_U+30E4_U+30FC 1
 62
    12
420
 15007761
370
    35
100
AcDbSpline
210
0.0
220
0.0
230
1.0
 70
    11
 71
     3
 72
    20
 73
    16
 74
     0
 42
0.0000000001
 43
0.0000000001
 12
1.0
 22
0.0
 32
0.0
 13
1.0
 23
0.0
 33
0.0
 40
0.0
 40
0.0
 40
0.0
 40
0.0
 40
1.0
 40
1.0
 40
1.0
 40
2.0
 40
2.0
 40
2.0
 40
3.0
 40
3.0
 40
3.0
 40
4.0
 40
4.0
 40
4.0
 40
5.0
 40
5.0
 40
5.0
 40
5.0
 10
103.6214045975063
 20
-18.03348422701339
 30
0.0
 10
103.6214045975063
 20
-17.20505710226728
 30
0.0
 10
104.2929774727603
 20
-16.53348422701334
 30
0.0
 10
105.121404597506
 20
-16.53348422701334
 30
0.0
 10
105.9498317222522
 20
-16.53348422701334
 30
0.0
 10
106.6214045975064
 20
-17.20505710226728
 30
0.0
 10
106.6214045975064
 20
-18.03348422701339
 30
0.0
 10
106.6214045975064
 20
-18.86191135175951
 30
0.0
 10
105.9498317222522
 20
-19.53348422701345
 30
0.0
 10
105.121404597506
 20
-19.53348422701345
 30
0.0
 10
104.2929774727603
 20
-19.53348422701345
 30
0.0
 10
103.6214045975063
 20
-18.86191135175951
 30
0.0
 10
103.6214045975063
 20
-18.03348422701339
 30
0.0
 10
103.6214045975063
 20
-18.03348422701339
 30
0.0
 10
103.6214045975063
 20
-18.03348422701339
 30
0.0
 10
103.6214045975063
 20
-18.03348422701339
 30
0.0
  0
ENDBLK
  5
85
330
82
100
AcDbEntity
  8
0
100
AcDbBlockEnd
  0
BLOCK
  5
89
330
87
100
AcDbEntity
  8
0
100
AcDbBlockBegin
  2
block 16
 70
     0
 10
0.0
 20
0.0
 30
0.0
  3
block 16
  1

  0
SPLINE
  5
8B
330
87
100
AcDbEntity
  8
_U+30EC_U+30A4_U+30E4_U+30FC 1
 62
    12
420
 15007761
370
    35
100
AcDbSpline
210
0.0
220
0.0
230
1.0
 70
    11
 71
     3
 72
    29
 73
    25
 74
     0
 42
0.0000000001
 43
0.0000000001
 12
1.0
 22
0.0
 32
0.0
 13
1.0
 23
0.0
 33
0.0
 40
0.0
 40
0.0
 40
0.0
 40
0.0
 40
1.0
 40
1.0
 40
1.0
 40
2.0
 40
2.0
 40
2.0
 40
3.0
 40
3.0
 40
3.0
 40
4.0
 40
4.0
 40
4.0
 40
5.0
 40
5.0
 40
5.0
 40
6.0
 40
6.0
 40
6.0
 40
7.0
 40
7.0
 40
7.0
 40
8.0
 40
8.0
 40
8.0
 40
8.0
 10
107.6214045975065
 20
-20.48297396979665
 30
0.0
 10
107.6214045975065
 20
-20.48297396979665
 30
0.0
 10
107.6214045975065
 20
-64.58399448423026
 30
0.0
 10
107.6214045975065
 20
-64.58399448423026
 30
0.0
 10
108.9547379308398
 20
-65.94482211910974
 30
0.0
 10
108.9547379308398
 20
-68.12214633491698
 30
0.0
 10
107.6214045975065
 20
-69.48297396979677
 30
0.0
 10
106.2685887677004
 20
-70.86368584437352
 30
0.0
 10
104.0526267293002
 20
-70.88630005681969
 30
0.0
 10
102.6719148547231
 20
-69.5334842270136
 30
0.0
 10
101.2912029801461
 20
-68.1806683972072
 30
0.0
 10
101.2685887677002
 20
-65.96470635880733
 30
0.0
 10
102.6214045975063
 20
-64.58399448423026
 30
0.0
 10
102.6214045975063
 20
-64.58399448423026
 30
0.0
 10
102.6214045975063
 20
-20.48297396979665
 30
0.0
 10
102.6214045975063
 20
-20.48297396979665
 30
0.0
 10
101.2880712641729
 20
-19.12214633491717
 30
0.0
 10
101.2880712641729
 20
-16.94482211910994
 30
0.0
 10
102.6214045975063
 20
-15.58399448423014
 30
0.0
 10
103.9742204273124
 20
-14.20328260965339
 30
0.0
 10
106.1901824657126
 20
-14.18066839720721
 30
0.0
 10
107.5708943402899
 20
-15.5334842270133
 30
0.0
 10
108.9516062148667
 20
-16.88630005681972
 30
0.0
 10
108.9742204273125
 20
-19.10226209521958
 30
0.0
 10
107.6214045975065
 20
-20.48297396979665
 30
0.0
  0
ENDBLK
  5
8A
330
87
100
AcDbEntity
  8
0
100
AcDbBlockEnd
  0
BLOCK
  5
8E
330
8C
100
AcDbEntity
  8
0
100
AcDbBlockBegin
  2
block 17
 70
     0
 10
0.0
 20
0.0
 30
0.0
  3
block 17
  1

  0
SPLINE
  5
90
330
8C
100
AcDbEntity
  8
_U+30EC_U+30A4_U+30E4_U+30FC 1
 62
    12
420
 15007761
370
    35
100
AcDbSpline
210
0.0
220
0.0
230
1.0
 70
    11
 71
     3
 72
    20
 73
    16
 74
     0
 42
0.0000000001
 43
0.0000000001
 12
1.0
 22
0.0
 32
0.0
 13
1.0
 23
0.0
 33
0.0
 40
0.0
 40
0.0
 40
0.0
 40
0.0
 40
1.0
 40
1.0
 40
1.0
 40
2.0
 40
2.0
 40
2.0
 40
3.0
 40
3.0
 40
3.0
 40
4.0
 40
4.0
 40
4.0
 40
5.0
 40
5.0
 40
5.0
 40
5.0
 10
26.65117358523058
 20
-105.0334842270133
 30
0.0
 10
26.65117358523058
 20
-104.2050571022671
 30
0.0
 10
27.32274646048452
 20
-103.5334842270135
 30
0.0
 10
28.15117358523064
 20
-103.5334842270135
 30
0.0
 10
28.97960070997675
 20
-103.5334842270135
 30
0.0
 10
29.65117358523069
 20
-104.2050571022671
 30
0.0
 10
29.65117358523069
 20
-105.0334842270133
 30
0.0
 10
29.65117358523069
 20
-105.8619113517594
 30
0.0
 10
28.97960070997675
 20
-106.5334842270136
 30
0.0
 10
28.15117358523064
 20
-106.5334842270136
 30
0.0
 10
27.32274646048452
 20
-106.5334842270136
 30
0.0
 10
26.65117358523058
 20
-105.8619113517594
 30
0.0
 10
26.65117358523058
 20
-105.0334842270133
 30
0.0
 10
26.65117358523058
 20
-105.0334842270133
 30
0.0
 10
26.65117358523058
 20
-105.0334842270133
 30
0.0
 10
26.65117358523058
 20
-105.0334842270133
 30
0.0
  0
ENDBLK
  5
8F
330
8C
100
AcDbEntity
  8
0
100
AcDbBlockEnd
  0
BLOCK
  5
93
330
91
100
AcDbEntity
  8
0
100
AcDbBlockBegin
  2
block 18
 70
     0
 10
0.0
 20
0.0
 30
0.0
  3
block 18
  1

  0
SPLINE
  5
95
330
91
100
AcDbEntity
  8
_U+30EC_U+30A4_U+30E4_U+30FC 1
 62
    12
420
 15007761
370
    35
100
AcDbSpline
210
0.0
220
0.0
230
1.0
 70
    11
 71
     3
 72
    20
 73
    16
 74
     0
 42
0.0000000001
 43
0.0000000001
 12
1.0
 22
0.0
 32
0.0
 13
1.0
 23
0.0
 33
0.0
 40
0.0
 40
0.0
 40
0.0
 40
0.0
 40
1.0
 40
1.0
 40
1.0
 40
2.0
 40
2.0
 40
2.0
 40
3.0
 40
3.0
 40
3.0
 40
4.0
 40
4.0
 40
4.0
 40
5.0
 40
5.0
 40
5.0
 40
5.0
 10
26.64801053489795
 20
-119.0334856562835
 30
0.0
 10
26.64801053489795
 20
-118.2050585315374
 30
0.0
 10
27.31958341015157
 20
-117.5334856562831
 30
0.0
 10
28.148010534898
 20
-117.5334856562831
 30
0.0
 10
28.97643765964411
 20
-117.5334856562831
 30
0.0
 10
29.64801053489805
 20
-118.2050585315374
 30
0.0
 10
29.64801053489805
 20
-119.0334856562835
 30
0.0
 10
29.64801053489805
 20
-119.8619127810296
 30
0.0
 10
28.97643765964411
 20
-120.5334856562832
 30
0.0
 10
28.148010534898
 20
-120.5334856562832
 30
0.0
 10
27.31958341015157
 20
-120.5334856562832
 30
0.0
 10
26.64801053489795
 20
-119.8619127810296
 30
0.0
 10
26.64801053489795
 20
-119.0334856562835
 30
0.0
 10
26.64801053489795
 20
-119.0334856562835
 30
0.0
 10
26.64801053489795
 20
-119.0334856562835
 30
0.0
 10
26.64801053489795
 20
-119.0334856562835
 30
0.0
  0
ENDBLK
  5
94
330
91
100
AcDbEntity
  8
0
100
AcDbBlockEnd
  0
BLOCK
  5
98
330
96
100
AcDbEntity
  8
0
100
AcDbBlockBegin
  2
block 19
 70
     0
 10
0.0
 20
0.0
 30
0.0
  3
block 19
  1

  0
POLYLINE
  5
9A
330
96
100
AcDbEntity
  8
_U+30EC_U+30A4_U+30E4_U+30FC 1
 62
    12
420
 15007761
370
    35
100
AcDb2dPolyline
 66
     1
 10
0.0
 20
0.0
 30
0.0
  0
VERTEX
  5
9B
330
9A
100
AcDbEntity
  8
_U+30EC_U+30A4_U+30E4_U+30FC 1
 62
    12
420
 15007761
370
    35
100
AcDbVertex
100
AcDb2dVertex
 10
19.65117358523066
 20
-150.5334842270132
 30
0.0
  0
VERTEX
  5
9C
330
9A
100
AcDbEntity
  8
_U+30EC_U+30A4_U+30E4_U+30FC 1
 62
    12
420
 15007761
370
    35
100
AcDbVertex
100
AcDb2dVertex
 10
28.31108115659625
 20
-150.5334842270132
 30
0.0
  0
SEQEND
  5
9D
330
9A
100
AcDbEntity
  8
_U+30EC_U+30A4_U+30E4_U+30FC 1
 62
    12
420
 15007761
370
    35
  0
ENDBLK
  5
99
330
96
100
AcDbEntity
  8
0
100
AcDbBlockEnd
  0
BLOCK
  5
A0
330
9E
100
AcDbEntity
  8
0
100
AcDbBlockBegin
  2
block 20
 70
     0
 10
0.0
 20
0.0
 30
0.0
  3
block 20
  1

  0
POLYLINE
  5
A2
330
9E
100
AcDbEntity
  8
_U+30EC_U+30A4_U+30E4_U+30FC 1
 62
    12
420
 15007761
370
    35
100
AcDb2dPolyline
 66
     1
 10
0.0
 20
0.0
 30
0.0
  0
VERTEX
  5
A3
330
A2
100
AcDbEntity
  8
_U+30EC_U+30A4_U+30E4_U+30FC 1
 62
    12
420
 15007761
370
    35
100
AcDbVertex
100
AcDb2dVertex
 10
44.65117358523058
 20
-100.5334842270134
 30
0.0
  0
VERTEX
  5
A4
330
A2
100
AcDbEntity
  8
_U+30EC_U+30A4_U+30E4_U+30FC 1
 62
    12
420
 15007761
370
    35
100
AcDbVertex
100
AcDb2dVertex
 10
41.33946335250219
 20
-98.97147524723485
 30
0.0
  0
VERTEX
  5
A5
330
A2
100
AcDbEntity
  8
_U+30EC_U+30A4_U+30E4_U+30FC 1
 62
    12
420
 15007761
370
    35
100
AcDbVertex
100
AcDb2dVertex
 10
38.22630136683699
 20
-97.73340653574186
 30
0.0
  0
VERTEX
  5
A6
330
A2
100
AcDbEntity
  8
_U+30EC_U+30A4_U+30E4_U+30FC 1
 62
    12
420
 15007761
370
    35
100
AcDbVertex
100
AcDb2dVertex
 10
35.31240599375378
 20
-96.82029251038477
 30
0.0
  0
VERTEX
  5
A7
330
A2
100
AcDbEntity
  8
_U+30EC_U+30A4_U+30E4_U+30FC 1
 62
    12
420
 15007761
370
    35
100
AcDbVertex
100
AcDb2dVertex
 10
32.59871156144693
 20
-96.2332467943879
 30
0.0
  0
VERTEX
  5
A8
330
A2
100
AcDbEntity
  8
_U+30EC_U+30A4_U+30E4_U+30FC 1
 62
    12
420
 15007761
370
    35
100
AcDbVertex
100
AcDb2dVertex
 10
30.08613743169004
 20
-95.97297866546408
 30
0.0
  0
VERTEX
  5
A9
330
A2
100
AcDbEntity
  8
_U+30EC_U+30A4_U+30E4_U+30FC 1
 62
    12
420
 15007761
370
    35
100
AcDbVertex
100
AcDb2dVertex
 10
27.775341962276
 20
-96.0392630044889
 30
0.0
  0
VERTEX
  5
AA
330
A2
100
AcDbEntity
  8
_U+30EC_U+30A4_U+30E4_U+30FC 1
 62
    12
420
 15007761
370
    35
100
AcDbVertex
100
AcDb2dVertex
 10
25.66645102855886
 20
-96.4303651705853
 30
0.0
  0
VERTEX
  5
AB
330
A2
100
AcDbEntity
  8
_U+30EC_U+30A4_U+30E4_U+30FC 1
 62
    12
420
 15007761
370
    35
100
AcDbVertex
100
AcDb2dVertex
 10
23.75878830410421
 20
-97.14246911818596
 30
0.0
  0
VERTEX
  5
AC
330
A2
100
AcDbEntity
  8
_U+30EC_U+30A4_U+30E4_U+30FC 1
 62
    12
420
 15007761
370
    35
100
AcDbVertex
100
AcDb2dVertex
 10
22.05061433958129
 20
-98.169121200499
 30
0.0
  0
VERTEX
  5
AD
330
A2
100
AcDbEntity
  8
_U+30EC_U+30A4_U+30E4_U+30FC 1
 62
    12
420
 15007761
370
    35
100
AcDbVertex
100
AcDb2dVertex
 10
20.53880965002205
 20
-99.50057367739153
 30
0.0
  0
VERTEX
  5
AE
330
A2
100
AcDbEntity
  8
_U+30EC_U+30A4_U+30E4_U+30FC 1
 62
    12
420
 15007761
370
    35
100
AcDbVertex
100
AcDb2dVertex
 10
19.21849657944396
 20
-101.1230184619297
 30
0.0
  0
VERTEX
  5
AF
330
A2
100
AcDbEntity
  8
_U+30EC_U+30A4_U+30E4_U+30FC 1
 62
    12
420
 15007761
370
    35
100
AcDbVertex
100
AcDb2dVertex
 10
18.08281624419741
 20
-103.0180976080475
 30
0.0
  0
VERTEX
  5
B0
330
A2
100
AcDbEntity
  8
_U+30EC_U+30A4_U+30E4_U+30FC 1
 62
    12
420
 15007761
370
    35
100
AcDbVertex
100
AcDb2dVertex
 10
17.12293998122556
 20
-105.1628323210108
 30
0.0
  0
VERTEX
  5
B1
330
A2
100
AcDbEntity
  8
_U+30EC_U+30A4_U+30E4_U+30FC 1
 62
    12
420
 15007761
370
    35
100
AcDbVertex
100
AcDb2dVertex
 10
16.32835897466047
 20
-107.5300478425127
 30
0.0
  0
VERTEX
  5
B2
330
A2
100
AcDbEntity
  8
_U+30EC_U+30A4_U+30E4_U+30FC 1
 62
    12
420
 15007761
370
    35
100
AcDbVertex
100
AcDb2dVertex
 10
15.68740562002877
 20
-110.0892115399667
 30
0.0
  0
VERTEX
  5
B3
330
A2
100
AcDbEntity
  8
_U+30EC_U+30A4_U+30E4_U+30FC 1
 62
    12
420
 15007761
370
    35
100
AcDbVertex
100
AcDb2dVertex
 10
15.1877274419455
 20
-112.8071876026652
 30
0.0
  0
VERTEX
  5
B4
330
A2
100
AcDbEntity
  8
_U+30EC_U+30A4_U+30E4_U+30FC 1
 62
    12
420
 15007761
370
    35
100
AcDbVertex
100
AcDb2dVertex
 10
14.81669531272786
 20
-115.6488750874996
 30
0.0
  0
VERTEX
  5
B5
330
A2
100
AcDbEntity
  8
_U+30EC_U+30A4_U+30E4_U+30FC 1
 62
    12
420
 15007761
370
    35
100
AcDbVertex
100
AcDb2dVertex
 10
14.56182901629409
 20
-118.5778741804607
 30
0.0
  0
VERTEX
  5
B6
330
A2
100
AcDbEntity
  8
_U+30EC_U+30A4_U+30E4_U+30FC 1
 62
    12
420
 15007761
370
    35
100
AcDbVertex
100
AcDb2dVertex
 10
14.35402200790691
 20
-124.5498136624085
 30
0.0
  0
VERTEX
  5
B7
330
A2
100
AcDbEntity
  8
_U+30EC_U+30A4_U+30E4_U+30FC 1
 62
    12
420
 15007761
370
    35
100
AcDbVertex
100
AcDb2dVertex
 10
14.48361831840061
 20
-130.4313343198606
 30
0.0
  0
VERTEX
  5
B8
330
A2
100
AcDbEntity
  8
_U+30EC_U+30A4_U+30E4_U+30FC 1
 62
    12
420
 15007761
370
    35
100
AcDbVertex
100
AcDb2dVertex
 10
14.65738251879359
 20
-133.2523894635391
 30
0.0
  0
VERTEX
  5
B9
330
A2
100
AcDbEntity
  8
_U+30EC_U+30A4_U+30E4_U+30FC 1
 62
    12
420
 15007761
370
    35
100
AcDbVertex
100
AcDb2dVertex
 10
14.89921407756929
 20
-135.952412803134
 30
0.0
  0
VERTEX
  5
BA
330
A2
100
AcDbEntity
  8
_U+30EC_U+30A4_U+30E4_U+30FC 1
 62
    12
420
 15007761
370
    35
100
AcDbVertex
100
AcDb2dVertex
 10
15.20907986693587
 20
-138.5042001181625
 30
0.0
  0
VERTEX
  5
BB
330
A2
100
AcDbEntity
  8
_U+30EC_U+30A4_U+30E4_U+30FC 1
 62
    12
420
 15007761
370
    35
100
AcDbVertex
100
AcDb2dVertex
 10
15.58933383620062
 20
-140.8835781263667
 30
0.0
  0
VERTEX
  5
BC
330
A2
100
AcDbEntity
  8
_U+30EC_U+30A4_U+30E4_U+30FC 1
 62
    12
420
 15007761
370
    35
100
AcDbVertex
100
AcDb2dVertex
 10
16.0441808928907
 20
-143.0692336255117
 30
0.0
  0
VERTEX
  5
BD
330
A2
100
AcDbEntity
  8
_U+30EC_U+30A4_U+30E4_U+30FC 1
 62
    12
420
 15007761
370
    35
100
AcDbVertex
100
AcDb2dVertex
 10
16.57917252889154
 20
-145.0426055111847
 30
0.0
  0
VERTEX
  5
BE
330
A2
100
AcDbEntity
  8
_U+30EC_U+30A4_U+30E4_U+30FC 1
 62
    12
420
 15007761
370
    35
100
AcDbVertex
100
AcDb2dVertex
 10
17.2007178607875
 20
-146.7877950384262
 30
0.0
  0
VERTEX
  5
BF
330
A2
100
AcDbEntity
  8
_U+30EC_U+30A4_U+30E4_U+30FC 1
 62
    12
420
 15007761
370
    35
100
AcDbVertex
100
AcDb2dVertex
 10
17.91559655856974
 20
-148.2914695817108
 30
0.0
  0
VERTEX
  5
C0
330
A2
100
AcDbEntity
  8
_U+30EC_U+30A4_U+30E4_U+30FC 1
 62
    12
420
 15007761
370
    35
100
AcDbVertex
100
AcDb2dVertex
 10
18.73044049402178
 20
-149.542804451741
 30
0.0
  0
VERTEX
  5
C1
330
A2
100
AcDbEntity
  8
_U+30EC_U+30A4_U+30E4_U+30FC 1
 62
    12
420
 15007761
370
    35
100
AcDbVertex
100
AcDb2dVertex
 10
19.65117358521975
 20
-150.5334842270036
 30
0.0
  0
SEQEND
  5
C2
330
A2
100
AcDbEntity
  8
_U+30EC_U+30A4_U+30E4_U+30FC 1
 62
    12
420
 15007761
370
    35
  0
ENDBLK
  5
A1
330
9E
100
AcDbEntity
  8
0
100
AcDbBlockEnd
  0
BLOCK
  5
C5
330
C3
100
AcDbEntity
  8
0
100
AcDbBlockBegin
  2
block 21
 70
     0
 10
0.0
 20
0.0
 30
0.0
  3
block 21
  1

  0
SPLINE
  5
C7
330
C3
100
AcDbEntity
  8
_U+30EC_U+30A4_U+30E4_U+30FC 1
 62
    12
420
 15007761
370
    35
100
AcDbSpline
210
0.0
220
0.0
230
1.0
 70
    11
 71
     3
 72
    20
 73
    16
 74
     0
 42
0.0000000001
 43
0.0000000001
 12
1.0
 22
0.0
 32
0.0
 13
1.0
 23
0.0
 33
0.0
 40
0.0
 40
0.0
 40
0.0
 40
0.0
 40
1.0
 40
1.0
 40
1.0
 40
2.0
 40
2.0
 40
2.0
 40
3.0
 40
3.0
 40
3.0
 40
4.0
 40
4.0
 40
4.0
 40
5.0
 40
5.0
 40
5.0
 40
5.0
 10
66.65117358523071
 20
-105.0334842270133
 30
0.0
 10
66.65117358523071
 20
-104.2050571022671
 30
0.0
 10
67.32274646048434
 20
-103.5334842270135
 30
0.0
 10
68.15117358523077
 20
-103.5334842270135
 30
0.0
 10
68.97960070997688
 20
-103.5334842270135
 30
0.0
 10
69.6511735852305
 20
-104.2050571022671
 30
0.0
 10
69.6511735852305
 20
-105.0334842270133
 30
0.0
 10
69.6511735852305
 20
-105.8619113517594
 30
0.0
 10
68.97960070997688
 20
-106.5334842270136
 30
0.0
 10
68.15117358523077
 20
-106.5334842270136
 30
0.0
 10
67.32274646048434
 20
-106.5334842270136
 30
0.0
 10
66.65117358523071
 20
-105.8619113517594
 30
0.0
 10
66.65117358523071
 20
-105.0334842270133
 30
0.0
 10
66.65117358523071
 20
-105.0334842270133
 30
0.0
 10
66.65117358523071
 20
-105.0334842270133
 30
0.0
 10
66.65117358523071
 20
-105.0334842270133
 30
0.0
  0
ENDBLK
  5
C6
330
C3
100
AcDbEntity
  8
0
100
AcDbBlockEnd
  0
BLOCK
  5
CA
330
C8
100
AcDbEntity
  8
0
100
AcDbBlockBegin
  2
block 22
 70
     0
 10
0.0
 20
0.0
 30
0.0
  3
block 22
  1

  0
SPLINE
  5
CC
330
C8
100
AcDbEntity
  8
_U+30EC_U+30A4_U+30E4_U+30FC 1
 62
    12
420
 15007761
370
    35
100
AcDbSpline
210
0.0
220
0.0
230
1.0
 70
    11
 71
     3
 72
    20
 73
    16
 74
     0
 42
0.0000000001
 43
0.0000000001
 12
1.0
 22
0.0
 32
0.0
 13
1.0
 23
0.0
 33
0.0
 40
0.0
 40
0.0
 40
0.0
 40
0.0
 40
1.0
 40
1.0
 40
1.0
 40
2.0
 40
2.0
 40
2.0
 40
3.0
 40
3.0
 40
3.0
 40
4.0
 40
4.0
 40
4.0
 40
5.0
 40
5.0
 40
5.0
 40
5.0
 10
66.64801053489775
 20
-119.0334856562835
 30
0.0
 10
66.64801053489775
 20
-118.2050585315374
 30
0.0
 10
67.3195834101517
 20
-117.5334856562831
 30
0.0
 10
68.14801053489781
 20
-117.5334856562831
 30
0.0
 10
68.97643765964392
 20
-117.5334856562831
 30
0.0
 10
69.64801053489786
 20
-118.2050585315374
 30
0.0
 10
69.64801053489786
 20
-119.0334856562835
 30
0.0
 10
69.64801053489786
 20
-119.8619127810296
 30
0.0
 10
68.97643765964392
 20
-120.5334856562832
 30
0.0
 10
68.14801053489781
 20
-120.5334856562832
 30
0.0
 10
67.3195834101517
 20
-120.5334856562832
 30
0.0
 10
66.64801053489775
 20
-119.8619127810296
 30
0.0
 10
66.64801053489775
 20
-119.0334856562835
 30
0.0
 10
66.64801053489775
 20
-119.0334856562835
 30
0.0
 10
66.64801053489775
 20
-119.0334856562835
 30
0.0
 10
66.64801053489775
 20
-119.0334856562835
 30
0.0
  0
ENDBLK
  5
CB
330
C8
100
AcDbEntity
  8
0
100
AcDbBlockEnd
  0
BLOCK
  5
CF
330
CD
100
AcDbEntity
  8
0
100
AcDbBlockBegin
  2
block 23
 70
     0
 10
0.0
 20
0.0
 30
0.0
  3
block 23
  1

  0
POLYLINE
  5
D1
330
CD
100
AcDbEntity
  8
_U+30EC_U+30A4_U+30E4_U+30FC 1
 62
    12
420
 15007761
370
    35
100
AcDb2dPolyline
 66
     1
 10
0.0
 20
0.0
 30
0.0
  0
VERTEX
  5
D2
330
D1
100
AcDbEntity
  8
_U+30EC_U+30A4_U+30E4_U+30FC 1
 62
    12
420
 15007761
370
    35
100
AcDbVertex
100
AcDb2dVertex
 10
59.65117358523079
 20
-150.5334842270132
 30
0.0
  0
VERTEX
  5
D3
330
D1
100
AcDbEntity
  8
_U+30EC_U+30A4_U+30E4_U+30FC 1
 62
    12
420
 15007761
370
    35
100
AcDbVertex
100
AcDb2dVertex
 10
68.3110811565967
 20
-150.5334842270132
 30
0.0
  0
SEQEND
  5
D4
330
D1
100
AcDbEntity
  8
_U+30EC_U+30A4_U+30E4_U+30FC 1
 62
    12
420
 15007761
370
    35
  0
ENDBLK
  5
D0
330
CD
100
AcDbEntity
  8
0
100
AcDbBlockEnd
  0
BLOCK
  5
D7
330
D5
100
AcDbEntity
  8
0
100
AcDbBlockBegin
  2
block 24
 70
     0
 10
0.0
 20
0.0
 30
0.0
  3
block 24
  1

  0
POLYLINE
  5
D9
330
D5
100
AcDbEntity
  8
_U+30EC_U+30A4_U+30E4_U+30FC 1
 62
    12
420
 15007761
370
    35
100
AcDb2dPolyline
 66
     1
 10
0.0
 20
0.0
 30
0.0
  0
VERTEX
  5
DA
330
D9
100
AcDbEntity
  8
_U+30EC_U+30A4_U+30E4_U+30FC 1
 62
    12
420
 15007761
370
    35
100
AcDbVertex
100
AcDb2dVertex
 10
84.65117358523071
 20
-100.5334842270134
 30
0.0
  0
VERTEX
  5
DB
330
D9
100
AcDbEntity
  8
_U+30EC_U+30A4_U+30E4_U+30FC 1
 62
    12
420
 15007761
370
    35
100
AcDbVertex
100
AcDb2dVertex
 10
81.33946335250232
 20
-98.97147524723485
 30
0.0
  0
VERTEX
  5
DC
330
D9
100
AcDbEntity
  8
_U+30EC_U+30A4_U+30E4_U+30FC 1
 62
    12
420
 15007761
370
    35
100
AcDbVertex
100
AcDb2dVertex
 10
78.22630136683681
 20
-97.73340653574186
 30
0.0
  0
VERTEX
  5
DD
330
D9
100
AcDbEntity
  8
_U+30EC_U+30A4_U+30E4_U+30FC 1
 62
    12
420
 15007761
370
    35
100
AcDbVertex
100
AcDb2dVertex
 10
75.31240599375359
 20
-96.82029251038477
 30
0.0
  0
VERTEX
  5
DE
330
D9
100
AcDbEntity
  8
_U+30EC_U+30A4_U+30E4_U+30FC 1
 62
    12
420
 15007761
370
    35
100
AcDbVertex
100
AcDb2dVertex
 10
72.59871156144706
 20
-96.2332467943879
 30
0.0
  0
VERTEX
  5
DF
330
D9
100
AcDbEntity
  8
_U+30EC_U+30A4_U+30E4_U+30FC 1
 62
    12
420
 15007761
370
    35
100
AcDbVertex
100
AcDb2dVertex
 10
70.08613743168985
 20
-95.97297866546408
 30
0.0
  0
VERTEX
  5
E0
330
D9
100
AcDbEntity
  8
_U+30EC_U+30A4_U+30E4_U+30FC 1
 62
    12
420
 15007761
370
    35
100
AcDbVertex
100
AcDb2dVertex
 10
67.77534196227613
 20
-96.0392630044889
 30
0.0
  0
VERTEX
  5
E1
330
D9
100
AcDbEntity
  8
_U+30EC_U+30A4_U+30E4_U+30FC 1
 62
    12
420
 15007761
370
    35
100
AcDbVertex
100
AcDb2dVertex
 10
65.66645102855867
 20
-96.4303651705853
 30
0.0
  0
VERTEX
  5
E2
330
D9
100
AcDbEntity
  8
_U+30EC_U+30A4_U+30E4_U+30FC 1
 62
    12
420
 15007761
370
    35
100
AcDbVertex
100
AcDb2dVertex
 10
63.75878830410402
 20
-97.14246911818596
 30
0.0
  0
VERTEX
  5
E3
330
D9
100
AcDbEntity
  8
_U+30EC_U+30A4_U+30E4_U+30FC 1
 62
    12
420
 15007761
370
    35
100
AcDbVertex
100
AcDb2dVertex
 10
62.05061433958142
 20
-98.169121200499
 30
0.0
  0
VERTEX
  5
E4
330
D9
100
AcDbEntity
  8
_U+30EC_U+30A4_U+30E4_U+30FC 1
 62
    12
420
 15007761
370
    35
100
AcDbVertex
100
AcDb2dVertex
 10
60.53880965002185
 20
-99.50057367739153
 30
0.0
  0
VERTEX
  5
E5
330
D9
100
AcDbEntity
  8
_U+30EC_U+30A4_U+30E4_U+30FC 1
 62
    12
420
 15007761
370
    35
100
AcDbVertex
100
AcDb2dVertex
 10
59.21849657944377
 20
-101.1230184619297
 30
0.0
  0
VERTEX
  5
E6
330
D9
100
AcDbEntity
  8
_U+30EC_U+30A4_U+30E4_U+30FC 1
 62
    12
420
 15007761
370
    35
100
AcDbVertex
100
AcDb2dVertex
 10
58.08281624419722
 20
-103.0180976080475
 30
0.0
  0
VERTEX
  5
E7
330
D9
100
AcDbEntity
  8
_U+30EC_U+30A4_U+30E4_U+30FC 1
 62
    12
420
 15007761
370
    35
100
AcDbVertex
100
AcDb2dVertex
 10
57.12293998122536
 20
-105.1628323210108
 30
0.0
  0
VERTEX
  5
E8
330
D9
100
AcDbEntity
  8
_U+30EC_U+30A4_U+30E4_U+30FC 1
 62
    12
420
 15007761
370
    35
100
AcDbVertex
100
AcDb2dVertex
 10
56.3283589746606
 20
-107.5300478425127
 30
0.0
  0
VERTEX
  5
E9
330
D9
100
AcDbEntity
  8
_U+30EC_U+30A4_U+30E4_U+30FC 1
 62
    12
420
 15007761
370
    35
100
AcDbVertex
100
AcDb2dVertex
 10
55.68740562002858
 20
-110.0892115399667
 30
0.0
  0
VERTEX
  5
EA
330
D9
100
AcDbEntity
  8
_U+30EC_U+30A4_U+30E4_U+30FC 1
 62
    12
420
 15007761
370
    35
100
AcDbVertex
100
AcDb2dVertex
 10
55.18772744194531
 20
-112.8071876026652
 30
0.0
  0
VERTEX
  5
EB
330
D9
100
AcDbEntity
  8
_U+30EC_U+30A4_U+30E4_U+30FC 1
 62
    12
420
 15007761
370
    35
100
AcDbVertex
100
AcDb2dVertex
 10
54.81669531272799
 20
-115.6488750874996
 30
0.0
  0
VERTEX
  5
EC
330
D9
100
AcDbEntity
  8
_U+30EC_U+30A4_U+30E4_U+30FC 1
 62
    12
420
 15007761
370
    35
100
AcDbVertex
100
AcDb2dVertex
 10
54.56182901629422
 20
-118.5778741804607
 30
0.0
  0
VERTEX
  5
ED
330
D9
100
AcDbEntity
  8
_U+30EC_U+30A4_U+30E4_U+30FC 1
 62
    12
420
 15007761
370
    35
100
AcDbVertex
100
AcDb2dVertex
 10
54.35402200790639
 20
-124.5498136624085
 30
0.0
  0
VERTEX
  5
EE
330
D9
100
AcDbEntity
  8
_U+30EC_U+30A4_U+30E4_U+30FC 1
 62
    12
420
 15007761
370
    35
100
AcDbVertex
100
AcDb2dVertex
 10
54.48361831840073
 20
-130.4313343198606
 30
0.0
  0
VERTEX
  5
EF
330
D9
100
AcDbEntity
  8
_U+30EC_U+30A4_U+30E4_U+30FC 1
 62
    12
420
 15007761
370
    35
100
AcDbVertex
100
AcDb2dVertex
 10
54.6573825187934
 20
-133.2523894635391
 30
0.0
  0
VERTEX
  5
F0
330
D9
100
AcDbEntity
  8
_U+30EC_U+30A4_U+30E4_U+30FC 1
 62
    12
420
 15007761
370
    35
100
AcDbVertex
100
AcDb2dVertex
 10
54.8992140775691
 20
-135.952412803134
 30
0.0
  0
VERTEX
  5
F1
330
D9
100
AcDbEntity
  8
_U+30EC_U+30A4_U+30E4_U+30FC 1
 62
    12
420
 15007761
370
    35
100
AcDbVertex
100
AcDb2dVertex
 10
55.20907986693599
 20
-138.5042001181625
 30
0.0
  0
VERTEX
  5
F2
330
D9
100
AcDbEntity
  8
_U+30EC_U+30A4_U+30E4_U+30FC 1
 62
    12
420
 15007761
370
    35
100
AcDbVertex
100
AcDb2dVertex
 10
55.58933383620042
 20
-140.8835781263667
 30
0.0
  0
VERTEX
  5
F3
330
D9
100
AcDbEntity
  8
_U+30EC_U+30A4_U+30E4_U+30FC 1
 62
    12
420
 15007761
370
    35
100
AcDbVertex
100
AcDb2dVertex
 10
56.04418089289083
 20
-143.0692336255117
 30
0.0
  0
VERTEX
  5
F4
330
D9
100
AcDbEntity
  8
_U+30EC_U+30A4_U+30E4_U+30FC 1
 62
    12
420
 15007761
370
    35
100
AcDbVertex
100
AcDb2dVertex
 10
56.57917252889135
 20
-145.0426055111847
 30
0.0
  0
VERTEX
  5
F5
330
D9
100
AcDbEntity
  8
_U+30EC_U+30A4_U+30E4_U+30FC 1
 62
    12
420
 15007761
370
    35
100
AcDbVertex
100
AcDb2dVertex
 10
57.20071786078731
 20
-146.7877950384262
 30
0.0
  0
VERTEX
  5
F6
330
D9
100
AcDbEntity
  8
_U+30EC_U+30A4_U+30E4_U+30FC 1
 62
    12
420
 15007761
370
    35
100
AcDbVertex
100
AcDb2dVertex
 10
57.91559655856987
 20
-148.2914695817108
 30
0.0
  0
VERTEX
  5
F7
330
D9
100
AcDbEntity
  8
_U+30EC_U+30A4_U+30E4_U+30FC 1
 62
    12
420
 15007761
370
    35
100
AcDbVertex
100
AcDb2dVertex
 10
58.73044049402191
 20
-149.542804451741
 30
0.0
  0
VERTEX
  5
F8
330
D9
100
AcDbEntity
  8
_U+30EC_U+30A4_U+30E4_U+30FC 1
 62
    12
420
 15007761
370
    35
100
AcDbVertex
100
AcDb2dVertex
 10
59.65117358521988
 20
-150.5334842270036
 30
0.0
  0
SEQEND
  5
F9
330
D9
100
AcDbEntity
  8
_U+30EC_U+30A4_U+30E4_U+30FC 1
 62
    12
420
 15007761
370
    35
  0
ENDBLK
  5
D8
330
D5
100
AcDbEntity
  8
0
100
AcDbBlockEnd
  0
BLOCK
  5
FC
330
FA
100
AcDbEntity
  8
0
100
AcDbBlockBegin
  2
block 25
 70
     0
 10
0.0
 20
0.0
 30
0.0
  3
block 25
  1

  0
SPLINE
  5
FE
330
FA
100
AcDbEntity
  8
_U+30EC_U+30A4_U+30E4_U+30FC 1
 62
    12
420
 15007761
370
    35
100
AcDbSpline
210
0.0
220
0.0
230
1.0
 70
    11
 71
     3
 72
    20
 73
    16
 74
     0
 42
0.0000000001
 43
0.0000000001
 12
1.0
 22
0.0
 32
0.0
 13
1.0
 23
0.0
 33
0.0
 40
0.0
 40
0.0
 40
0.0
 40
0.0
 40
1.0
 40
1.0
 40
1.0
 40
2.0
 40
2.0
 40
2.0
 40
3.0
 40
3.0
 40
3.0
 40
4.0
 40
4.0
 40
4.0
 40
5.0
 40
5.0
 40
5.0
 40
5.0
 10
106.6511735852305
 20
-105.0334842270133
 30
0.0
 10
106.6511735852305
 20
-104.2050571022671
 30
0.0
 10
107.3227464604845
 20
-103.5334842270135
 30
0.0
 10
108.1511735852306
 20
-103.5334842270135
 30
0.0
 10
108.979600709977
 20
-103.5334842270135
 30
0.0
 10
109.6511735852306
 20
-104.2050571022671
 30
0.0
 10
109.6511735852306
 20
-105.0334842270133
 30
0.0
 10
109.6511735852306
 20
-105.8619113517594
 30
0.0
 10
108.979600709977
 20
-106.5334842270136
 30
0.0
 10
108.1511735852306
 20
-106.5334842270136
 30
0.0
 10
107.3227464604845
 20
-106.5334842270136
 30
0.0
 10
106.6511735852305
 20
-105.8619113517594
 30
0.0
 10
106.6511735852305
 20
-105.0334842270133
 30
0.0
 10
106.6511735852305
 20
-105.0334842270133
 30
0.0
 10
106.6511735852305
 20
-105.0334842270133
 30
0.0
 10
106.6511735852305
 20
-105.0334842270133
 30
0.0
  0
ENDBLK
  5
FD
330
FA
100
AcDbEntity
  8
0
100
AcDbBlockEnd
  0
BLOCK
  5
101
330
FF
100
AcDbEntity
  8
0
100
AcDbBlockBegin
  2
block 26
 70
     0
 10
0.0
 20
0.0
 30
0.0
  3
block 26
  1

  0
SPLINE
  5
103
330
FF
100
AcDbEntity
  8
_U+30EC_U+30A4_U+30E4_U+30FC 1
 62
    12
420
 15007761
370
    35
100
AcDbSpline
210
0.0
220
0.0
230
1.0
 70
    11
 71
     3
 72
    20
 73
    16
 74
     0
 42
0.0000000001
 43
0.0000000001
 12
1.0
 22
0.0
 32
0.0
 13
1.0
 23
0.0
 33
0.0
 40
0.0
 40
0.0
 40
0.0
 40
0.0
 40
1.0
 40
1.0
 40
1.0
 40
2.0
 40
2.0
 40
2.0
 40
3.0
 40
3.0
 40
3.0
 40
4.0
 40
4.0
 40
4.0
 40
5.0
 40
5.0
 40
5.0
 40
5.0
 10
106.6480105348979
 20
-119.0334856562835
 30
0.0
 10
106.6480105348979
 20
-118.2050585315374
 30
0.0
 10
107.3195834101518
 20
-117.5334856562831
 30
0.0
 10
108.1480105348979
 20
-117.5334856562831
 30
0.0
 10
108.976437659644
 20
-117.5334856562831
 30
0.0
 10
109.648010534898
 20
-118.2050585315374
 30
0.0
 10
109.648010534898
 20
-119.0334856562835
 30
0.0
 10
109.648010534898
 20
-119.8619127810296
 30
0.0
 10
108.976437659644
 20
-120.5334856562832
 30
0.0
 10
108.1480105348979
 20
-120.5334856562832
 30
0.0
 10
107.3195834101518
 20
-120.5334856562832
 30
0.0
 10
106.6480105348979
 20
-119.8619127810296
 30
0.0
 10
106.6480105348979
 20
-119.0334856562835
 30
0.0
 10
106.6480105348979
 20
-119.0334856562835
 30
0.0
 10
106.6480105348979
 20
-119.0334856562835
 30
0.0
 10
106.6480105348979
 20
-119.0334856562835
 30
0.0
  0
ENDBLK
  5
102
330
FF
100
AcDbEntity
  8
0
100
AcDbBlockEnd
  0
BLOCK
  5
106
330
104
100
AcDbEntity
  8
0
100
AcDbBlockBegin
  2
block 27
 70
     0
 10
0.0
 20
0.0
 30
0.0
  3
block 27
  1

  0
POLYLINE
  5
108
330
104
100
AcDbEntity
  8
_U+30EC_U+30A4_U+30E4_U+30FC 1
 62
    12
420
 15007761
370
    35
100
AcDb2dPolyline
 66
     1
 10
0.0
 20
0.0
 30
0.0
  0
VERTEX
  5
109
330
108
100
AcDbEntity
  8
_U+30EC_U+30A4_U+30E4_U+30FC 1
 62
    12
420
 15007761
370
    35
100
AcDbVertex
100
AcDb2dVertex
 10
99.6511735852306
 20
-150.5334842270132
 30
0.0
  0
VERTEX
  5
10A
330
108
100
AcDbEntity
  8
_U+30EC_U+30A4_U+30E4_U+30FC 1
 62
    12
420
 15007761
370
    35
100
AcDbVertex
100
AcDb2dVertex
 10
108.3110811565962
 20
-150.5334842270132
 30
0.0
  0
SEQEND
  5
10B
330
108
100
AcDbEntity
  8
_U+30EC_U+30A4_U+30E4_U+30FC 1
 62
    12
420
 15007761
370
    35
  0
ENDBLK
  5
107
330
104
100
AcDbEntity
  8
0
100
AcDbBlockEnd
  0
BLOCK
  5
10E
330
10C
100
AcDbEntity
  8
0
100
AcDbBlockBegin
  2
block 28
 70
     0
 10
0.0
 20
0.0
 30
0.0
  3
block 28
  1

  0
POLYLINE
  5
110
330
10C
100
AcDbEntity
  8
_U+30EC_U+30A4_U+30E4_U+30FC 1
 62
    12
420
 15007761
370
    35
100
AcDb2dPolyline
 66
     1
 10
0.0
 20
0.0
 30
0.0
  0
VERTEX
  5
111
330
110
100
AcDbEntity
  8
_U+30EC_U+30A4_U+30E4_U+30FC 1
 62
    12
420
 15007761
370
    35
100
AcDbVertex
100
AcDb2dVertex
 10
124.6511735852305
 20
-100.5334842270134
 30
0.0
  0
VERTEX
  5
112
330
110
100
AcDbEntity
  8
_U+30EC_U+30A4_U+30E4_U+30FC 1
 62
    12
420
 15007761
370
    35
100
AcDbVertex
100
AcDb2dVertex
 10
121.3394633525021
 20
-98.97147524723485
 30
0.0
  0
VERTEX
  5
113
330
110
100
AcDbEntity
  8
_U+30EC_U+30A4_U+30E4_U+30FC 1
 62
    12
420
 15007761
370
    35
100
AcDbVertex
100
AcDb2dVertex
 10
118.2263013668369
 20
-97.73340653574186
 30
0.0
  0
VERTEX
  5
114
330
110
100
AcDbEntity
  8
_U+30EC_U+30A4_U+30E4_U+30FC 1
 62
    12
420
 15007761
370
    35
100
AcDbVertex
100
AcDb2dVertex
 10
115.3124059937537
 20
-96.82029251038477
 30
0.0
  0
VERTEX
  5
115
330
110
100
AcDbEntity
  8
_U+30EC_U+30A4_U+30E4_U+30FC 1
 62
    12
420
 15007761
370
    35
100
AcDbVertex
100
AcDb2dVertex
 10
112.5987115614469
 20
-96.2332467943879
 30
0.0
  0
VERTEX
  5
116
330
110
100
AcDbEntity
  8
_U+30EC_U+30A4_U+30E4_U+30FC 1
 62
    12
420
 15007761
370
    35
100
AcDbVertex
100
AcDb2dVertex
 10
110.08613743169
 20
-95.97297866546408
 30
0.0
  0
VERTEX
  5
117
330
110
100
AcDbEntity
  8
_U+30EC_U+30A4_U+30E4_U+30FC 1
 62
    12
420
 15007761
370
    35
100
AcDbVertex
100
AcDb2dVertex
 10
107.7753419622763
 20
-96.0392630044889
 30
0.0
  0
VERTEX
  5
118
330
110
100
AcDbEntity
  8
_U+30EC_U+30A4_U+30E4_U+30FC 1
 62
    12
420
 15007761
370
    35
100
AcDbVertex
100
AcDb2dVertex
 10
105.6664510285588
 20
-96.4303651705853
 30
0.0
  0
VERTEX
  5
119
330
110
100
AcDbEntity
  8
_U+30EC_U+30A4_U+30E4_U+30FC 1
 62
    12
420
 15007761
370
    35
100
AcDbVertex
100
AcDb2dVertex
 10
103.7587883041041
 20
-97.14246911818596
 30
0.0
  0
VERTEX
  5
11A
330
110
100
AcDbEntity
  8
_U+30EC_U+30A4_U+30E4_U+30FC 1
 62
    12
420
 15007761
370
    35
100
AcDbVertex
100
AcDb2dVertex
 10
102.0506143395812
 20
-98.169121200499
 30
0.0
  0
VERTEX
  5
11B
330
110
100
AcDbEntity
  8
_U+30EC_U+30A4_U+30E4_U+30FC 1
 62
    12
420
 15007761
370
    35
100
AcDbVertex
100
AcDb2dVertex
 10
100.538809650022
 20
-99.50057367739153
 30
0.0
  0
VERTEX
  5
11C
330
110
100
AcDbEntity
  8
_U+30EC_U+30A4_U+30E4_U+30FC 1
 62
    12
420
 15007761
370
    35
100
AcDbVertex
100
AcDb2dVertex
 10
99.21849657944358
 20
-101.1230184619297
 30
0.0
  0
VERTEX
  5
11D
330
110
100
AcDbEntity
  8
_U+30EC_U+30A4_U+30E4_U+30FC 1
 62
    12
420
 15007761
370
    35
100
AcDbVertex
100
AcDb2dVertex
 10
98.08281624419735
 20
-103.0180976080475
 30
0.0
  0
VERTEX
  5
11E
330
110
100
AcDbEntity
  8
_U+30EC_U+30A4_U+30E4_U+30FC 1
 62
    12
420
 15007761
370
    35
100
AcDbVertex
100
AcDb2dVertex
 10
97.12293998122549
 20
-105.1628323210108
 30
0.0
  0
VERTEX
  5
11F
330
110
100
AcDbEntity
  8
_U+30EC_U+30A4_U+30E4_U+30FC 1
 62
    12
420
 15007761
370
    35
100
AcDbVertex
100
AcDb2dVertex
 10
96.32835897466073
 20
-107.5300478425127
 30
0.0
  0
VERTEX
  5
120
330
110
100
AcDbEntity
  8
_U+30EC_U+30A4_U+30E4_U+30FC 1
 62
    12
420
 15007761
370
    35
100
AcDbVertex
100
AcDb2dVertex
 10
95.6874056200287
 20
-110.0892115399667
 30
0.0
  0
VERTEX
  5
121
330
110
100
AcDbEntity
  8
_U+30EC_U+30A4_U+30E4_U+30FC 1
 62
    12
420
 15007761
370
    35
100
AcDbVertex
100
AcDb2dVertex
 10
95.18772744194544
 20
-112.8071876026652
 30
0.0
  0
VERTEX
  5
122
330
110
100
AcDbEntity
  8
_U+30EC_U+30A4_U+30E4_U+30FC 1
 62
    12
420
 15007761
370
    35
100
AcDbVertex
100
AcDb2dVertex
 10
94.8166953127278
 20
-115.6488750874996
 30
0.0
  0
VERTEX
  5
123
330
110
100
AcDbEntity
  8
_U+30EC_U+30A4_U+30E4_U+30FC 1
 62
    12
420
 15007761
370
    35
100
AcDbVertex
100
AcDb2dVertex
 10
94.56182901629435
 20
-118.5778741804607
 30
0.0
  0
VERTEX
  5
124
330
110
100
AcDbEntity
  8
_U+30EC_U+30A4_U+30E4_U+30FC 1
 62
    12
420
 15007761
370
    35
100
AcDbVertex
100
AcDb2dVertex
 10
94.35402200790685
 20
-124.5498136624085
 30
0.0
  0
VERTEX
  5
125
330
110
100
AcDbEntity
  8
_U+30EC_U+30A4_U+30E4_U+30FC 1
 62
    12
420
 15007761
370
    35
100
AcDbVertex
100
AcDb2dVertex
 10
94.48361831840086
 20
-130.4313343198606
 30
0.0
  0
VERTEX
  5
126
330
110
100
AcDbEntity
  8
_U+30EC_U+30A4_U+30E4_U+30FC 1
 62
    12
420
 15007761
370
    35
100
AcDbVertex
100
AcDb2dVertex
 10
94.65738251879353
 20
-133.2523894635391
 30
0.0
  0
VERTEX
  5
127
330
110
100
AcDbEntity
  8
_U+30EC_U+30A4_U+30E4_U+30FC 1
 62
    12
420
 15007761
370
    35
100
AcDbVertex
100
AcDb2dVertex
 10
94.89921407756923
 20
-135.952412803134
 30
0.0
  0
VERTEX
  5
128
330
110
100
AcDbEntity
  8
_U+30EC_U+30A4_U+30E4_U+30FC 1
 62
    12
420
 15007761
370
    35
100
AcDbVertex
100
AcDb2dVertex
 10
95.20907986693581
 20
-138.5042001181625
 30
0.0
  0
VERTEX
  5
129
330
110
100
AcDbEntity
  8
_U+30EC_U+30A4_U+30E4_U+30FC 1
 62
    12
420
 15007761
370
    35
100
AcDbVertex
100
AcDb2dVertex
 10
95.58933383620055
 20
-140.8835781263667
 30
0.0
  0
VERTEX
  5
12A
330
110
100
AcDbEntity
  8
_U+30EC_U+30A4_U+30E4_U+30FC 1
 62
    12
420
 15007761
370
    35
100
AcDbVertex
100
AcDb2dVertex
 10
96.04418089289095
 20
-143.0692336255117
 30
0.0
  0
VERTEX
  5
12B
330
110
100
AcDbEntity
  8
_U+30EC_U+30A4_U+30E4_U+30FC 1
 62
    12
420
 15007761
370
    35
100
AcDbVertex
100
AcDb2dVertex
 10
96.57917252889148
 20
-145.0426055111847
 30
0.0
  0
VERTEX
  5
12C
330
110
100
AcDbEntity
  8
_U+30EC_U+30A4_U+30E4_U+30FC 1
 62
    12
420
 15007761
370
    35
100
AcDbVertex
100
AcDb2dVertex
 10
97.20071786078744
 20
-146.7877950384262
 30
0.0
  0
VERTEX
  5
12D
330
110
100
AcDbEntity
  8
_U+30EC_U+30A4_U+30E4_U+30FC 1
 62
    12
420
 15007761
370
    35
100
AcDbVertex
100
AcDb2dVertex
 10
97.91559655856967
 20
-148.2914695817108
 30
0.0
  0
VERTEX
  5
12E
330
110
100
AcDbEntity
  8
_U+30EC_U+30A4_U+30E4_U+30FC 1
 62
    12
420
 15007761
370
    35
100
AcDbVertex
100
AcDb2dVertex
 10
98.7304404940217
 20
-149.542804451741
 30
0.0
  0
VERTEX
  5
12F
330
110
100
AcDbEntity
  8
_U+30EC_U+30A4_U+30E4_U+30FC 1
 62
    12
420
 15007761
370
    35
100
AcDbVertex
100
AcDb2dVertex
 10
99.65117358522001
 20
-150.5334842270036
 30
0.0
  0
SEQEND
  5
130
330
110
100
AcDbEntity
  8
_U+30EC_U+30A4_U+30E4_U+30FC 1
 62
    12
420
 15007761
370
    35
  0
ENDBLK
  5
10F
330
10C
100
AcDbEntity
  8
0
100
AcDbBlockEnd
  0
BLOCK
  5
133
330
131
100
AcDbEntity
  8
0
100
AcDbBlockBegin
  2
block 29
 70
     0
 10
0.0
 20
0.0
 30
0.0
  3
block 29
  1

  0
SPLINE
  5
135
330
131
100
AcDbEntity
  8
_U+30EC_U+30A4_U+30E4_U+30FC 1
 62
    12
420
 15007761
370
    35
100
AcDbSpline
210
0.0
220
0.0
230
1.0
 70
    11
 71
     3
 72
    20
 73
    16
 74
     0
 42
0.0000000001
 43
0.0000000001
 12
1.0
 22
0.0
 32
0.0
 13
1.0
 23
0.0
 33
0.0
 40
0.0
 40
0.0
 40
0.0
 40
0.0
 40
1.0
 40
1.0
 40
1.0
 40
2.0
 40
2.0
 40
2.0
 40
3.0
 40
3.0
 40
3.0
 40
4.0
 40
4.0
 40
4.0
 40
5.0
 40
5.0
 40
5.0
 40
5.0
 10
146.6511735852307
 20
-105.0334842270133
 30
0.0
 10
146.6511735852307
 20
-104.2050571022671
 30
0.0
 10
147.3227464604843
 20
-103.5334842270135
 30
0.0
 10
148.1511735852304
 20
-103.5334842270135
 30
0.0
 10
148.9796007099771
 20
-103.5334842270135
 30
0.0
 10
149.6511735852308
 20
-104.2050571022671
 30
0.0
 10
149.6511735852308
 20
-105.0334842270133
 30
0.0
 10
149.6511735852308
 20
-105.8619113517594
 30
0.0
 10
148.9796007099771
 20
-106.5334842270136
 30
0.0
 10
148.1511735852304
 20
-106.5334842270136
 30
0.0
 10
147.3227464604843
 20
-106.5334842270136
 30
0.0
 10
146.6511735852307
 20
-105.8619113517594
 30
0.0
 10
146.6511735852307
 20
-105.0334842270133
 30
0.0
 10
146.6511735852307
 20
-105.0334842270133
 30
0.0
 10
146.6511735852307
 20
-105.0334842270133
 30
0.0
 10
146.6511735852307
 20
-105.0334842270133
 30
0.0
  0
ENDBLK
  5
134
330
131
100
AcDbEntity
  8
0
100
AcDbBlockEnd
  0
BLOCK
  5
138
330
136
100
AcDbEntity
  8
0
100
AcDbBlockBegin
  2
block 30
 70
     0
 10
0.0
 20
0.0
 30
0.0
  3
block 30
  1

  0
SPLINE
  5
13A
330
136
100
AcDbEntity
  8
_U+30EC_U+30A4_U+30E4_U+30FC 1
 62
    12
420
 15007761
370
    35
100
AcDbSpline
210
0.0
220
0.0
230
1.0
 70
    11
 71
     3
 72
    20
 73
    16
 74
     0
 42
0.0000000001
 43
0.0000000001
 12
1.0
 22
0.0
 32
0.0
 13
1.0
 23
0.0
 33
0.0
 40
0.0
 40
0.0
 40
0.0
 40
0.0
 40
1.0
 40
1.0
 40
1.0
 40
2.0
 40
2.0
 40
2.0
 40
3.0
 40
3.0
 40
3.0
 40
4.0
 40
4.0
 40
4.0
 40
5.0
 40
5.0
 40
5.0
 40
5.0
 10
146.6480105348977
 20
-119.0334856562835
 30
0.0
 10
146.6480105348977
 20
-118.2050585315374
 30
0.0
 10
147.3195834101519
 20
-117.5334856562831
 30
0.0
 10
148.148010534898
 20
-117.5334856562831
 30
0.0
 10
148.9764376596442
 20
-117.5334856562831
 30
0.0
 10
149.6480105348978
 20
-118.2050585315374
 30
0.0
 10
149.6480105348978
 20
-119.0334856562835
 30
0.0
 10
149.6480105348978
 20
-119.8619127810296
 30
0.0
 10
148.9764376596442
 20
-120.5334856562832
 30
0.0
 10
148.148010534898
 20
-120.5334856562832
 30
0.0
 10
147.3195834101519
 20
-120.5334856562832
 30
0.0
 10
146.6480105348977
 20
-119.8619127810296
 30
0.0
 10
146.6480105348977
 20
-119.0334856562835
 30
0.0
 10
146.6480105348977
 20
-119.0334856562835
 30
0.0
 10
146.6480105348977
 20
-119.0334856562835
 30
0.0
 10
146.6480105348977
 20
-119.0334856562835
 30
0.0
  0
ENDBLK
  5
139
330
136
100
AcDbEntity
  8
0
100
AcDbBlockEnd
  0
BLOCK
  5
13D
330
13B
100
AcDbEntity
  8
0
100
AcDbBlockBegin
  2
block 31
 70
     0
 10
0.0
 20
0.0
 30
0.0
  3
block 31
  1

  0
POLYLINE
  5
13F
330
13B
100
AcDbEntity
  8
_U+30EC_U+30A4_U+30E4_U+30FC 1
 62
    12
420
 15007761
370
    35
100
AcDb2dPolyline
 66
     1
 10
0.0
 20
0.0
 30
0.0
  0
VERTEX
  5
140
330
13F
100
AcDbEntity
  8
_U+30EC_U+30A4_U+30E4_U+30FC 1
 62
    12
420
 15007761
370
    35
100
AcDbVertex
100
AcDb2dVertex
 10
139.6511735852304
 20
-150.5334842270132
 30
0.0
  0
VERTEX
  5
141
330
13F
100
AcDbEntity
  8
_U+30EC_U+30A4_U+30E4_U+30FC 1
 62
    12
420
 15007761
370
    35
100
AcDbVertex
100
AcDb2dVertex
 10
148.311081156596
 20
-150.5334842270132
 30
0.0
  0
SEQEND
  5
142
330
13F
100
AcDbEntity
  8
_U+30EC_U+30A4_U+30E4_U+30FC 1
 62
    12
420
 15007761
370
    35
  0
ENDBLK
  5
13E
330
13B
100
AcDbEntity
  8
0
100
AcDbBlockEnd
  0
BLOCK
  5
145
330
143
100
AcDbEntity
  8
0
100
AcDbBlockBegin
  2
block 32
 70
     0
 10
0.0
 20
0.0
 30
0.0
  3
block 32
  1

  0
POLYLINE
  5
147
330
143
100
AcDbEntity
  8
_U+30EC_U+30A4_U+30E4_U+30FC 1
 62
    12
420
 15007761
370
    35
100
AcDb2dPolyline
 66
     1
 10
0.0
 20
0.0
 30
0.0
  0
VERTEX
  5
148
330
147
100
AcDbEntity
  8
_U+30EC_U+30A4_U+30E4_U+30FC 1
 62
    12
420
 15007761
370
    35
100
AcDbVertex
100
AcDb2dVertex
 10
164.6511735852307
 20
-100.5334842270134
 30
0.0
  0
VERTEX
  5
149
330
147
100
AcDbEntity
  8
_U+30EC_U+30A4_U+30E4_U+30FC 1
 62
    12
420
 15007761
370
    35
100
AcDbVertex
100
AcDb2dVertex
 10
161.339463352502
 20
-98.97147524723485
 30
0.0
  0
VERTEX
  5
14A
330
147
100
AcDbEntity
  8
_U+30EC_U+30A4_U+30E4_U+30FC 1
 62
    12
420
 15007761
370
    35
100
AcDbVertex
100
AcDb2dVertex
 10
158.226301366837
 20
-97.73340653574186
 30
0.0
  0
VERTEX
  5
14B
330
147
100
AcDbEntity
  8
_U+30EC_U+30A4_U+30E4_U+30FC 1
 62
    12
420
 15007761
370
    35
100
AcDbVertex
100
AcDb2dVertex
 10
155.3124059937535
 20
-96.82029251038477
 30
0.0
  0
VERTEX
  5
14C
330
147
100
AcDbEntity
  8
_U+30EC_U+30A4_U+30E4_U+30FC 1
 62
    12
420
 15007761
370
    35
100
AcDbVertex
100
AcDb2dVertex
 10
152.5987115614473
 20
-96.2332467943879
 30
0.0
  0
VERTEX
  5
14D
330
147
100
AcDbEntity
  8
_U+30EC_U+30A4_U+30E4_U+30FC 1
 62
    12
420
 15007761
370
    35
100
AcDbVertex
100
AcDb2dVertex
 10
150.0861374316901
 20
-95.97297866546408
 30
0.0
  0
VERTEX
  5
14E
330
147
100
AcDbEntity
  8
_U+30EC_U+30A4_U+30E4_U+30FC 1
 62
    12
420
 15007761
370
    35
100
AcDbVertex
100
AcDb2dVertex
 10
147.7753419622761
 20
-96.0392630044889
 30
0.0
  0
VERTEX
  5
14F
330
147
100
AcDbEntity
  8
_U+30EC_U+30A4_U+30E4_U+30FC 1
 62
    12
420
 15007761
370
    35
100
AcDbVertex
100
AcDb2dVertex
 10
145.6664510285589
 20
-96.4303651705853
 30
0.0
  0
VERTEX
  5
150
330
147
100
AcDbEntity
  8
_U+30EC_U+30A4_U+30E4_U+30FC 1
 62
    12
420
 15007761
370
    35
100
AcDbVertex
100
AcDb2dVertex
 10
143.7587883041043
 20
-97.14246911818596
 30
0.0
  0
VERTEX
  5
151
330
147
100
AcDbEntity
  8
_U+30EC_U+30A4_U+30E4_U+30FC 1
 62
    12
420
 15007761
370
    35
100
AcDbVertex
100
AcDb2dVertex
 10
142.050614339581
 20
-98.169121200499
 30
0.0
  0
VERTEX
  5
152
330
147
100
AcDbEntity
  8
_U+30EC_U+30A4_U+30E4_U+30FC 1
 62
    12
420
 15007761
370
    35
100
AcDbVertex
100
AcDb2dVertex
 10
140.5388096500218
 20
-99.50057367739153
 30
0.0
  0
VERTEX
  5
153
330
147
100
AcDbEntity
  8
_U+30EC_U+30A4_U+30E4_U+30FC 1
 62
    12
420
 15007761
370
    35
100
AcDbVertex
100
AcDb2dVertex
 10
139.2184965794437
 20
-101.1230184619297
 30
0.0
  0
VERTEX
  5
154
330
147
100
AcDbEntity
  8
_U+30EC_U+30A4_U+30E4_U+30FC 1
 62
    12
420
 15007761
370
    35
100
AcDbVertex
100
AcDb2dVertex
 10
138.0828162441975
 20
-103.0180976080475
 30
0.0
  0
VERTEX
  5
155
330
147
100
AcDbEntity
  8
_U+30EC_U+30A4_U+30E4_U+30FC 1
 62
    12
420
 15007761
370
    35
100
AcDbVertex
100
AcDb2dVertex
 10
137.1229399812253
 20
-105.1628323210108
 30
0.0
  0
VERTEX
  5
156
330
147
100
AcDbEntity
  8
_U+30EC_U+30A4_U+30E4_U+30FC 1
 62
    12
420
 15007761
370
    35
100
AcDbVertex
100
AcDb2dVertex
 10
136.3283589746609
 20
-107.5300478425127
 30
0.0
  0
VERTEX
  5
157
330
147
100
AcDbEntity
  8
_U+30EC_U+30A4_U+30E4_U+30FC 1
 62
    12
420
 15007761
370
    35
100
AcDbVertex
100
AcDb2dVertex
 10
135.6874056200288
 20
-110.0892115399667
 30
0.0
  0
VERTEX
  5
158
330
147
100
AcDbEntity
  8
_U+30EC_U+30A4_U+30E4_U+30FC 1
 62
    12
420
 15007761
370
    35
100
AcDbVertex
100
AcDb2dVertex
 10
135.1877274419452
 20
-112.8071876026652
 30
0.0
  0
VERTEX
  5
159
330
147
100
AcDbEntity
  8
_U+30EC_U+30A4_U+30E4_U+30FC 1
 62
    12
420
 15007761
370
    35
100
AcDbVertex
100
AcDb2dVertex
 10
134.8166953127283
 20
-115.6488750874996
 30
0.0
  0
VERTEX
  5
15A
330
147
100
AcDbEntity
  8
_U+30EC_U+30A4_U+30E4_U+30FC 1
 62
    12
420
 15007761
370
    35
100
AcDbVertex
100
AcDb2dVertex
 10
134.5618290162948
 20
-118.5778741804607
 30
0.0
  0
VERTEX
  5
15B
330
147
100
AcDbEntity
  8
_U+30EC_U+30A4_U+30E4_U+30FC 1
 62
    12
420
 15007761
370
    35
100
AcDbVertex
100
AcDb2dVertex
 10
134.354022007907
 20
-124.5498136624085
 30
0.0
  0
VERTEX
  5
15C
330
147
100
AcDbEntity
  8
_U+30EC_U+30A4_U+30E4_U+30FC 1
 62
    12
420
 15007761
370
    35
100
AcDbVertex
100
AcDb2dVertex
 10
134.483618318401
 20
-130.4313343198606
 30
0.0
  0
VERTEX
  5
15D
330
147
100
AcDbEntity
  8
_U+30EC_U+30A4_U+30E4_U+30FC 1
 62
    12
420
 15007761
370
    35
100
AcDbVertex
100
AcDb2dVertex
 10
134.6573825187937
 20
-133.2523894635391
 30
0.0
  0
VERTEX
  5
15E
330
147
100
AcDbEntity
  8
_U+30EC_U+30A4_U+30E4_U+30FC 1
 62
    12
420
 15007761
370
    35
100
AcDbVertex
100
AcDb2dVertex
 10
134.899214077569
 20
-135.952412803134
 30
0.0
  0
VERTEX
  5
15F
330
147
100
AcDbEntity
  8
_U+30EC_U+30A4_U+30E4_U+30FC 1
 62
    12
420
 15007761
370
    35
100
AcDbVertex
100
AcDb2dVertex
 10
135.2090798669359
 20
-138.5042001181625
 30
0.0
  0
VERTEX
  5
160
330
147
100
AcDbEntity
  8
_U+30EC_U+30A4_U+30E4_U+30FC 1
 62
    12
420
 15007761
370
    35
100
AcDbVertex
100
AcDb2dVertex
 10
135.5893338362004
 20
-140.8835781263667
 30
0.0
  0
VERTEX
  5
161
330
147
100
AcDbEntity
  8
_U+30EC_U+30A4_U+30E4_U+30FC 1
 62
    12
420
 15007761
370
    35
100
AcDbVertex
100
AcDb2dVertex
 10
136.0441808928911
 20
-143.0692336255117
 30
0.0
  0
VERTEX
  5
162
330
147
100
AcDbEntity
  8
_U+30EC_U+30A4_U+30E4_U+30FC 1
 62
    12
420
 15007761
370
    35
100
AcDbVertex
100
AcDb2dVertex
 10
136.5791725288913
 20
-145.0426055111847
 30
0.0
  0
VERTEX
  5
163
330
147
100
AcDbEntity
  8
_U+30EC_U+30A4_U+30E4_U+30FC 1
 62
    12
420
 15007761
370
    35
100
AcDbVertex
100
AcDb2dVertex
 10
137.2007178607876
 20
-146.7877950384262
 30
0.0
  0
VERTEX
  5
164
330
147
100
AcDbEntity
  8
_U+30EC_U+30A4_U+30E4_U+30FC 1
 62
    12
420
 15007761
370
    35
100
AcDbVertex
100
AcDb2dVertex
 10
137.9155965585698
 20
-148.2914695817108
 30
0.0
  0
VERTEX
  5
165
330
147
100
AcDbEntity
  8
_U+30EC_U+30A4_U+30E4_U+30FC 1
 62
    12
420
 15007761
370
    35
100
AcDbVertex
100
AcDb2dVertex
 10
138.7304404940215
 20
-149.542804451741
 30
0.0
  0
VERTEX
  5
166
330
147
100
AcDbEntity
  8
_U+30EC_U+30A4_U+30E4_U+30FC 1
 62
    12
420
 15007761
370
    35
100
AcDbVertex
100
AcDb2dVertex
 10
139.6511735852201
 20
-150.5334842270036
 30
0.0
  0
SEQEND
  5
167
330
147
100
AcDbEntity
  8
_U+30EC_U+30A4_U+30E4_U+30FC 1
 62
    12
420
 15007761
370
    35
  0
ENDBLK
  5
146
330
143
100
AcDbEntity
  8
0
100
AcDbBlockEnd
  0
BLOCK
  5
16A
330
168
100
AcDbEntity
  8
0
100
AcDbBlockBegin
  2
block 33
 70
     0
 10
0.0
 20
0.0
 30
0.0
  3
block 33
  1

  0
SPLINE
  5
16C
330
168
100
AcDbEntity
  8
_U+30EC_U+30A4_U+30E4_U+30FC 1
 62
    12
420
 15007761
370
    35
100
AcDbSpline
210
0.0
220
0.0
230
1.0
 70
    11
 71
     3
 72
    20
 73
    16
 74
     0
 42
0.0000000001
 43
0.0000000001
 12
1.0
 22
0.0
 32
0.0
 13
1.0
 23
0.0
 33
0.0
 40
0.0
 40
0.0
 40
0.0
 40
0.0
 40
1.0
 40
1.0
 40
1.0
 40
2.0
 40
2.0
 40
2.0
 40
3.0
 40
3.0
 40
3.0
 40
4.0
 40
4.0
 40
4.0
 40
5.0
 40
5.0
 40
5.0
 40
5.0
 10
186.6511735852308
 20
-105.0334842270133
 30
0.0
 10
186.6511735852308
 20
-104.2050571022671
 30
0.0
 10
187.3227464604844
 20
-103.5334842270135
 30
0.0
 10
188.1511735852305
 20
-103.5334842270135
 30
0.0
 10
188.9796007099766
 20
-103.5334842270135
 30
0.0
 10
189.6511735852309
 20
-104.2050571022671
 30
0.0
 10
189.6511735852309
 20
-105.0334842270133
 30
0.0
 10
189.6511735852309
 20
-105.8619113517594
 30
0.0
 10
188.9796007099766
 20
-106.5334842270136
 30
0.0
 10
188.1511735852305
 20
-106.5334842270136
 30
0.0
 10
187.3227464604844
 20
-106.5334842270136
 30
0.0
 10
186.6511735852308
 20
-105.8619113517594
 30
0.0
 10
186.6511735852308
 20
-105.0334842270133
 30
0.0
 10
186.6511735852308
 20
-105.0334842270133
 30
0.0
 10
186.6511735852308
 20
-105.0334842270133
 30
0.0
 10
186.6511735852308
 20
-105.0334842270133
 30
0.0
  0
ENDBLK
  5
16B
330
168
100
AcDbEntity
  8
0
100
AcDbBlockEnd
  0
BLOCK
  5
16F
330
16D
100
AcDbEntity
  8
0
100
AcDbBlockBegin
  2
block 34
 70
     0
 10
0.0
 20
0.0
 30
0.0
  3
block 34
  1

  0
SPLINE
  5
171
330
16D
100
AcDbEntity
  8
_U+30EC_U+30A4_U+30E4_U+30FC 1
 62
    12
420
 15007761
370
    35
100
AcDbSpline
210
0.0
220
0.0
230
1.0
 70
    11
 71
     3
 72
    20
 73
    16
 74
     0
 42
0.0000000001
 43
0.0000000001
 12
1.0
 22
0.0
 32
0.0
 13
1.0
 23
0.0
 33
0.0
 40
0.0
 40
0.0
 40
0.0
 40
0.0
 40
1.0
 40
1.0
 40
1.0
 40
2.0
 40
2.0
 40
2.0
 40
3.0
 40
3.0
 40
3.0
 40
4.0
 40
4.0
 40
4.0
 40
5.0
 40
5.0
 40
5.0
 40
5.0
 10
186.6480105348978
 20
-119.0334856562835
 30
0.0
 10
186.6480105348978
 20
-118.2050585315374
 30
0.0
 10
187.3195834101514
 20
-117.5334856562831
 30
0.0
 10
188.1480105348982
 20
-117.5334856562831
 30
0.0
 10
188.9764376596443
 20
-117.5334856562831
 30
0.0
 10
189.6480105348979
 20
-118.2050585315374
 30
0.0
 10
189.6480105348979
 20
-119.0334856562835
 30
0.0
 10
189.6480105348979
 20
-119.8619127810296
 30
0.0
 10
188.9764376596443
 20
-120.5334856562832
 30
0.0
 10
188.1480105348982
 20
-120.5334856562832
 30
0.0
 10
187.3195834101514
 20
-120.5334856562832
 30
0.0
 10
186.6480105348978
 20
-119.8619127810296
 30
0.0
 10
186.6480105348978
 20
-119.0334856562835
 30
0.0
 10
186.6480105348978
 20
-119.0334856562835
 30
0.0
 10
186.6480105348978
 20
-119.0334856562835
 30
0.0
 10
186.6480105348978
 20
-119.0334856562835
 30
0.0
  0
ENDBLK
  5
170
330
16D
100
AcDbEntity
  8
0
100
AcDbBlockEnd
  0
BLOCK
  5
174
330
172
100
AcDbEntity
  8
0
100
AcDbBlockBegin
  2
block 35
 70
     0
 10
0.0
 20
0.0
 30
0.0
  3
block 35
  1

  0
POLYLINE
  5
176
330
172
100
AcDbEntity
  8
_U+30EC_U+30A4_U+30E4_U+30FC 1
 62
    12
420
 15007761
370
    35
100
AcDb2dPolyline
 66
     1
 10
0.0
 20
0.0
 30
0.0
  0
VERTEX
  5
177
330
176
100
AcDbEntity
  8
_U+30EC_U+30A4_U+30E4_U+30FC 1
 62
    12
420
 15007761
370
    35
100
AcDbVertex
100
AcDb2dVertex
 10
179.6511735852305
 20
-150.5334842270132
 30
0.0
  0
VERTEX
  5
178
330
176
100
AcDbEntity
  8
_U+30EC_U+30A4_U+30E4_U+30FC 1
 62
    12
420
 15007761
370
    35
100
AcDbVertex
100
AcDb2dVertex
 10
188.3110811565961
 20
-150.5334842270132
 30
0.0
  0
SEQEND
  5
179
330
176
100
AcDbEntity
  8
_U+30EC_U+30A4_U+30E4_U+30FC 1
 62
    12
420
 15007761
370
    35
  0
ENDBLK
  5
175
330
172
100
AcDbEntity
  8
0
100
AcDbBlockEnd
  0
BLOCK
  5
17C
330
17A
100
AcDbEntity
  8
0
100
AcDbBlockBegin
  2
block 36
 70
     0
 10
0.0
 20
0.0
 30
0.0
  3
block 36
  1

  0
POLYLINE
  5
17E
330
17A
100
AcDbEntity
  8
_U+30EC_U+30A4_U+30E4_U+30FC 1
 62
    12
420
 15007761
370
    35
100
AcDb2dPolyline
 66
     1
 10
0.0
 20
0.0
 30
0.0
  0
VERTEX
  5
17F
330
17E
100
AcDbEntity
  8
_U+30EC_U+30A4_U+30E4_U+30FC 1
 62
    12
420
 15007761
370
    35
100
AcDbVertex
100
AcDb2dVertex
 10
204.6511735852308
 20
-100.5334842270134
 30
0.0
  0
VERTEX
  5
180
330
17E
100
AcDbEntity
  8
_U+30EC_U+30A4_U+30E4_U+30FC 1
 62
    12
420
 15007761
370
    35
100
AcDbVertex
100
AcDb2dVertex
 10
201.3394633525021
 20
-98.97147524723485
 30
0.0
  0
VERTEX
  5
181
330
17E
100
AcDbEntity
  8
_U+30EC_U+30A4_U+30E4_U+30FC 1
 62
    12
420
 15007761
370
    35
100
AcDbVertex
100
AcDb2dVertex
 10
198.2263013668372
 20
-97.73340653574186
 30
0.0
  0
VERTEX
  5
182
330
17E
100
AcDbEntity
  8
_U+30EC_U+30A4_U+30E4_U+30FC 1
 62
    12
420
 15007761
370
    35
100
AcDbVertex
100
AcDb2dVertex
 10
195.3124059937537
 20
-96.82029251038477
 30
0.0
  0
VERTEX
  5
183
330
17E
100
AcDbEntity
  8
_U+30EC_U+30A4_U+30E4_U+30FC 1
 62
    12
420
 15007761
370
    35
100
AcDbVertex
100
AcDb2dVertex
 10
192.5987115614468
 20
-96.2332467943879
 30
0.0
  0
VERTEX
  5
184
330
17E
100
AcDbEntity
  8
_U+30EC_U+30A4_U+30E4_U+30FC 1
 62
    12
420
 15007761
370
    35
100
AcDbVertex
100
AcDb2dVertex
 10
190.0861374316902
 20
-95.97297866546408
 30
0.0
  0
VERTEX
  5
185
330
17E
100
AcDbEntity
  8
_U+30EC_U+30A4_U+30E4_U+30FC 1
 62
    12
420
 15007761
370
    35
100
AcDbVertex
100
AcDb2dVertex
 10
187.7753419622765
 20
-96.0392630044889
 30
0.0
  0
VERTEX
  5
186
330
17E
100
AcDbEntity
  8
_U+30EC_U+30A4_U+30E4_U+30FC 1
 62
    12
420
 15007761
370
    35
100
AcDbVertex
100
AcDb2dVertex
 10
185.6664510285591
 20
-96.4303651705853
 30
0.0
  0
VERTEX
  5
187
330
17E
100
AcDbEntity
  8
_U+30EC_U+30A4_U+30E4_U+30FC 1
 62
    12
420
 15007761
370
    35
100
AcDbVertex
100
AcDb2dVertex
 10
183.7587883041044
 20
-97.14246911818596
 30
0.0
  0
VERTEX
  5
188
330
17E
100
AcDbEntity
  8
_U+30EC_U+30A4_U+30E4_U+30FC 1
 62
    12
420
 15007761
370
    35
100
AcDbVertex
100
AcDb2dVertex
 10
182.0506143395812
 20
-98.169121200499
 30
0.0
  0
VERTEX
  5
189
330
17E
100
AcDbEntity
  8
_U+30EC_U+30A4_U+30E4_U+30FC 1
 62
    12
420
 15007761
370
    35
100
AcDbVertex
100
AcDb2dVertex
 10
180.5388096500219
 20
-99.50057367739153
 30
0.0
  0
VERTEX
  5
18A
330
17E
100
AcDbEntity
  8
_U+30EC_U+30A4_U+30E4_U+30FC 1
 62
    12
420
 15007761
370
    35
100
AcDbVertex
100
AcDb2dVertex
 10
179.2184965794438
 20
-101.1230184619297
 30
0.0
  0
VERTEX
  5
18B
330
17E
100
AcDbEntity
  8
_U+30EC_U+30A4_U+30E4_U+30FC 1
 62
    12
420
 15007761
370
    35
100
AcDbVertex
100
AcDb2dVertex
 10
178.0828162441976
 20
-103.0180976080475
 30
0.0
  0
VERTEX
  5
18C
330
17E
100
AcDbEntity
  8
_U+30EC_U+30A4_U+30E4_U+30FC 1
 62
    12
420
 15007761
370
    35
100
AcDbVertex
100
AcDb2dVertex
 10
177.1229399812258
 20
-105.1628323210108
 30
0.0
  0
VERTEX
  5
18D
330
17E
100
AcDbEntity
  8
_U+30EC_U+30A4_U+30E4_U+30FC 1
 62
    12
420
 15007761
370
    35
100
AcDbVertex
100
AcDb2dVertex
 10
176.3283589746603
 20
-107.5300478425127
 30
0.0
  0
VERTEX
  5
18E
330
17E
100
AcDbEntity
  8
_U+30EC_U+30A4_U+30E4_U+30FC 1
 62
    12
420
 15007761
370
    35
100
AcDbVertex
100
AcDb2dVertex
 10
175.6874056200286
 20
-110.0892115399667
 30
0.0
  0
VERTEX
  5
18F
330
17E
100
AcDbEntity
  8
_U+30EC_U+30A4_U+30E4_U+30FC 1
 62
    12
420
 15007761
370
    35
100
AcDbVertex
100
AcDb2dVertex
 10
175.1877274419454
 20
-112.8071876026652
 30
0.0
  0
VERTEX
  5
190
330
17E
100
AcDbEntity
  8
_U+30EC_U+30A4_U+30E4_U+30FC 1
 62
    12
420
 15007761
370
    35
100
AcDbVertex
100
AcDb2dVertex
 10
174.8166953127281
 20
-115.6488750874996
 30
0.0
  0
VERTEX
  5
191
330
17E
100
AcDbEntity
  8
_U+30EC_U+30A4_U+30E4_U+30FC 1
 62
    12
420
 15007761
370
    35
100
AcDbVertex
100
AcDb2dVertex
 10
174.561829016294
 20
-118.5778741804607
 30
0.0
  0
VERTEX
  5
192
330
17E
100
AcDbEntity
  8
_U+30EC_U+30A4_U+30E4_U+30FC 1
 62
    12
420
 15007761
370
    35
100
AcDbVertex
100
AcDb2dVertex
 10
174.3540220079071
 20
-124.5498136624085
 30
0.0
  0
VERTEX
  5
193
330
17E
100
AcDbEntity
  8
_U+30EC_U+30A4_U+30E4_U+30FC 1
 62
    12
420
 15007761
370
    35
100
AcDbVertex
100
AcDb2dVertex
 10
174.4836183184005
 20
-130.4313343198606
 30
0.0
  0
VERTEX
  5
194
330
17E
100
AcDbEntity
  8
_U+30EC_U+30A4_U+30E4_U+30FC 1
 62
    12
420
 15007761
370
    35
100
AcDbVertex
100
AcDb2dVertex
 10
174.6573825187941
 20
-133.2523894635391
 30
0.0
  0
VERTEX
  5
195
330
17E
100
AcDbEntity
  8
_U+30EC_U+30A4_U+30E4_U+30FC 1
 62
    12
420
 15007761
370
    35
100
AcDbVertex
100
AcDb2dVertex
 10
174.8992140775692
 20
-135.952412803134
 30
0.0
  0
VERTEX
  5
196
330
17E
100
AcDbEntity
  8
_U+30EC_U+30A4_U+30E4_U+30FC 1
 62
    12
420
 15007761
370
    35
100
AcDbVertex
100
AcDb2dVertex
 10
175.2090798669361
 20
-138.5042001181625
 30
0.0
  0
VERTEX
  5
197
330
17E
100
AcDbEntity
  8
_U+30EC_U+30A4_U+30E4_U+30FC 1
 62
    12
420
 15007761
370
    35
100
AcDbVertex
100
AcDb2dVertex
 10
175.5893338362005
 20
-140.8835781263667
 30
0.0
  0
VERTEX
  5
198
330
17E
100
AcDbEntity
  8
_U+30EC_U+30A4_U+30E4_U+30FC 1
 62
    12
420
 15007761
370
    35
100
AcDbVertex
100
AcDb2dVertex
 10
176.0441808928906
 20
-143.0692336255117
 30
0.0
  0
VERTEX
  5
199
330
17E
100
AcDbEntity
  8
_U+30EC_U+30A4_U+30E4_U+30FC 1
 62
    12
420
 15007761
370
    35
100
AcDbVertex
100
AcDb2dVertex
 10
176.5791725288914
 20
-145.0426055111847
 30
0.0
  0
VERTEX
  5
19A
330
17E
100
AcDbEntity
  8
_U+30EC_U+30A4_U+30E4_U+30FC 1
 62
    12
420
 15007761
370
    35
100
AcDbVertex
100
AcDb2dVertex
 10
177.2007178607871
 20
-146.7877950384262
 30
0.0
  0
VERTEX
  5
19B
330
17E
100
AcDbEntity
  8
_U+30EC_U+30A4_U+30E4_U+30FC 1
 62
    12
420
 15007761
370
    35
100
AcDbVertex
100
AcDb2dVertex
 10
177.9155965585699
 20
-148.2914695817108
 30
0.0
  0
VERTEX
  5
19C
330
17E
100
AcDbEntity
  8
_U+30EC_U+30A4_U+30E4_U+30FC 1
 62
    12
420
 15007761
370
    35
100
AcDbVertex
100
AcDb2dVertex
 10
178.7304404940217
 20
-149.542804451741
 30
0.0
  0
VERTEX
  5
19D
330
17E
100
AcDbEntity
  8
_U+30EC_U+30A4_U+30E4_U+30FC 1
 62
    12
420
 15007761
370
    35
100
AcDbVertex
100
AcDb2dVertex
 10
179.6511735852196
 20
-150.5334842270036
 30
0.0
  0
SEQEND
  5
19E
330
17E
100
AcDbEntity
  8
_U+30EC_U+30A4_U+30E4_U+30FC 1
 62
    12
420
 15007761
370
    35
  0
ENDBLK
  5
17D
330
17A
100
AcDbEntity
  8
0
100
AcDbBlockEnd
  0
BLOCK
  5
1A1
330
19F
100
AcDbEntity
  8
0
100
AcDbBlockBegin
  2
block 37
 70
     0
 10
0.0
 20
0.0
 30
0.0
  3
block 37
  1

  0
SPLINE
  5
1A3
330
19F
100
AcDbEntity
  8
_U+30EC_U+30A4_U+30E4_U+30FC 1
 62
    12
420
 15007761
370
    35
100
AcDbSpline
210
0.0
220
0.0
230
1.0
 70
    11
 71
     3
 72
    20
 73
    16
 74
     0
 42
0.0000000001
 43
0.0000000001
 12
1.0
 22
0.0
 32
0.0
 13
1.0
 23
0.0
 33
0.0
 40
0.0
 40
0.0
 40
0.0
 40
0.0
 40
1.0
 40
1.0
 40
1.0
 40
2.0
 40
2.0
 40
2.0
 40
3.0
 40
3.0
 40
3.0
 40
4.0
 40
4.0
 40
4.0
 40
5.0
 40
5.0
 40
5.0
 40
5.0
 10
226.6511735852309
 20
-105.0334842270133
 30
0.0
 10
226.6511735852309
 20
-104.2050571022671
 30
0.0
 10
227.3227464604845
 20
-103.5334842270135
 30
0.0
 10
228.1511735852307
 20
-103.5334842270135
 30
0.0
 10
228.9796007099768
 20
-103.5334842270135
 30
0.0
 10
229.6511735852304
 20
-104.2050571022671
 30
0.0
 10
229.6511735852304
 20
-105.0334842270133
 30
0.0
 10
229.6511735852304
 20
-105.8619113517594
 30
0.0
 10
228.9796007099768
 20
-106.5334842270136
 30
0.0
 10
228.1511735852307
 20
-106.5334842270136
 30
0.0
 10
227.3227464604845
 20
-106.5334842270136
 30
0.0
 10
226.6511735852309
 20
-105.8619113517594
 30
0.0
 10
226.6511735852309
 20
-105.0334842270133
 30
0.0
 10
226.6511735852309
 20
-105.0334842270133
 30
0.0
 10
226.6511735852309
 20
-105.0334842270133
 30
0.0
 10
226.6511735852309
 20
-105.0334842270133
 30
0.0
  0
ENDBLK
  5
1A2
330
19F
100
AcDbEntity
  8
0
100
AcDbBlockEnd
  0
BLOCK
  5
1A6
330
1A4
100
AcDbEntity
  8
0
100
AcDbBlockBegin
  2
block 38
 70
     0
 10
0.0
 20
0.0
 30
0.0
  3
block 38
  1

  0
SPLINE
  5
1A8
330
1A4
100
AcDbEntity
  8
_U+30EC_U+30A4_U+30E4_U+30FC 1
 62
    12
420
 15007761
370
    35
100
AcDbSpline
210
0.0
220
0.0
230
1.0
 70
    11
 71
     3
 72
    20
 73
    16
 74
     0
 42
0.0000000001
 43
0.0000000001
 12
1.0
 22
0.0
 32
0.0
 13
1.0
 23
0.0
 33
0.0
 40
0.0
 40
0.0
 40
0.0
 40
0.0
 40
1.0
 40
1.0
 40
1.0
 40
2.0
 40
2.0
 40
2.0
 40
3.0
 40
3.0
 40
3.0
 40
4.0
 40
4.0
 40
4.0
 40
5.0
 40
5.0
 40
5.0
 40
5.0
 10
226.6480105348979
 20
-119.0334856562835
 30
0.0
 10
226.6480105348979
 20
-118.2050585315374
 30
0.0
 10
227.3195834101516
 20
-117.5334856562831
 30
0.0
 10
228.1480105348977
 20
-117.5334856562831
 30
0.0
 10
228.9764376596438
 20
-117.5334856562831
 30
0.0
 10
229.648010534898
 20
-118.2050585315374
 30
0.0
 10
229.648010534898
 20
-119.0334856562835
 30
0.0
 10
229.648010534898
 20
-119.8619127810296
 30
0.0
 10
228.9764376596438
 20
-120.5334856562832
 30
0.0
 10
228.1480105348977
 20
-120.5334856562832
 30
0.0
 10
227.3195834101516
 20
-120.5334856562832
 30
0.0
 10
226.6480105348979
 20
-119.8619127810296
 30
0.0
 10
226.6480105348979
 20
-119.0334856562835
 30
0.0
 10
226.6480105348979
 20
-119.0334856562835
 30
0.0
 10
226.6480105348979
 20
-119.0334856562835
 30
0.0
 10
226.6480105348979
 20
-119.0334856562835
 30
0.0
  0
ENDBLK
  5
1A7
330
1A4
100
AcDbEntity
  8
0
100
AcDbBlockEnd
  0
BLOCK
  5
1AB
330
1A9
100
AcDbEntity
  8
0
100
AcDbBlockBegin
  2
block 39
 70
     0
 10
0.0
 20
0.0
 30
0.0
  3
block 39
  1

  0
POLYLINE
  5
1AD
330
1A9
100
AcDbEntity
  8
_U+30EC_U+30A4_U+30E4_U+30FC 1
 62
    12
420
 15007761
370
    35
100
AcDb2dPolyline
 66
     1
 10
0.0
 20
0.0
 30
0.0
  0
VERTEX
  5
1AE
330
1AD
100
AcDbEntity
  8
_U+30EC_U+30A4_U+30E4_U+30FC 1
 62
    12
420
 15007761
370
    35
100
AcDbVertex
100
AcDb2dVertex
 10
219.6511735852307
 20
-150.5334842270132
 30
0.0
  0
VERTEX
  5
1AF
330
1AD
100
AcDbEntity
  8
_U+30EC_U+30A4_U+30E4_U+30FC 1
 62
    12
420
 15007761
370
    35
100
AcDbVertex
100
AcDb2dVertex
 10
228.3110811565963
 20
-150.5334842270132
 30
0.0
  0
SEQEND
  5
1B0
330
1AD
100
AcDbEntity
  8
_U+30EC_U+30A4_U+30E4_U+30FC 1
 62
    12
420
 15007761
370
    35
  0
ENDBLK
  5
1AC
330
1A9
100
AcDbEntity
  8
0
100
AcDbBlockEnd
  0
BLOCK
  5
1B3
330
1B1
100
AcDbEntity
  8
0
100
AcDbBlockBegin
  2
block 40
 70
     0
 10
0.0
 20
0.0
 30
0.0
  3
block 40
  1

  0
POLYLINE
  5
1B5
330
1B1
100
AcDbEntity
  8
_U+30EC_U+30A4_U+30E4_U+30FC 1
 62
    12
420
 15007761
370
    35
100
AcDb2dPolyline
 66
     1
 10
0.0
 20
0.0
 30
0.0
  0
VERTEX
  5
1B6
330
1B5
100
AcDbEntity
  8
_U+30EC_U+30A4_U+30E4_U+30FC 1
 62
    12
420
 15007761
370
    35
100
AcDbVertex
100
AcDb2dVertex
 10
244.6511735852309
 20
-100.5334842270134
 30
0.0
  0
VERTEX
  5
1B7
330
1B5
100
AcDbEntity
  8
_U+30EC_U+30A4_U+30E4_U+30FC 1
 62
    12
420
 15007761
370
    35
100
AcDbVertex
100
AcDb2dVertex
 10
241.3394633525022
 20
-98.97147524723485
 30
0.0
  0
VERTEX
  5
1B8
330
1B5
100
AcDbEntity
  8
_U+30EC_U+30A4_U+30E4_U+30FC 1
 62
    12
420
 15007761
370
    35
100
AcDbVertex
100
AcDb2dVertex
 10
238.2263013668367
 20
-97.73340653574186
 30
0.0
  0
VERTEX
  5
1B9
330
1B5
100
AcDbEntity
  8
_U+30EC_U+30A4_U+30E4_U+30FC 1
 62
    12
420
 15007761
370
    35
100
AcDbVertex
100
AcDb2dVertex
 10
235.3124059937538
 20
-96.82029251038477
 30
0.0
  0
VERTEX
  5
1BA
330
1B5
100
AcDbEntity
  8
_U+30EC_U+30A4_U+30E4_U+30FC 1
 62
    12
420
 15007761
370
    35
100
AcDbVertex
100
AcDb2dVertex
 10
232.5987115614473
 20
-96.2332467943879
 30
0.0
  0
VERTEX
  5
1BB
330
1B5
100
AcDbEntity
  8
_U+30EC_U+30A4_U+30E4_U+30FC 1
 62
    12
420
 15007761
370
    35
100
AcDbVertex
100
AcDb2dVertex
 10
230.0861374316897
 20
-95.97297866546408
 30
0.0
  0
VERTEX
  5
1BC
330
1B5
100
AcDbEntity
  8
_U+30EC_U+30A4_U+30E4_U+30FC 1
 62
    12
420
 15007761
370
    35
100
AcDbVertex
100
AcDb2dVertex
 10
227.7753419622763
 20
-96.0392630044889
 30
0.0
  0
VERTEX
  5
1BD
330
1B5
100
AcDbEntity
  8
_U+30EC_U+30A4_U+30E4_U+30FC 1
 62
    12
420
 15007761
370
    35
100
AcDbVertex
100
AcDb2dVertex
 10
225.6664510285586
 20
-96.4303651705853
 30
0.0
  0
VERTEX
  5
1BE
330
1B5
100
AcDbEntity
  8
_U+30EC_U+30A4_U+30E4_U+30FC 1
 62
    12
420
 15007761
370
    35
100
AcDbVertex
100
AcDb2dVertex
 10
223.7587883041039
 20
-97.14246911818596
 30
0.0
  0
VERTEX
  5
1BF
330
1B5
100
AcDbEntity
  8
_U+30EC_U+30A4_U+30E4_U+30FC 1
 62
    12
420
 15007761
370
    35
100
AcDbVertex
100
AcDb2dVertex
 10
222.0506143395813
 20
-98.169121200499
 30
0.0
  0
VERTEX
  5
1C0
330
1B5
100
AcDbEntity
  8
_U+30EC_U+30A4_U+30E4_U+30FC 1
 62
    12
420
 15007761
370
    35
100
AcDbVertex
100
AcDb2dVertex
 10
220.538809650022
 20
-99.50057367739153
 30
0.0
  0
VERTEX
  5
1C1
330
1B5
100
AcDbEntity
  8
_U+30EC_U+30A4_U+30E4_U+30FC 1
 62
    12
420
 15007761
370
    35
100
AcDbVertex
100
AcDb2dVertex
 10
219.218496579444
 20
-101.1230184619297
 30
0.0
  0
VERTEX
  5
1C2
330
1B5
100
AcDbEntity
  8
_U+30EC_U+30A4_U+30E4_U+30FC 1
 62
    12
420
 15007761
370
    35
100
AcDbVertex
100
AcDb2dVertex
 10
218.0828162441971
 20
-103.0180976080475
 30
0.0
  0
VERTEX
  5
1C3
330
1B5
100
AcDbEntity
  8
_U+30EC_U+30A4_U+30E4_U+30FC 1
 62
    12
420
 15007761
370
    35
100
AcDbVertex
100
AcDb2dVertex
 10
217.1229399812256
 20
-105.1628323210108
 30
0.0
  0
VERTEX
  5
1C4
330
1B5
100
AcDbEntity
  8
_U+30EC_U+30A4_U+30E4_U+30FC 1
 62
    12
420
 15007761
370
    35
100
AcDbVertex
100
AcDb2dVertex
 10
216.3283589746605
 20
-107.5300478425127
 30
0.0
  0
VERTEX
  5
1C5
330
1B5
100
AcDbEntity
  8
_U+30EC_U+30A4_U+30E4_U+30FC 1
 62
    12
420
 15007761
370
    35
100
AcDbVertex
100
AcDb2dVertex
 10
215.6874056200288
 20
-110.0892115399667
 30
0.0
  0
VERTEX
  5
1C6
330
1B5
100
AcDbEntity
  8
_U+30EC_U+30A4_U+30E4_U+30FC 1
 62
    12
420
 15007761
370
    35
100
AcDbVertex
100
AcDb2dVertex
 10
215.1877274419455
 20
-112.8071876026652
 30
0.0
  0
VERTEX
  5
1C7
330
1B5
100
AcDbEntity
  8
_U+30EC_U+30A4_U+30E4_U+30FC 1
 62
    12
420
 15007761
370
    35
100
AcDbVertex
100
AcDb2dVertex
 10
214.8166953127275
 20
-115.6488750874996
 30
0.0
  0
VERTEX
  5
1C8
330
1B5
100
AcDbEntity
  8
_U+30EC_U+30A4_U+30E4_U+30FC 1
 62
    12
420
 15007761
370
    35
100
AcDbVertex
100
AcDb2dVertex
 10
214.5618290162941
 20
-118.5778741804607
 30
0.0
  0
VERTEX
  5
1C9
330
1B5
100
AcDbEntity
  8
_U+30EC_U+30A4_U+30E4_U+30FC 1
 62
    12
420
 15007761
370
    35
100
AcDbVertex
100
AcDb2dVertex
 10
214.3540220079066
 20
-124.5498136624085
 30
0.0
  0
VERTEX
  5
1CA
330
1B5
100
AcDbEntity
  8
_U+30EC_U+30A4_U+30E4_U+30FC 1
 62
    12
420
 15007761
370
    35
100
AcDbVertex
100
AcDb2dVertex
 10
214.4836183184006
 20
-130.4313343198606
 30
0.0
  0
VERTEX
  5
1CB
330
1B5
100
AcDbEntity
  8
_U+30EC_U+30A4_U+30E4_U+30FC 1
 62
    12
420
 15007761
370
    35
100
AcDbVertex
100
AcDb2dVertex
 10
214.6573825187933
 20
-133.2523894635391
 30
0.0
  0
VERTEX
  5
1CC
330
1B5
100
AcDbEntity
  8
_U+30EC_U+30A4_U+30E4_U+30FC 1
 62
    12
420
 15007761
370
    35
100
AcDbVertex
100
AcDb2dVertex
 10
214.8992140775693
 20
-135.952412803134
 30
0.0
  0
VERTEX
  5
1CD
330
1B5
100
AcDbEntity
  8
_U+30EC_U+30A4_U+30E4_U+30FC 1
 62
    12
420
 15007761
370
    35
100
AcDbVertex
100
AcDb2dVertex
 10
215.2090798669362
 20
-138.5042001181625
 30
0.0
  0
VERTEX
  5
1CE
330
1B5
100
AcDbEntity
  8
_U+30EC_U+30A4_U+30E4_U+30FC 1
 62
    12
420
 15007761
370
    35
100
AcDbVertex
100
AcDb2dVertex
 10
215.5893338362006
 20
-140.8835781263667
 30
0.0
  0
VERTEX
  5
1CF
330
1B5
100
AcDbEntity
  8
_U+30EC_U+30A4_U+30E4_U+30FC 1
 62
    12
420
 15007761
370
    35
100
AcDbVertex
100
AcDb2dVertex
 10
216.0441808928907
 20
-143.0692336255117
 30
0.0
  0
VERTEX
  5
1D0
330
1B5
100
AcDbEntity
  8
_U+30EC_U+30A4_U+30E4_U+30FC 1
 62
    12
420
 15007761
370
    35
100
AcDbVertex
100
AcDb2dVertex
 10
216.5791725288915
 20
-145.0426055111847
 30
0.0
  0
VERTEX
  5
1D1
330
1B5
100
AcDbEntity
  8
_U+30EC_U+30A4_U+30E4_U+30FC 1
 62
    12
420
 15007761
370
    35
100
AcDbVertex
100
AcDb2dVertex
 10
217.2007178607872
 20
-146.7877950384262
 30
0.0
  0
VERTEX
  5
1D2
330
1B5
100
AcDbEntity
  8
_U+30EC_U+30A4_U+30E4_U+30FC 1
 62
    12
420
 15007761
370
    35
100
AcDbVertex
100
AcDb2dVertex
 10
217.9155965585704
 20
-148.2914695817108
 30
0.0
  0
VERTEX
  5
1D3
330
1B5
100
AcDbEntity
  8
_U+30EC_U+30A4_U+30E4_U+30FC 1
 62
    12
420
 15007761
370
    35
100
AcDbVertex
100
AcDb2dVertex
 10
218.7304404940221
 20
-149.542804451741
 30
0.0
  0
VERTEX
  5
1D4
330
1B5
100
AcDbEntity
  8
_U+30EC_U+30A4_U+30E4_U+30FC 1
 62
    12
420
 15007761
370
    35
100
AcDbVertex
100
AcDb2dVertex
 10
219.6511735852197
 20
-150.5334842270036
 30
0.0
  0
SEQEND
  5
1D5
330
1B5
100
AcDbEntity
  8
_U+30EC_U+30A4_U+30E4_U+30FC 1
 62
    12
420
 15007761
370
    35
  0
ENDBLK
  5
1B4
330
1B1
100
AcDbEntity
  8
0
100
AcDbBlockEnd
  0
BLOCK
  5
1D8
330
1D6
100
AcDbEntity
  8
0
100
AcDbBlockBegin
  2
block 41
 70
     0
 10
0.0
 20
0.0
 30
0.0
  3
block 41
  1

  0
POLYLINE
  5
1DA
330
1D6
100
AcDbEntity
  8
_U+30EC_U+30A4_U+30E4_U+30FC 1
 62
    12
420
 15007761
370
    35
100
AcDb2dPolyline
 66
     1
 10
0.0
 20
0.0
 30
0.0
  0
VERTEX
  5
1DB
330
1DA
100
AcDbEntity
  8
_U+30EC_U+30A4_U+30E4_U+30FC 1
 62
    12
420
 15007761
370
    35
100
AcDbVertex
100
AcDb2dVertex
 10
28.31108115659625
 20
-150.5334842270132
 30
0.0
  0
VERTEX
  5
1DC
330
1DA
100
AcDbEntity
  8
_U+30EC_U+30A4_U+30E4_U+30FC 1
 62
    12
420
 15007761
370
    35
100
AcDbVertex
100
AcDb2dVertex
 10
28.4250184169756
 20
-147.2767310893802
 30
0.0
  0
VERTEX
  5
1DD
330
1DA
100
AcDbEntity
  8
_U+30EC_U+30A4_U+30E4_U+30FC 1
 62
    12
420
 15007761
370
    35
100
AcDbVertex
100
AcDb2dVertex
 10
28.64609789316034
 20
-144.0355362401011
 30
0.0
  0
VERTEX
  5
1DE
330
1DA
100
AcDbEntity
  8
_U+30EC_U+30A4_U+30E4_U+30FC 1
 62
    12
420
 15007761
370
    35
100
AcDbVertex
100
AcDb2dVertex
 10
28.97717879737286
 20
-140.8103148698439
 30
0.0
  0
VERTEX
  5
1DF
330
1DA
100
AcDbEntity
  8
_U+30EC_U+30A4_U+30E4_U+30FC 1
 62
    12
420
 15007761
370
    35
100
AcDbVertex
100
AcDb2dVertex
 10
29.42269779198115
 20
-137.6017112332741
 30
0.0
  0
VERTEX
  5
1E0
330
1DA
100
AcDbEntity
  8
_U+30EC_U+30A4_U+30E4_U+30FC 1
 62
    12
420
 15007761
370
    35
100
AcDbVertex
100
AcDb2dVertex
 10
29.98818847357175
 20
-134.4105288725878
 30
0.0
  0
VERTEX
  5
1E1
330
1DA
100
AcDbEntity
  8
_U+30EC_U+30A4_U+30E4_U+30FC 1
 62
    12
420
 15007761
370
    35
100
AcDbVertex
100
AcDb2dVertex
 10
30.67962869971171
 20
-131.2376358418099
 30
0.0
  0
VERTEX
  5
1E2
330
1DA
100
AcDbEntity
  8
_U+30EC_U+30A4_U+30E4_U+30FC 1
 62
    12
420
 15007761
370
    35
100
AcDbVertex
100
AcDb2dVertex
 10
31.50254463633219
 20
-128.0838346041182
 30
0.0
  0
VERTEX
  5
1E3
330
1DA
100
AcDbEntity
  8
_U+30EC_U+30A4_U+30E4_U+30FC 1
 62
    12
420
 15007761
370
    35
100
AcDbVertex
100
AcDb2dVertex
 10
32.46081905833516
 20
-124.9496889833153
 30
0.0
  0
VERTEX
  5
1E4
330
1DA
100
AcDbEntity
  8
_U+30EC_U+30A4_U+30E4_U+30FC 1
 62
    12
420
 15007761
370
    35
100
AcDbVertex
100
AcDb2dVertex
 10
33.55543012426536
 20
-121.8353410193281
 30
0.0
  0
VERTEX
  5
1E5
330
1DA
100
AcDbEntity
  8
_U+30EC_U+30A4_U+30E4_U+30FC 1
 62
    12
420
 15007761
370
    35
100
AcDbVertex
100
AcDb2dVertex
 10
34.78383232810952
 20
-118.7404210752569
 30
0.0
  0
VERTEX
  5
1E6
330
1DA
100
AcDbEntity
  8
_U+30EC_U+30A4_U+30E4_U+30FC 1
 62
    12
420
 15007761
370
    35
100
AcDbVertex
100
AcDb2dVertex
 10
36.14097431697537
 20
-115.664195636264
 30
0.0
  0
VERTEX
  5
1E7
330
1DA
100
AcDbEntity
  8
_U+30EC_U+30A4_U+30E4_U+30FC 1
 62
    12
420
 15007761
370
    35
100
AcDbVertex
100
AcDb2dVertex
 10
37.62066665837799
 20
-112.6057659251985
 30
0.0
  0
VERTEX
  5
1E8
330
1DA
100
AcDbEntity
  8
_U+30EC_U+30A4_U+30E4_U+30FC 1
 62
    12
420
 15007761
370
    35
100
AcDbVertex
100
AcDb2dVertex
 10
39.21657063675283
 20
-109.5642114872809
 30
0.0
  0
VERTEX
  5
1E9
330
1DA
100
AcDbEntity
  8
_U+30EC_U+30A4_U+30E4_U+30FC 1
 62
    12
420
 15007761
370
    35
100
AcDbVertex
100
AcDb2dVertex
 10
40.92298746002945
 20
-106.5387047920212
 30
0.0
  0
VERTEX
  5
1EA
330
1DA
100
AcDbEntity
  8
_U+30EC_U+30A4_U+30E4_U+30FC 1
 62
    12
420
 15007761
370
    35
100
AcDbVertex
100
AcDb2dVertex
 10
42.73546263005409
 20
-103.5285989947905
 30
0.0
  0
VERTEX
  5
1EB
330
1DA
100
AcDbEntity
  8
_U+30EC_U+30A4_U+30E4_U+30FC 1
 62
    12
420
 15007761
370
    35
100
AcDbVertex
100
AcDb2dVertex
 10
44.65117358523058
 20
-100.5334842270134
 30
0.0
  0
SEQEND
  5
1EC
330
1DA
100
AcDbEntity
  8
_U+30EC_U+30A4_U+30E4_U+30FC 1
 62
    12
420
 15007761
370
    35
  0
ENDBLK
  5
1D9
330
1D6
100
AcDbEntity
  8
0
100
AcDbBlockEnd
  0
BLOCK
  5
1EF
330
1ED
100
AcDbEntity
  8
0
100
AcDbBlockBegin
  2
block 42
 70
     0
 10
0.0
 20
0.0
 30
0.0
  3
block 42
  1

  0
POLYLINE
  5
1F1
330
1ED
100
AcDbEntity
  8
_U+30EC_U+30A4_U+30E4_U+30FC 1
 62
    12
420
 15007761
370
    35
100
AcDb2dPolyline
 66
     1
 10
0.0
 20
0.0
 30
0.0
  0
VERTEX
  5
1F2
330
1F1
100
AcDbEntity
  8
_U+30EC_U+30A4_U+30E4_U+30FC 1
 62
    12
420
 15007761
370
    35
100
AcDbVertex
100
AcDb2dVertex
 10
68.3110811565967
 20
-150.5334842270132
 30
0.0
  0
VERTEX
  5
1F3
330
1F1
100
AcDbEntity
  8
_U+30EC_U+30A4_U+30E4_U+30FC 1
 62
    12
420
 15007761
370
    35
100
AcDbVertex
100
AcDb2dVertex
 10
68.4250184169754
 20
-147.2767310893802
 30
0.0
  0
VERTEX
  5
1F4
330
1F1
100
AcDbEntity
  8
_U+30EC_U+30A4_U+30E4_U+30FC 1
 62
    12
420
 15007761
370
    35
100
AcDbVertex
100
AcDb2dVertex
 10
68.64609789316015
 20
-144.0355362401011
 30
0.0
  0
VERTEX
  5
1F5
330
1F1
100
AcDbEntity
  8
_U+30EC_U+30A4_U+30E4_U+30FC 1
 62
    12
420
 15007761
370
    35
100
AcDbVertex
100
AcDb2dVertex
 10
68.977178797373
 20
-140.8103148698439
 30
0.0
  0
VERTEX
  5
1F6
330
1F1
100
AcDbEntity
  8
_U+30EC_U+30A4_U+30E4_U+30FC 1
 62
    12
420
 15007761
370
    35
100
AcDbVertex
100
AcDb2dVertex
 10
69.42269779198095
 20
-137.6017112332741
 30
0.0
  0
VERTEX
  5
1F7
330
1F1
100
AcDbEntity
  8
_U+30EC_U+30A4_U+30E4_U+30FC 1
 62
    12
420
 15007761
370
    35
100
AcDbVertex
100
AcDb2dVertex
 10
69.98818847357188
 20
-134.4105288725878
 30
0.0
  0
VERTEX
  5
1F8
330
1F1
100
AcDbEntity
  8
_U+30EC_U+30A4_U+30E4_U+30FC 1
 62
    12
420
 15007761
370
    35
100
AcDbVertex
100
AcDb2dVertex
 10
70.67962869971184
 20
-131.2376358418099
 30
0.0
  0
VERTEX
  5
1F9
330
1F1
100
AcDbEntity
  8
_U+30EC_U+30A4_U+30E4_U+30FC 1
 62
    12
420
 15007761
370
    35
100
AcDbVertex
100
AcDb2dVertex
 10
71.50254463633232
 20
-128.0838346041182
 30
0.0
  0
VERTEX
  5
1FA
330
1F1
100
AcDbEntity
  8
_U+30EC_U+30A4_U+30E4_U+30FC 1
 62
    12
420
 15007761
370
    35
100
AcDbVertex
100
AcDb2dVertex
 10
72.46081905833529
 20
-124.9496889833153
 30
0.0
  0
VERTEX
  5
1FB
330
1F1
100
AcDbEntity
  8
_U+30EC_U+30A4_U+30E4_U+30FC 1
 62
    12
420
 15007761
370
    35
100
AcDbVertex
100
AcDb2dVertex
 10
73.5554301242655
 20
-121.8353410193281
 30
0.0
  0
VERTEX
  5
1FC
330
1F1
100
AcDbEntity
  8
_U+30EC_U+30A4_U+30E4_U+30FC 1
 62
    12
420
 15007761
370
    35
100
AcDbVertex
100
AcDb2dVertex
 10
74.78383232810965
 20
-118.7404210752569
 30
0.0
  0
VERTEX
  5
1FD
330
1F1
100
AcDbEntity
  8
_U+30EC_U+30A4_U+30E4_U+30FC 1
 62
    12
420
 15007761
370
    35
100
AcDbVertex
100
AcDb2dVertex
 10
76.14097431697485
 20
-115.664195636264
 30
0.0
  0
VERTEX
  5
1FE
330
1F1
100
AcDbEntity
  8
_U+30EC_U+30A4_U+30E4_U+30FC 1
 62
    12
420
 15007761
370
    35
100
AcDbVertex
100
AcDb2dVertex
 10
77.62066665837844
 20
-112.6057659251985
 30
0.0
  0
VERTEX
  5
1FF
330
1F1
100
AcDbEntity
  8
_U+30EC_U+30A4_U+30E4_U+30FC 1
 62
    12
420
 15007761
370
    35
100
AcDbVertex
100
AcDb2dVertex
 10
79.21657063675329
 20
-109.5642114872809
 30
0.0
  0
VERTEX
  5
200
330
1F1
100
AcDbEntity
  8
_U+30EC_U+30A4_U+30E4_U+30FC 1
 62
    12
420
 15007761
370
    35
100
AcDbVertex
100
AcDb2dVertex
 10
80.92298746002926
 20
-106.5387047920212
 30
0.0
  0
VERTEX
  5
201
330
1F1
100
AcDbEntity
  8
_U+30EC_U+30A4_U+30E4_U+30FC 1
 62
    12
420
 15007761
370
    35
100
AcDbVertex
100
AcDb2dVertex
 10
82.73546263005423
 20
-103.5285989947905
 30
0.0
  0
VERTEX
  5
202
330
1F1
100
AcDbEntity
  8
_U+30EC_U+30A4_U+30E4_U+30FC 1
 62
    12
420
 15007761
370
    35
100
AcDbVertex
100
AcDb2dVertex
 10
84.65117358523071
 20
-100.5334842270134
 30
0.0
  0
SEQEND
  5
203
330
1F1
100
AcDbEntity
  8
_U+30EC_U+30A4_U+30E4_U+30FC 1
 62
    12
420
 15007761
370
    35
  0
ENDBLK
  5
1F0
330
1ED
100
AcDbEntity
  8
0
100
AcDbBlockEnd
  0
BLOCK
  5
206
330
204
100
AcDbEntity
  8
0
100
AcDbBlockBegin
  2
block 43
 70
     0
 10
0.0
 20
0.0
 30
0.0
  3
block 43
  1

  0
POLYLINE
  5
208
330
204
100
AcDbEntity
  8
_U+30EC_U+30A4_U+30E4_U+30FC 1
 62
    12
420
 15007761
370
    35
100
AcDb2dPolyline
 66
     1
 10
0.0
 20
0.0
 30
0.0
  0
VERTEX
  5
209
330
208
100
AcDbEntity
  8
_U+30EC_U+30A4_U+30E4_U+30FC 1
 62
    12
420
 15007761
370
    35
100
AcDbVertex
100
AcDb2dVertex
 10
108.3110811565962
 20
-150.5334842270132
 30
0.0
  0
VERTEX
  5
20A
330
208
100
AcDbEntity
  8
_U+30EC_U+30A4_U+30E4_U+30FC 1
 62
    12
420
 15007761
370
    35
100
AcDbVertex
100
AcDb2dVertex
 10
108.4250184169755
 20
-147.2767310893802
 30
0.0
  0
VERTEX
  5
20B
330
208
100
AcDbEntity
  8
_U+30EC_U+30A4_U+30E4_U+30FC 1
 62
    12
420
 15007761
370
    35
100
AcDbVertex
100
AcDb2dVertex
 10
108.6460978931603
 20
-144.0355362401011
 30
0.0
  0
VERTEX
  5
20C
330
208
100
AcDbEntity
  8
_U+30EC_U+30A4_U+30E4_U+30FC 1
 62
    12
420
 15007761
370
    35
100
AcDbVertex
100
AcDb2dVertex
 10
108.9771787973728
 20
-140.8103148698439
 30
0.0
  0
VERTEX
  5
20D
330
208
100
AcDbEntity
  8
_U+30EC_U+30A4_U+30E4_U+30FC 1
 62
    12
420
 15007761
370
    35
100
AcDbVertex
100
AcDb2dVertex
 10
109.4226977919811
 20
-137.6017112332741
 30
0.0
  0
VERTEX
  5
20E
330
208
100
AcDbEntity
  8
_U+30EC_U+30A4_U+30E4_U+30FC 1
 62
    12
420
 15007761
370
    35
100
AcDbVertex
100
AcDb2dVertex
 10
109.988188473572
 20
-134.4105288725878
 30
0.0
  0
VERTEX
  5
20F
330
208
100
AcDbEntity
  8
_U+30EC_U+30A4_U+30E4_U+30FC 1
 62
    12
420
 15007761
370
    35
100
AcDbVertex
100
AcDb2dVertex
 10
110.679628699712
 20
-131.2376358418099
 30
0.0
  0
VERTEX
  5
210
330
208
100
AcDbEntity
  8
_U+30EC_U+30A4_U+30E4_U+30FC 1
 62
    12
420
 15007761
370
    35
100
AcDbVertex
100
AcDb2dVertex
 10
111.5025446363328
 20
-128.0838346041182
 30
0.0
  0
VERTEX
  5
211
330
208
100
AcDbEntity
  8
_U+30EC_U+30A4_U+30E4_U+30FC 1
 62
    12
420
 15007761
370
    35
100
AcDbVertex
100
AcDb2dVertex
 10
112.4608190583354
 20
-124.9496889833153
 30
0.0
  0
VERTEX
  5
212
330
208
100
AcDbEntity
  8
_U+30EC_U+30A4_U+30E4_U+30FC 1
 62
    12
420
 15007761
370
    35
100
AcDbVertex
100
AcDb2dVertex
 10
113.5554301242656
 20
-121.8353410193281
 30
0.0
  0
VERTEX
  5
213
330
208
100
AcDbEntity
  8
_U+30EC_U+30A4_U+30E4_U+30FC 1
 62
    12
420
 15007761
370
    35
100
AcDbVertex
100
AcDb2dVertex
 10
114.7838323281098
 20
-118.7404210752569
 30
0.0
  0
VERTEX
  5
214
330
208
100
AcDbEntity
  8
_U+30EC_U+30A4_U+30E4_U+30FC 1
 62
    12
420
 15007761
370
    35
100
AcDbVertex
100
AcDb2dVertex
 10
116.140974316975
 20
-115.664195636264
 30
0.0
  0
VERTEX
  5
215
330
208
100
AcDbEntity
  8
_U+30EC_U+30A4_U+30E4_U+30FC 1
 62
    12
420
 15007761
370
    35
100
AcDbVertex
100
AcDb2dVertex
 10
117.6206666583783
 20
-112.6057659251985
 30
0.0
  0
VERTEX
  5
216
330
208
100
AcDbEntity
  8
_U+30EC_U+30A4_U+30E4_U+30FC 1
 62
    12
420
 15007761
370
    35
100
AcDbVertex
100
AcDb2dVertex
 10
119.2165706367531
 20
-109.5642114872809
 30
0.0
  0
VERTEX
  5
217
330
208
100
AcDbEntity
  8
_U+30EC_U+30A4_U+30E4_U+30FC 1
 62
    12
420
 15007761
370
    35
100
AcDbVertex
100
AcDb2dVertex
 10
120.9229874600294
 20
-106.5387047920212
 30
0.0
  0
VERTEX
  5
218
330
208
100
AcDbEntity
  8
_U+30EC_U+30A4_U+30E4_U+30FC 1
 62
    12
420
 15007761
370
    35
100
AcDbVertex
100
AcDb2dVertex
 10
122.7354626300537
 20
-103.5285989947905
 30
0.0
  0
VERTEX
  5
219
330
208
100
AcDbEntity
  8
_U+30EC_U+30A4_U+30E4_U+30FC 1
 62
    12
420
 15007761
370
    35
100
AcDbVertex
100
AcDb2dVertex
 10
124.6511735852305
 20
-100.5334842270134
 30
0.0
  0
SEQEND
  5
21A
330
208
100
AcDbEntity
  8
_U+30EC_U+30A4_U+30E4_U+30FC 1
 62
    12
420
 15007761
370
    35
  0
ENDBLK
  5
207
330
204
100
AcDbEntity
  8
0
100
AcDbBlockEnd
  0
BLOCK
  5
21D
330
21B
100
AcDbEntity
  8
0
100
AcDbBlockBegin
  2
block 44
 70
     0
 10
0.0
 20
0.0
 30
0.0
  3
block 44
  1

  0
POLYLINE
  5
21F
330
21B
100
AcDbEntity
  8
_U+30EC_U+30A4_U+30E4_U+30FC 1
 62
    12
420
 15007761
370
    35
100
AcDb2dPolyline
 66
     1
 10
0.0
 20
0.0
 30
0.0
  0
VERTEX
  5
220
330
21F
100
AcDbEntity
  8
_U+30EC_U+30A4_U+30E4_U+30FC 1
 62
    12
420
 15007761
370
    35
100
AcDbVertex
100
AcDb2dVertex
 10
148.311081156596
 20
-150.5334842270132
 30
0.0
  0
VERTEX
  5
221
330
21F
100
AcDbEntity
  8
_U+30EC_U+30A4_U+30E4_U+30FC 1
 62
    12
420
 15007761
370
    35
100
AcDbVertex
100
AcDb2dVertex
 10
148.4250184169757
 20
-147.2767310893802
 30
0.0
  0
VERTEX
  5
222
330
21F
100
AcDbEntity
  8
_U+30EC_U+30A4_U+30E4_U+30FC 1
 62
    12
420
 15007761
370
    35
100
AcDbVertex
100
AcDb2dVertex
 10
148.6460978931604
 20
-144.0355362401011
 30
0.0
  0
VERTEX
  5
223
330
21F
100
AcDbEntity
  8
_U+30EC_U+30A4_U+30E4_U+30FC 1
 62
    12
420
 15007761
370
    35
100
AcDbVertex
100
AcDb2dVertex
 10
148.9771787973729
 20
-140.8103148698439
 30
0.0
  0
VERTEX
  5
224
330
21F
100
AcDbEntity
  8
_U+30EC_U+30A4_U+30E4_U+30FC 1
 62
    12
420
 15007761
370
    35
100
AcDbVertex
100
AcDb2dVertex
 10
149.4226977919812
 20
-137.6017112332741
 30
0.0
  0
VERTEX
  5
225
330
21F
100
AcDbEntity
  8
_U+30EC_U+30A4_U+30E4_U+30FC 1
 62
    12
420
 15007761
370
    35
100
AcDbVertex
100
AcDb2dVertex
 10
149.9881884735718
 20
-134.4105288725878
 30
0.0
  0
VERTEX
  5
226
330
21F
100
AcDbEntity
  8
_U+30EC_U+30A4_U+30E4_U+30FC 1
 62
    12
420
 15007761
370
    35
100
AcDbVertex
100
AcDb2dVertex
 10
150.6796286997121
 20
-131.2376358418099
 30
0.0
  0
VERTEX
  5
227
330
21F
100
AcDbEntity
  8
_U+30EC_U+30A4_U+30E4_U+30FC 1
 62
    12
420
 15007761
370
    35
100
AcDbVertex
100
AcDb2dVertex
 10
151.5025446363319
 20
-128.0838346041182
 30
0.0
  0
VERTEX
  5
228
330
21F
100
AcDbEntity
  8
_U+30EC_U+30A4_U+30E4_U+30FC 1
 62
    12
420
 15007761
370
    35
100
AcDbVertex
100
AcDb2dVertex
 10
152.4608190583355
 20
-124.9496889833153
 30
0.0
  0
VERTEX
  5
229
330
21F
100
AcDbEntity
  8
_U+30EC_U+30A4_U+30E4_U+30FC 1
 62
    12
420
 15007761
370
    35
100
AcDbVertex
100
AcDb2dVertex
 10
153.5554301242657
 20
-121.8353410193281
 30
0.0
  0
VERTEX
  5
22A
330
21F
100
AcDbEntity
  8
_U+30EC_U+30A4_U+30E4_U+30FC 1
 62
    12
420
 15007761
370
    35
100
AcDbVertex
100
AcDb2dVertex
 10
154.7838323281093
 20
-118.7404210752569
 30
0.0
  0
VERTEX
  5
22B
330
21F
100
AcDbEntity
  8
_U+30EC_U+30A4_U+30E4_U+30FC 1
 62
    12
420
 15007761
370
    35
100
AcDbVertex
100
AcDb2dVertex
 10
156.1409743169751
 20
-115.664195636264
 30
0.0
  0
VERTEX
  5
22C
330
21F
100
AcDbEntity
  8
_U+30EC_U+30A4_U+30E4_U+30FC 1
 62
    12
420
 15007761
370
    35
100
AcDbVertex
100
AcDb2dVertex
 10
157.6206666583784
 20
-112.6057659251985
 30
0.0
  0
VERTEX
  5
22D
330
21F
100
AcDbEntity
  8
_U+30EC_U+30A4_U+30E4_U+30FC 1
 62
    12
420
 15007761
370
    35
100
AcDbVertex
100
AcDb2dVertex
 10
159.2165706367529
 20
-109.5642114872809
 30
0.0
  0
VERTEX
  5
22E
330
21F
100
AcDbEntity
  8
_U+30EC_U+30A4_U+30E4_U+30FC 1
 62
    12
420
 15007761
370
    35
100
AcDbVertex
100
AcDb2dVertex
 10
160.9229874600292
 20
-106.5387047920212
 30
0.0
  0
VERTEX
  5
22F
330
21F
100
AcDbEntity
  8
_U+30EC_U+30A4_U+30E4_U+30FC 1
 62
    12
420
 15007761
370
    35
100
AcDbVertex
100
AcDb2dVertex
 10
162.7354626300545
 20
-103.5285989947905
 30
0.0
  0
VERTEX
  5
230
330
21F
100
AcDbEntity
  8
_U+30EC_U+30A4_U+30E4_U+30FC 1
 62
    12
420
 15007761
370
    35
100
AcDbVertex
100
AcDb2dVertex
 10
164.6511735852307
 20
-100.5334842270134
 30
0.0
  0
SEQEND
  5
231
330
21F
100
AcDbEntity
  8
_U+30EC_U+30A4_U+30E4_U+30FC 1
 62
    12
420
 15007761
370
    35
  0
ENDBLK
  5
21E
330
21B
100
AcDbEntity
  8
0
100
AcDbBlockEnd
  0
BLOCK
  5
234
330
232
100
AcDbEntity
  8
0
100
AcDbBlockBegin
  2
block 45
 70
     0
 10
0.0
 20
0.0
 30
0.0
  3
block 45
  1

  0
POLYLINE
  5
236
330
232
100
AcDbEntity
  8
_U+30EC_U+30A4_U+30E4_U+30FC 1
 62
    12
420
 15007761
370
    35
100
AcDb2dPolyline
 66
     1
 10
0.0
 20
0.0
 30
0.0
  0
VERTEX
  5
237
330
236
100
AcDbEntity
  8
_U+30EC_U+30A4_U+30E4_U+30FC 1
 62
    12
420
 15007761
370
    35
100
AcDbVertex
100
AcDb2dVertex
 10
188.3110811565961
 20
-150.5334842270132
 30
0.0
  0
VERTEX
  5
238
330
236
100
AcDbEntity
  8
_U+30EC_U+30A4_U+30E4_U+30FC 1
 62
    12
420
 15007761
370
    35
100
AcDbVertex
100
AcDb2dVertex
 10
188.4250184169758
 20
-147.2767310893802
 30
0.0
  0
VERTEX
  5
239
330
236
100
AcDbEntity
  8
_U+30EC_U+30A4_U+30E4_U+30FC 1
 62
    12
420
 15007761
370
    35
100
AcDbVertex
100
AcDb2dVertex
 10
188.6460978931605
 20
-144.0355362401011
 30
0.0
  0
VERTEX
  5
23A
330
236
100
AcDbEntity
  8
_U+30EC_U+30A4_U+30E4_U+30FC 1
 62
    12
420
 15007761
370
    35
100
AcDbVertex
100
AcDb2dVertex
 10
188.9771787973731
 20
-140.8103148698439
 30
0.0
  0
VERTEX
  5
23B
330
236
100
AcDbEntity
  8
_U+30EC_U+30A4_U+30E4_U+30FC 1
 62
    12
420
 15007761
370
    35
100
AcDbVertex
100
AcDb2dVertex
 10
189.4226977919813
 20
-137.6017112332741
 30
0.0
  0
VERTEX
  5
23C
330
236
100
AcDbEntity
  8
_U+30EC_U+30A4_U+30E4_U+30FC 1
 62
    12
420
 15007761
370
    35
100
AcDbVertex
100
AcDb2dVertex
 10
189.9881884735719
 20
-134.4105288725878
 30
0.0
  0
VERTEX
  5
23D
330
236
100
AcDbEntity
  8
_U+30EC_U+30A4_U+30E4_U+30FC 1
 62
    12
420
 15007761
370
    35
100
AcDbVertex
100
AcDb2dVertex
 10
190.6796286997116
 20
-131.2376358418099
 30
0.0
  0
VERTEX
  5
23E
330
236
100
AcDbEntity
  8
_U+30EC_U+30A4_U+30E4_U+30FC 1
 62
    12
420
 15007761
370
    35
100
AcDbVertex
100
AcDb2dVertex
 10
191.5025446363321
 20
-128.0838346041182
 30
0.0
  0
VERTEX
  5
23F
330
236
100
AcDbEntity
  8
_U+30EC_U+30A4_U+30E4_U+30FC 1
 62
    12
420
 15007761
370
    35
100
AcDbVertex
100
AcDb2dVertex
 10
192.4608190583357
 20
-124.9496889833153
 30
0.0
  0
VERTEX
  5
240
330
236
100
AcDbEntity
  8
_U+30EC_U+30A4_U+30E4_U+30FC 1
 62
    12
420
 15007761
370
    35
100
AcDbVertex
100
AcDb2dVertex
 10
193.5554301242652
 20
-121.8353410193281
 30
0.0
  0
VERTEX
  5
241
330
236
100
AcDbEntity
  8
_U+30EC_U+30A4_U+30E4_U+30FC 1
 62
    12
420
 15007761
370
    35
100
AcDbVertex
100
AcDb2dVertex
 10
194.7838323281094
 20
-118.7404210752569
 30
0.0
  0
VERTEX
  5
242
330
236
100
AcDbEntity
  8
_U+30EC_U+30A4_U+30E4_U+30FC 1
 62
    12
420
 15007761
370
    35
100
AcDbVertex
100
AcDb2dVertex
 10
196.1409743169746
 20
-115.664195636264
 30
0.0
  0
VERTEX
  5
243
330
236
100
AcDbEntity
  8
_U+30EC_U+30A4_U+30E4_U+30FC 1
 62
    12
420
 15007761
370
    35
100
AcDbVertex
100
AcDb2dVertex
 10
197.6206666583785
 20
-112.6057659251985
 30
0.0
  0
VERTEX
  5
244
330
236
100
AcDbEntity
  8
_U+30EC_U+30A4_U+30E4_U+30FC 1
 62
    12
420
 15007761
370
    35
100
AcDbVertex
100
AcDb2dVertex
 10
199.216570636753
 20
-109.5642114872809
 30
0.0
  0
VERTEX
  5
245
330
236
100
AcDbEntity
  8
_U+30EC_U+30A4_U+30E4_U+30FC 1
 62
    12
420
 15007761
370
    35
100
AcDbVertex
100
AcDb2dVertex
 10
200.9229874600293
 20
-106.5387047920212
 30
0.0
  0
VERTEX
  5
246
330
236
100
AcDbEntity
  8
_U+30EC_U+30A4_U+30E4_U+30FC 1
 62
    12
420
 15007761
370
    35
100
AcDbVertex
100
AcDb2dVertex
 10
202.735462630054
 20
-103.5285989947905
 30
0.0
  0
VERTEX
  5
247
330
236
100
AcDbEntity
  8
_U+30EC_U+30A4_U+30E4_U+30FC 1
 62
    12
420
 15007761
370
    35
100
AcDbVertex
100
AcDb2dVertex
 10
204.6511735852308
 20
-100.5334842270134
 30
0.0
  0
SEQEND
  5
248
330
236
100
AcDbEntity
  8
_U+30EC_U+30A4_U+30E4_U+30FC 1
 62
    12
420
 15007761
370
    35
  0
ENDBLK
  5
235
330
232
100
AcDbEntity
  8
0
100
AcDbBlockEnd
  0
BLOCK
  5
24B
330
249
100
AcDbEntity
  8
0
100
AcDbBlockBegin
  2
block 46
 70
     0
 10
0.0
 20
0.0
 30
0.0
  3
block 46
  1

  0
POLYLINE
  5
24D
330
249
100
AcDbEntity
  8
_U+30EC_U+30A4_U+30E4_U+30FC 1
 62
    12
420
 15007761
370
    35
100
AcDb2dPolyline
 66
     1
 10
0.0
 20
0.0
 30
0.0
  0
VERTEX
  5
24E
330
24D
100
AcDbEntity
  8
_U+30EC_U+30A4_U+30E4_U+30FC 1
 62
    12
420
 15007761
370
    35
100
AcDbVertex
100
AcDb2dVertex
 10
228.3110811565963
 20
-150.5334842270132
 30
0.0
  0
VERTEX
  5
24F
330
24D
100
AcDbEntity
  8
_U+30EC_U+30A4_U+30E4_U+30FC 1
 62
    12
420
 15007761
370
    35
100
AcDbVertex
100
AcDb2dVertex
 10
228.4250184169753
 20
-147.2767310893802
 30
0.0
  0
VERTEX
  5
250
330
24D
100
AcDbEntity
  8
_U+30EC_U+30A4_U+30E4_U+30FC 1
 62
    12
420
 15007761
370
    35
100
AcDbVertex
100
AcDb2dVertex
 10
228.6460978931607
 20
-144.0355362401011
 30
0.0
  0
VERTEX
  5
251
330
24D
100
AcDbEntity
  8
_U+30EC_U+30A4_U+30E4_U+30FC 1
 62
    12
420
 15007761
370
    35
100
AcDbVertex
100
AcDb2dVertex
 10
228.9771787973732
 20
-140.8103148698439
 30
0.0
  0
VERTEX
  5
252
330
24D
100
AcDbEntity
  8
_U+30EC_U+30A4_U+30E4_U+30FC 1
 62
    12
420
 15007761
370
    35
100
AcDbVertex
100
AcDb2dVertex
 10
229.4226977919808
 20
-137.6017112332741
 30
0.0
  0
VERTEX
  5
253
330
24D
100
AcDbEntity
  8
_U+30EC_U+30A4_U+30E4_U+30FC 1
 62
    12
420
 15007761
370
    35
100
AcDbVertex
100
AcDb2dVertex
 10
229.9881884735721
 20
-134.4105288725878
 30
0.0
  0
VERTEX
  5
254
330
24D
100
AcDbEntity
  8
_U+30EC_U+30A4_U+30E4_U+30FC 1
 62
    12
420
 15007761
370
    35
100
AcDbVertex
100
AcDb2dVertex
 10
230.6796286997117
 20
-131.2376358418099
 30
0.0
  0
VERTEX
  5
255
330
24D
100
AcDbEntity
  8
_U+30EC_U+30A4_U+30E4_U+30FC 1
 62
    12
420
 15007761
370
    35
100
AcDbVertex
100
AcDb2dVertex
 10
231.5025446363322
 20
-128.0838346041182
 30
0.0
  0
VERTEX
  5
256
330
24D
100
AcDbEntity
  8
_U+30EC_U+30A4_U+30E4_U+30FC 1
 62
    12
420
 15007761
370
    35
100
AcDbVertex
100
AcDb2dVertex
 10
232.4608190583352
 20
-124.9496889833153
 30
0.0
  0
VERTEX
  5
257
330
24D
100
AcDbEntity
  8
_U+30EC_U+30A4_U+30E4_U+30FC 1
 62
    12
420
 15007761
370
    35
100
AcDbVertex
100
AcDb2dVertex
 10
233.5554301242654
 20
-121.8353410193281
 30
0.0
  0
VERTEX
  5
258
330
24D
100
AcDbEntity
  8
_U+30EC_U+30A4_U+30E4_U+30FC 1
 62
    12
420
 15007761
370
    35
100
AcDbVertex
100
AcDb2dVertex
 10
234.7838323281095
 20
-118.7404210752569
 30
0.0
  0
VERTEX
  5
259
330
24D
100
AcDbEntity
  8
_U+30EC_U+30A4_U+30E4_U+30FC 1
 62
    12
420
 15007761
370
    35
100
AcDbVertex
100
AcDb2dVertex
 10
236.1409743169747
 20
-115.664195636264
 30
0.0
  0
VERTEX
  5
25A
330
24D
100
AcDbEntity
  8
_U+30EC_U+30A4_U+30E4_U+30FC 1
 62
    12
420
 15007761
370
    35
100
AcDbVertex
100
AcDb2dVertex
 10
237.6206666583786
 20
-112.6057659251985
 30
0.0
  0
VERTEX
  5
25B
330
24D
100
AcDbEntity
  8
_U+30EC_U+30A4_U+30E4_U+30FC 1
 62
    12
420
 15007761
370
    35
100
AcDbVertex
100
AcDb2dVertex
 10
239.2165706367535
 20
-109.5642114872809
 30
0.0
  0
VERTEX
  5
25C
330
24D
100
AcDbEntity
  8
_U+30EC_U+30A4_U+30E4_U+30FC 1
 62
    12
420
 15007761
370
    35
100
AcDbVertex
100
AcDb2dVertex
 10
240.9229874600294
 20
-106.5387047920212
 30
0.0
  0
VERTEX
  5
25D
330
24D
100
AcDbEntity
  8
_U+30EC_U+30A4_U+30E4_U+30FC 1
 62
    12
420
 15007761
370
    35
100
AcDbVertex
100
AcDb2dVertex
 10
242.7354626300541
 20
-103.5285989947905
 30
0.0
  0
VERTEX
  5
25E
330
24D
100
AcDbEntity
  8
_U+30EC_U+30A4_U+30E4_U+30FC 1
 62
    12
420
 15007761
370
    35
100
AcDbVertex
100
AcDb2dVertex
 10
244.6511735852309
 20
-100.5334842270134
 30
0.0
  0
SEQEND
  5
25F
330
24D
100
AcDbEntity
  8
_U+30EC_U+30A4_U+30E4_U+30FC 1
 62
    12
420
 15007761
370
    35
  0
ENDBLK
  5
24C
330
249
100
AcDbEntity
  8
0
100
AcDbBlockEnd
  0
BLOCK
  5
262
330
260
100
AcDbEntity
  8
0
100
AcDbBlockBegin
  2
block 47
 70
     0
 10
0.0
 20
0.0
 30
0.0
  3
block 47
  1

  0
SPLINE
  5
264
330
260
100
AcDbEntity
  8
_U+30EC_U+30A4_U+30E4_U+30FC 1
 62
    12
420
 15007761
370
    35
100
AcDbSpline
210
0.0
220
0.0
230
1.0
 70
    11
 71
     3
 72
    20
 73
    16
 74
     0
 42
0.0000000001
 43
0.0000000001
 12
1.0
 22
0.0
 32
0.0
 13
1.0
 23
0.0
 33
0.0
 40
0.0
 40
0.0
 40
0.0
 40
0.0
 40
1.0
 40
1.0
 40
1.0
 40
2.0
 40
2.0
 40
2.0
 40
3.0
 40
3.0
 40
3.0
 40
4.0
 40
4.0
 40
4.0
 40
5.0
 40
5.0
 40
5.0
 40
5.0
 10
150.5516611397287
 20
-14.68990348485604
 30
0.0
 10
150.5516611397287
 20
-14.68990348485604
 30
0.0
 10
150.5516611397296
 20
-26.28990333733465
 30
0.0
 10
150.5516611397296
 20
-26.28990333733465
 30
0.0
 10
150.5516611397296
 20
-29.09274844272555
 30
0.0
 10
148.2795062451211
 20
-31.36490333733443
 30
0.0
 10
145.4766611397302
 20
-31.36490333733508
 30
0.0
 10
142.6738160343393
 20
-31.36490333733508
 30
0.0
 10
140.4016611397298
 20
-29.09274844272619
 30
0.0
 10
140.4016611397295
 20
-26.2899033373353
 30
0.0
 10
140.4016611397295
 20
-26.2899033373353
 30
0.0
 10
140.4016611397291
 20
-14.68990348485668
 30
0.0
 10
140.4016611397291
 20
-14.68990348485668
 30
0.0
 10
140.4016611397291
 20
-14.68990348485668
 30
0.0
 10
150.5516611397287
 20
-14.68990348485604
 30
0.0
 10
150.5516611397287
 20
-14.68990348485604
 30
0.0
  0
ENDBLK
  5
263
330
260
100
AcDbEntity
  8
0
100
AcDbBlockEnd
  0
BLOCK
  5
267
330
265
100
AcDbEntity
  8
0
100
AcDbBlockBegin
  2
block 48
 70
     0
 10
0.0
 20
0.0
 30
0.0
  3
block 48
  1

  0
SPLINE
  5
269
330
265
100
AcDbEntity
  8
_U+30EC_U+30A4_U+30E4_U+30FC 1
 62
    12
420
 15007761
370
    35
100
AcDbSpline
210
0.0
220
0.0
230
1.0
 70
    11
 71
     3
 72
    20
 73
    16
 74
     0
 42
0.0000000001
 43
0.0000000001
 12
1.0
 22
0.0
 32
0.0
 13
1.0
 23
0.0
 33
0.0
 40
0.0
 40
0.0
 40
0.0
 40
0.0
 40
1.0
 40
1.0
 40
1.0
 40
2.0
 40
2.0
 40
2.0
 40
3.0
 40
3.0
 40
3.0
 40
4.0
 40
4.0
 40
4.0
 40
5.0
 40
5.0
 40
5.0
 40
5.0
 10
143.9016611732571
 20
-26.28990333733465
 30
0.0
 10
143.9016611732571
 20
-25.46147623110541
 30
0.0
 10
144.5732340335004
 20
-24.78990337086242
 30
0.0
 10
145.4016611397296
 20
-24.78990337086242
 30
0.0
 10
146.2300882459589
 20
-24.78990337086242
 30
0.0
 10
146.9016611062022
 20
-25.46147623110541
 30
0.0
 10
146.9016611062022
 20
-26.28990333733465
 30
0.0
 10
146.9016611062022
 20
-27.11833044356454
 30
0.0
 10
146.2300882459589
 20
-27.78990330380754
 30
0.0
 10
145.4016611397296
 20
-27.78990330380754
 30
0.0
 10
144.5732340335004
 20
-27.78990330380754
 30
0.0
 10
143.9016611732571
 20
-27.11833044356454
 30
0.0
 10
143.9016611732571
 20
-26.28990333733465
 30
0.0
 10
143.9016611732571
 20
-26.28990333733465
 30
0.0
 10
143.9016611732571
 20
-26.28990333733465
 30
0.0
 10
143.9016611732571
 20
-26.28990333733465
 30
0.0
  0
ENDBLK
  5
268
330
265
100
AcDbEntity
  8
0
100
AcDbBlockEnd
  0
BLOCK
  5
26C
330
26A
100
AcDbEntity
  8
0
100
AcDbBlockBegin
  2
block 49
 70
     0
 10
0.0
 20
0.0
 30
0.0
  3
block 49
  1

  0
SPLINE
  5
26E
330
26A
100
AcDbEntity
  8
_U+30EC_U+30A4_U+30E4_U+30FC 1
 62
    12
420
 15007761
370
    35
100
AcDbSpline
210
0.0
220
0.0
230
1.0
 70
    11
 71
     3
 72
    20
 73
    16
 74
     0
 42
0.0000000001
 43
0.0000000001
 12
1.0
 22
0.0
 32
0.0
 13
1.0
 23
0.0
 33
0.0
 40
0.0
 40
0.0
 40
0.0
 40
0.0
 40
1.0
 40
1.0
 40
1.0
 40
2.0
 40
2.0
 40
2.0
 40
3.0
 40
3.0
 40
3.0
 40
4.0
 40
4.0
 40
4.0
 40
5.0
 40
5.0
 40
5.0
 40
5.0
 10
145.4766611397302
 20
-50.63921851074689
 30
0.0
 10
146.3050862936893
 20
-50.63921851074689
 30
0.0
 10
146.9766575713041
 20
-49.96764563549327
 30
0.0
 10
146.9766575713041
 20
-49.13921851074716
 30
0.0
 10
146.9766575713041
 20
-48.31079138600105
 30
0.0
 10
146.3050862936893
 20
-47.63921851074679
 30
0.0
 10
145.4766611397302
 20
-47.63921851074679
 30
0.0
 10
144.6482359857705
 20
-47.63921851074679
 30
0.0
 10
143.9766647081543
 20
-48.31079138600105
 30
0.0
 10
143.9766647081543
 20
-49.13921851074716
 30
0.0
 10
143.9766647081543
 20
-49.96764563549327
 30
0.0
 10
144.6482359857705
 20
-50.63921851074689
 30
0.0
 10
145.4766611397302
 20
-50.63921851074689
 30
0.0
 10
145.4766611397302
 20
-50.63921851074689
 30
0.0
 10
145.4766611397302
 20
-50.63921851074689
 30
0.0
 10
145.4766611397302
 20
-50.63921851074689
 30
0.0
  0
ENDBLK
  5
26D
330
26A
100
AcDbEntity
  8
0
100
AcDbBlockEnd
  0
BLOCK
  5
271
330
26F
100
AcDbEntity
  8
0
100
AcDbBlockBegin
  2
block 50
 70
     0
 10
0.0
 20
0.0
 30
0.0
  3
block 50
  1

  0
POLYLINE
  5
273
330
26F
100
AcDbEntity
  8
_U+30EC_U+30A4_U+30E4_U+30FC 1
 62
    12
420
 15007761
370
    35
100
AcDb2dPolyline
 66
     1
 10
0.0
 20
0.0
 30
0.0
  0
VERTEX
  5
274
330
273
100
AcDbEntity
  8
_U+30EC_U+30A4_U+30E4_U+30FC 1
 62
    12
420
 15007761
370
    35
100
AcDbVertex
100
AcDb2dVertex
 10
142.401668455001
 20
-38.01600144690349
 30
0.0
  0
VERTEX
  5
275
330
273
100
AcDbEntity
  8
_U+30EC_U+30A4_U+30E4_U+30FC 1
 62
    12
420
 15007761
370
    35
100
AcDbVertex
100
AcDb2dVertex
 10
142.401668455001
 20
-49.13921851074716
 30
0.0
  0
SEQEND
  5
276
330
273
100
AcDbEntity
  8
_U+30EC_U+30A4_U+30E4_U+30FC 1
 62
    12
420
 15007761
370
    35
  0
ENDBLK
  5
272
330
26F
100
AcDbEntity
  8
0
100
AcDbBlockEnd
  0
BLOCK
  5
279
330
277
100
AcDbEntity
  8
0
100
AcDbBlockBegin
  2
block 51
 70
     0
 10
0.0
 20
0.0
 30
0.0
  3
block 51
  1

  0
SPLINE
  5
27B
330
277
100
AcDbEntity
  8
_U+30EC_U+30A4_U+30E4_U+30FC 1
 62
    12
420
 15007761
370
    35
100
AcDbSpline
210
0.0
220
0.0
230
1.0
 70
     8
 71
     3
 72
    11
 73
     7
 74
     0
 42
0.0000000001
 43
0.0000000001
 12
1.0
 22
0.0
 32
0.0
 13
1.0
 23
0.0
 33
0.0
 40
0.0
 40
0.0
 40
0.0
 40
0.0
 40
1.0
 40
1.0
 40
1.0
 40
2.0
 40
2.0
 40
2.0
 40
2.0
 10
142.401668455001
 20
-49.13921851074716
 30
0.0
 10
142.5012342460843
 20
-50.83749411647679
 30
0.0
 10
143.9586693864991
 20
-52.13350429742935
 30
0.0
 10
145.6569409521153
 20
-52.03393826948379
 30
0.0
 10
147.2162123341889
 20
-51.94252152486771
 30
0.0
 10
148.4602372973177
 20
-50.69849360225825
 30
0.0
 10
148.5516538244574
 20
-49.13921851074652
 30
0.0
  0
ENDBLK
  5
27A
330
277
100
AcDbEntity
  8
0
100
AcDbBlockEnd
  0
BLOCK
  5
27E
330
27C
100
AcDbEntity
  8
0
100
AcDbBlockBegin
  2
block 52
 70
     0
 10
0.0
 20
0.0
 30
0.0
  3
block 52
  1

  0
POLYLINE
  5
280
330
27C
100
AcDbEntity
  8
_U+30EC_U+30A4_U+30E4_U+30FC 1
 62
    12
420
 15007761
370
    35
100
AcDb2dPolyline
 66
     1
 10
0.0
 20
0.0
 30
0.0
  0
VERTEX
  5
281
330
280
100
AcDbEntity
  8
_U+30EC_U+30A4_U+30E4_U+30FC 1
 62
    12
420
 15007761
370
    35
100
AcDbVertex
100
AcDb2dVertex
 10
148.5516538244574
 20
-49.13921851074652
 30
0.0
  0
VERTEX
  5
282
330
280
100
AcDbEntity
  8
_U+30EC_U+30A4_U+30E4_U+30FC 1
 62
    12
420
 15007761
370
    35
100
AcDbVertex
100
AcDb2dVertex
 10
148.5516538244574
 20
-38.01600144690349
 30
0.0
  0
SEQEND
  5
283
330
280
100
AcDbEntity
  8
_U+30EC_U+30A4_U+30E4_U+30FC 1
 62
    12
420
 15007761
370
    35
  0
ENDBLK
  5
27F
330
27C
100
AcDbEntity
  8
0
100
AcDbBlockEnd
  0
BLOCK
  5
286
330
284
100
AcDbEntity
  8
0
100
AcDbBlockBegin
  2
block 53
 70
     0
 10
0.0
 20
0.0
 30
0.0
  3
block 53
  1

  0
POLYLINE
  5
288
330
284
100
AcDbEntity
  8
_U+30EC_U+30A4_U+30E4_U+30FC 1
 62
    12
420
 15007761
370
    35
100
AcDb2dPolyline
 66
     1
 10
0.0
 20
0.0
 30
0.0
  0
VERTEX
  5
289
330
288
100
AcDbEntity
  8
_U+30EC_U+30A4_U+30E4_U+30FC 1
 62
    12
420
 15007761
370
    35
100
AcDbVertex
100
AcDb2dVertex
 10
148.5516538244574
 20
-38.01600144690349
 30
0.0
  0
VERTEX
  5
28A
330
288
100
AcDbEntity
  8
_U+30EC_U+30A4_U+30E4_U+30FC 1
 62
    12
420
 15007761
370
    35
100
AcDbVertex
100
AcDb2dVertex
 10
142.401668455001
 20
-38.01600144690349
 30
0.0
  0
SEQEND
  5
28B
330
288
100
AcDbEntity
  8
_U+30EC_U+30A4_U+30E4_U+30FC 1
 62
    12
420
 15007761
370
    35
  0
ENDBLK
  5
287
330
284
100
AcDbEntity
  8
0
100
AcDbBlockEnd
  0
BLOCK
  5
28E
330
28C
100
AcDbEntity
  8
0
100
AcDbBlockBegin
  2
block 54
 70
     0
 10
0.0
 20
0.0
 30
0.0
  3
block 54
  1

  0
SPLINE
  5
290
330
28C
100
AcDbEntity
  8
_U+30EC_U+30A4_U+30E4_U+30FC 1
 62
    12
420
 15007761
370
    35
100
AcDbSpline
210
0.0
220
0.0
230
1.0
 70
    11
 71
     3
 72
    20
 73
    16
 74
     0
 42
0.0000000001
 43
0.0000000001
 12
1.0
 22
0.0
 32
0.0
 13
1.0
 23
0.0
 33
0.0
 40
0.0
 40
0.0
 40
0.0
 40
0.0
 40
1.0
 40
1.0
 40
1.0
 40
2.0
 40
2.0
 40
2.0
 40
3.0
 40
3.0
 40
3.0
 40
4.0
 40
4.0
 40
4.0
 40
5.0
 40
5.0
 40
5.0
 40
5.0
 10
173.7217073540459
 20
-15.02740341109544
 30
0.0
 10
173.7217073540459
 20
-15.02740341109544
 30
0.0
 10
173.7217073540469
 20
-26.62740326357405
 30
0.0
 10
173.7217073540469
 20
-26.62740326357405
 30
0.0
 10
173.7217073540469
 20
-29.43024836896495
 30
0.0
 10
171.449552459439
 20
-31.70240326357383
 30
0.0
 10
168.6467073540471
 20
-31.70240326357447
 30
0.0
 10
165.8438622486559
 20
-31.70240326357447
 30
0.0
 10
163.571707354047
 20
-29.43024836896559
 30
0.0
 10
163.571707354047
 20
-26.62740326357469
 30
0.0
 10
163.571707354047
 20
-26.62740326357469
 30
0.0
 10
163.571707354046
 20
-15.02740341109608
 30
0.0
 10
163.571707354046
 20
-15.02740341109608
 30
0.0
 10
163.571707354046
 20
-15.02740341109608
 30
0.0
 10
173.7217073540459
 20
-15.02740341109544
 30
0.0
 10
173.7217073540459
 20
-15.02740341109544
 30
0.0
  0
ENDBLK
  5
28F
330
28C
100
AcDbEntity
  8
0
100
AcDbBlockEnd
  0
BLOCK
  5
293
330
291
100
AcDbEntity
  8
0
100
AcDbBlockBegin
  2
block 55
 70
     0
 10
0.0
 20
0.0
 30
0.0
  3
block 55
  1

  0
SPLINE
  5
295
330
291
100
AcDbEntity
  8
_U+30EC_U+30A4_U+30E4_U+30FC 1
 62
    12
420
 15007761
370
    35
100
AcDbSpline
210
0.0
220
0.0
230
1.0
 70
    11
 71
     3
 72
    20
 73
    16
 74
     0
 42
0.0000000001
 43
0.0000000001
 12
1.0
 22
0.0
 32
0.0
 13
1.0
 23
0.0
 33
0.0
 40
0.0
 40
0.0
 40
0.0
 40
0.0
 40
1.0
 40
1.0
 40
1.0
 40
2.0
 40
2.0
 40
2.0
 40
3.0
 40
3.0
 40
3.0
 40
4.0
 40
4.0
 40
4.0
 40
5.0
 40
5.0
 40
5.0
 40
5.0
 10
167.0717073875743
 20
-26.62740326357405
 30
0.0
 10
167.0717073875743
 20
-25.7989761573448
 30
0.0
 10
167.7432802478173
 20
-25.12740329710181
 30
0.0
 10
168.5717073540469
 20
-25.12740329710181
 30
0.0
 10
169.4001344602761
 20
-25.12740329710181
 30
0.0
 10
170.0717073205191
 20
-25.7989761573448
 30
0.0
 10
170.0717073205191
 20
-26.62740326357405
 30
0.0
 10
170.0717073205191
 20
-27.45583036980393
 30
0.0
 10
169.4001344602761
 20
-28.12740323004693
 30
0.0
 10
168.5717073540469
 20
-28.12740323004693
 30
0.0
 10
167.7432802478173
 20
-28.12740323004693
 30
0.0
 10
167.0717073875743
 20
-27.45583036980393
 30
0.0
 10
167.0717073875743
 20
-26.62740326357405
 30
0.0
 10
167.0717073875743
 20
-26.62740326357405
 30
0.0
 10
167.0717073875743
 20
-26.62740326357405
 30
0.0
 10
167.0717073875743
 20
-26.62740326357405
 30
0.0
  0
ENDBLK
  5
294
330
291
100
AcDbEntity
  8
0
100
AcDbBlockEnd
  0
BLOCK
  5
298
330
296
100
AcDbEntity
  8
0
100
AcDbBlockBegin
  2
block 56
 70
     0
 10
0.0
 20
0.0
 30
0.0
  3
block 56
  1

  0
SPLINE
  5
29A
330
296
100
AcDbEntity
  8
_U+30EC_U+30A4_U+30E4_U+30FC 1
 62
    12
420
 15007761
370
    35
100
AcDbSpline
210
0.0
220
0.0
230
1.0
 70
    11
 71
     3
 72
    20
 73
    16
 74
     0
 42
0.0000000001
 43
0.0000000001
 12
1.0
 22
0.0
 32
0.0
 13
1.0
 23
0.0
 33
0.0
 40
0.0
 40
0.0
 40
0.0
 40
0.0
 40
1.0
 40
1.0
 40
1.0
 40
2.0
 40
2.0
 40
2.0
 40
3.0
 40
3.0
 40
3.0
 40
4.0
 40
4.0
 40
4.0
 40
5.0
 40
5.0
 40
5.0
 40
5.0
 10
168.6467073540471
 20
-50.97671843698629
 30
0.0
 10
169.4751325080065
 20
-50.97671843698629
 30
0.0
 10
170.1467037856214
 20
-50.30514556173267
 30
0.0
 10
170.1467037856214
 20
-49.47671843698655
 30
0.0
 10
170.1467037856214
 20
-48.64829131224045
 30
0.0
 10
169.4751325080065
 20
-47.97671843698618
 30
0.0
 10
168.6467073540471
 20
-47.97671843698618
 30
0.0
 10
167.8182822000877
 20
-47.97671843698618
 30
0.0
 10
167.1467109224716
 20
-48.64829131224045
 30
0.0
 10
167.1467109224716
 20
-49.47671843698655
 30
0.0
 10
167.1467109224716
 20
-50.30514556173267
 30
0.0
 10
167.8182822000877
 20
-50.97671843698629
 30
0.0
 10
168.6467073540471
 20
-50.97671843698629
 30
0.0
 10
168.6467073540471
 20
-50.97671843698629
 30
0.0
 10
168.6467073540471
 20
-50.97671843698629
 30
0.0
 10
168.6467073540471
 20
-50.97671843698629
 30
0.0
  0
ENDBLK
  5
299
330
296
100
AcDbEntity
  8
0
100
AcDbBlockEnd
  0
BLOCK
  5
29D
330
29B
100
AcDbEntity
  8
0
100
AcDbBlockBegin
  2
block 57
 70
     0
 10
0.0
 20
0.0
 30
0.0
  3
block 57
  1

  0
POLYLINE
  5
29F
330
29B
100
AcDbEntity
  8
_U+30EC_U+30A4_U+30E4_U+30FC 1
 62
    12
420
 15007761
370
    35
100
AcDb2dPolyline
 66
     1
 10
0.0
 20
0.0
 30
0.0
  0
VERTEX
  5
2A0
330
29F
100
AcDbEntity
  8
_U+30EC_U+30A4_U+30E4_U+30FC 1
 62
    12
420
 15007761
370
    35
100
AcDbVertex
100
AcDb2dVertex
 10
165.5717146693183
 20
-38.35350137314352
 30
0.0
  0
VERTEX
  5
2A1
330
29F
100
AcDbEntity
  8
_U+30EC_U+30A4_U+30E4_U+30FC 1
 62
    12
420
 15007761
370
    35
100
AcDbVertex
100
AcDb2dVertex
 10
165.5717146693183
 20
-49.47671843698655
 30
0.0
  0
SEQEND
  5
2A2
330
29F
100
AcDbEntity
  8
_U+30EC_U+30A4_U+30E4_U+30FC 1
 62
    12
420
 15007761
370
    35
  0
ENDBLK
  5
29E
330
29B
100
AcDbEntity
  8
0
100
AcDbBlockEnd
  0
BLOCK
  5
2A5
330
2A3
100
AcDbEntity
  8
0
100
AcDbBlockBegin
  2
block 58
 70
     0
 10
0.0
 20
0.0
 30
0.0
  3
block 58
  1

  0
SPLINE
  5
2A7
330
2A3
100
AcDbEntity
  8
_U+30EC_U+30A4_U+30E4_U+30FC 1
 62
    12
420
 15007761
370
    35
100
AcDbSpline
210
0.0
220
0.0
230
1.0
 70
     8
 71
     3
 72
    11
 73
     7
 74
     0
 42
0.0000000001
 43
0.0000000001
 12
1.0
 22
0.0
 32
0.0
 13
1.0
 23
0.0
 33
0.0
 40
0.0
 40
0.0
 40
0.0
 40
0.0
 40
1.0
 40
1.0
 40
1.0
 40
2.0
 40
2.0
 40
2.0
 40
2.0
 10
165.5717146693183
 20
-49.47671843698655
 30
0.0
 10
165.6712804604012
 20
-51.17499404271618
 30
0.0
 10
167.1287156008163
 20
-52.47100422366875
 30
0.0
 10
168.8269871664325
 20
-52.37143819572319
 30
0.0
 10
170.3862585485061
 20
-52.2800214511071
 30
0.0
 10
171.6302835116349
 20
-51.03599352849765
 30
0.0
 10
171.7217000387747
 20
-49.47671843698591
 30
0.0
  0
ENDBLK
  5
2A6
330
2A3
100
AcDbEntity
  8
0
100
AcDbBlockEnd
  0
BLOCK
  5
2AA
330
2A8
100
AcDbEntity
  8
0
100
AcDbBlockBegin
  2
block 59
 70
     0
 10
0.0
 20
0.0
 30
0.0
  3
block 59
  1

  0
POLYLINE
  5
2AC
330
2A8
100
AcDbEntity
  8
_U+30EC_U+30A4_U+30E4_U+30FC 1
 62
    12
420
 15007761
370
    35
100
AcDb2dPolyline
 66
     1
 10
0.0
 20
0.0
 30
0.0
  0
VERTEX
  5
2AD
330
2AC
100
AcDbEntity
  8
_U+30EC_U+30A4_U+30E4_U+30FC 1
 62
    12
420
 15007761
370
    35
100
AcDbVertex
100
AcDb2dVertex
 10
171.7217000387747
 20
-49.47671843698591
 30
0.0
  0
VERTEX
  5
2AE
330
2AC
100
AcDbEntity
  8
_U+30EC_U+30A4_U+30E4_U+30FC 1
 62
    12
420
 15007761
370
    35
100
AcDbVertex
100
AcDb2dVertex
 10
171.7217000387747
 20
-38.35350137314352
 30
0.0
  0
SEQEND
  5
2AF
330
2AC
100
AcDbEntity
  8
_U+30EC_U+30A4_U+30E4_U+30FC 1
 62
    12
420
 15007761
370
    35
  0
ENDBLK
  5
2AB
330
2A8
100
AcDbEntity
  8
0
100
AcDbBlockEnd
  0
BLOCK
  5
2B2
330
2B0
100
AcDbEntity
  8
0
100
AcDbBlockBegin
  2
block 60
 70
     0
 10
0.0
 20
0.0
 30
0.0
  3
block 60
  1

  0
POLYLINE
  5
2B4
330
2B0
100
AcDbEntity
  8
_U+30EC_U+30A4_U+30E4_U+30FC 1
 62
    12
420
 15007761
370
    35
100
AcDb2dPolyline
 66
     1
 10
0.0
 20
0.0
 30
0.0
  0
VERTEX
  5
2B5
330
2B4
100
AcDbEntity
  8
_U+30EC_U+30A4_U+30E4_U+30FC 1
 62
    12
420
 15007761
370
    35
100
AcDbVertex
100
AcDb2dVertex
 10
171.7217000387747
 20
-38.35350137314352
 30
0.0
  0
VERTEX
  5
2B6
330
2B4
100
AcDbEntity
  8
_U+30EC_U+30A4_U+30E4_U+30FC 1
 62
    12
420
 15007761
370
    35
100
AcDbVertex
100
AcDb2dVertex
 10
165.5717146693183
 20
-38.35350137314352
 30
0.0
  0
SEQEND
  5
2B7
330
2B4
100
AcDbEntity
  8
_U+30EC_U+30A4_U+30E4_U+30FC 1
 62
    12
420
 15007761
370
    35
  0
ENDBLK
  5
2B3
330
2B0
100
AcDbEntity
  8
0
100
AcDbBlockEnd
  0
BLOCK
  5
2BA
330
2B8
100
AcDbEntity
  8
0
100
AcDbBlockBegin
  2
block 61
 70
     0
 10
0.0
 20
0.0
 30
0.0
  3
block 61
  1

  0
INSERT
  5
2BD
330
2B8
100
AcDbEntity
  8
_U+30EC_U+30A4_U+30E4_U+30FC 1
100
AcDbBlockReference
  2
block 62
 10
0.0
 20
0.0
 30
0.0
  0
INSERT
  5
2C2
330
2B8
100
AcDbEntity
  8
_U+30EC_U+30A4_U+30E4_U+30FC 1
100
AcDbBlockReference
  2
block 63
 10
0.0
 20
0.0
 30
0.0
  0
INSERT
  5
2C7
330
2B8
100
AcDbEntity
  8
_U+30EC_U+30A4_U+30E4_U+30FC 1
100
AcDbBlockReference
  2
block 64
 10
0.0
 20
0.0
 30
0.0
  0
INSERT
  5
2CC
330
2B8
100
AcDbEntity
  8
_U+30EC_U+30A4_U+30E4_U+30FC 1
100
AcDbBlockReference
  2
block 65
 10
0.0
 20
0.0
 30
0.0
  0
ENDBLK
  5
2BB
330
2B8
100
AcDbEntity
  8
0
100
AcDbBlockEnd
  0
BLOCK
  5
2BE
330
2BC
100
AcDbEntity
  8
0
100
AcDbBlockBegin
  2
block 62
 70
     0
 10
0.0
 20
0.0
 30
0.0
  3
block 62
  1

  0
SPLINE
  5
2C0
330
2BC
100
AcDbEntity
  8
_U+30EC_U+30A4_U+30E4_U+30FC 1
 62
    12
420
 15007761
370
    35
100
AcDbSpline
210
0.0
220
0.0
230
1.0
 70
    11
 71
     3
 72
    20
 73
    16
 74
     0
 42
0.0000000001
 43
0.0000000001
 12
1.0
 22
0.0
 32
0.0
 13
1.0
 23
0.0
 33
0.0
 40
0.0
 40
0.0
 40
0.0
 40
0.0
 40
1.0
 40
1.0
 40
1.0
 40
2.0
 40
2.0
 40
2.0
 40
3.0
 40
3.0
 40
3.0
 40
4.0
 40
4.0
 40
4.0
 40
5.0
 40
5.0
 40
5.0
 40
5.0
 10
192.1738474649621
 20
-20.03335761573969
 30
0.0
 10
192.1738474649621
 20
-19.20493049099358
 30
0.0
 10
192.8454203402158
 20
-18.53335761573964
 30
0.0
 10
193.6738474649625
 20
-18.53335761573964
 30
0.0
 10
194.502274589708
 20
-18.53335761573964
 30
0.0
 10
195.1738474649629
 20
-19.20493049099358
 30
0.0
 10
195.1738474649629
 20
-20.03335761573969
 30
0.0
 10
195.1738474649629
 20
-20.86178474048581
 30
0.0
 10
194.502274589708
 20
-21.53335761573975
 30
0.0
 10
193.6738474649625
 20
-21.53335761573975
 30
0.0
 10
192.8454203402158
 20
-21.53335761573975
 30
0.0
 10
192.1738474649621
 20
-20.86178474048581
 30
0.0
 10
192.1738474649621
 20
-20.03335761573969
 30
0.0
 10
192.1738474649621
 20
-20.03335761573969
 30
0.0
 10
192.1738474649621
 20
-20.03335761573969
 30
0.0
 10
192.1738474649621
 20
-20.03335761573969
 30
0.0
  0
ENDBLK
  5
2BF
330
2BC
100
AcDbEntity
  8
0
100
AcDbBlockEnd
  0
BLOCK
  5
2C3
330
2C1
100
AcDbEntity
  8
0
100
AcDbBlockBegin
  2
block 63
 70
     0
 10
0.0
 20
0.0
 30
0.0
  3
block 63
  1

  0
SPLINE
  5
2C5
330
2C1
100
AcDbEntity
  8
_U+30EC_U+30A4_U+30E4_U+30FC 1
 62
    12
420
 15007761
370
    35
100
AcDbSpline
210
0.0
220
0.0
230
1.0
 70
    11
 71
     3
 72
    20
 73
    16
 74
     0
 42
0.0000000001
 43
0.0000000001
 12
1.0
 22
0.0
 32
0.0
 13
1.0
 23
0.0
 33
0.0
 40
0.0
 40
0.0
 40
0.0
 40
0.0
 40
1.0
 40
1.0
 40
1.0
 40
2.0
 40
2.0
 40
2.0
 40
3.0
 40
3.0
 40
3.0
 40
4.0
 40
4.0
 40
4.0
 40
5.0
 40
5.0
 40
5.0
 40
5.0
 10
190.1738474649621
 20
-20.03335761573969
 30
0.0
 10
190.1738474649621
 20
-18.10036099133199
 30
0.0
 10
191.7408508405542
 20
-16.53335761573957
 30
0.0
 10
193.6738474649625
 20
-16.53335761573957
 30
0.0
 10
195.6068440893699
 20
-16.53335761573957
 30
0.0
 10
197.1738474649617
 20
-18.10036099133199
 30
0.0
 10
197.1738474649617
 20
-20.03335761573969
 30
0.0
 10
197.1738474649617
 20
-21.9663542401474
 30
0.0
 10
195.6068440893699
 20
-23.5333576157395
 30
0.0
 10
193.6738474649625
 20
-23.5333576157395
 30
0.0
 10
191.7408508405542
 20
-23.5333576157395
 30
0.0
 10
190.1738474649621
 20
-21.9663542401474
 30
0.0
 10
190.1738474649621
 20
-20.03335761573969
 30
0.0
 10
190.1738474649621
 20
-20.03335761573969
 30
0.0
 10
190.1738474649621
 20
-20.03335761573969
 30
0.0
 10
190.1738474649621
 20
-20.03335761573969
 30
0.0
  0
ENDBLK
  5
2C4
330
2C1
100
AcDbEntity
  8
0
100
AcDbBlockEnd
  0
BLOCK
  5
2C8
330
2C6
100
AcDbEntity
  8
0
100
AcDbBlockBegin
  2
block 64
 70
     0
 10
0.0
 20
0.0
 30
0.0
  3
block 64
  1

  0
SPLINE
  5
2CA
330
2C6
100
AcDbEntity
  8
_U+30EC_U+30A4_U+30E4_U+30FC 1
 62
    12
420
 15007761
370
    35
100
AcDbSpline
210
0.0
220
0.0
230
1.0
 70
    11
 71
     3
 72
    20
 73
    16
 74
     0
 42
0.0000000001
 43
0.0000000001
 12
1.0
 22
0.0
 32
0.0
 13
1.0
 23
0.0
 33
0.0
 40
0.0
 40
0.0
 40
0.0
 40
0.0
 40
1.0
 40
1.0
 40
1.0
 40
2.0
 40
2.0
 40
2.0
 40
3.0
 40
3.0
 40
3.0
 40
4.0
 40
4.0
 40
4.0
 40
5.0
 40
5.0
 40
5.0
 40
5.0
 10
192.1738474649618
 20
-35.03335761573958
 30
0.0
 10
192.1738474649618
 20
-34.20493049099347
 30
0.0
 10
192.8454203402158
 20
-33.53335761573985
 30
0.0
 10
193.6738474649625
 20
-33.53335761573985
 30
0.0
 10
194.502274589708
 20
-33.53335761573985
 30
0.0
 10
195.1738474649616
 20
-34.20493049099347
 30
0.0
 10
195.1738474649616
 20
-35.03335761573958
 30
0.0
 10
195.1738474649616
 20
-35.8617847404857
 30
0.0
 10
194.502274589708
 20
-36.53335761573931
 30
0.0
 10
193.6738474649625
 20
-36.53335761573931
 30
0.0
 10
192.8454203402158
 20
-36.53335761573931
 30
0.0
 10
192.1738474649618
 20
-35.8617847404857
 30
0.0
 10
192.1738474649618
 20
-35.03335761573958
 30
0.0
 10
192.1738474649618
 20
-35.03335761573958
 30
0.0
 10
192.1738474649618
 20
-35.03335761573958
 30
0.0
 10
192.1738474649618
 20
-35.03335761573958
 30
0.0
  0
ENDBLK
  5
2C9
330
2C6
100
AcDbEntity
  8
0
100
AcDbBlockEnd
  0
BLOCK
  5
2CD
330
2CB
100
AcDbEntity
  8
0
100
AcDbBlockBegin
  2
block 65
 70
     0
 10
0.0
 20
0.0
 30
0.0
  3
block 65
  1

  0
SPLINE
  5
2CF
330
2CB
100
AcDbEntity
  8
_U+30EC_U+30A4_U+30E4_U+30FC 1
 62
    12
420
 15007761
370
    35
100
AcDbSpline
210
0.0
220
0.0
230
1.0
 70
    11
 71
     3
 72
    20
 73
    16
 74
     0
 42
0.0000000001
 43
0.0000000001
 12
1.0
 22
0.0
 32
0.0
 13
1.0
 23
0.0
 33
0.0
 40
0.0
 40
0.0
 40
0.0
 40
0.0
 40
1.0
 40
1.0
 40
1.0
 40
2.0
 40
2.0
 40
2.0
 40
3.0
 40
3.0
 40
3.0
 40
4.0
 40
4.0
 40
4.0
 40
5.0
 40
5.0
 40
5.0
 40
5.0
 10
190.1738474649617
 20
-35.03335761573958
 30
0.0
 10
190.1738474649617
 20
-33.10036099133156
 30
0.0
 10
191.7408508405538
 20
-31.53335761573978
 30
0.0
 10
193.6738474649625
 20
-31.53335761573978
 30
0.0
 10
195.6068440893699
 20
-31.53335761573978
 30
0.0
 10
197.1738474649617
 20
-33.10036099133156
 30
0.0
 10
197.1738474649617
 20
-35.03335761573958
 30
0.0
 10
197.1738474649617
 20
-36.9663542401476
 30
0.0
 10
195.6068440893699
 20
-38.53335761573938
 30
0.0
 10
193.6738474649625
 20
-38.53335761573938
 30
0.0
 10
191.7408508405538
 20
-38.53335761573938
 30
0.0
 10
190.1738474649617
 20
-36.9663542401476
 30
0.0
 10
190.1738474649617
 20
-35.03335761573958
 30
0.0
 10
190.1738474649617
 20
-35.03335761573958
 30
0.0
 10
190.1738474649617
 20
-35.03335761573958
 30
0.0
 10
190.1738474649617
 20
-35.03335761573958
 30
0.0
  0
ENDBLK
  5
2CE
330
2CB
100
AcDbEntity
  8
0
100
AcDbBlockEnd
  0
BLOCK
  5
2D2
330
2D0
100
AcDbEntity
  8
0
100
AcDbBlockBegin
  2
block 66
 70
     0
 10
0.0
 20
0.0
 30
0.0
  3
block 66
  1

  0
INSERT
  5
2D5
330
2D0
100
AcDbEntity
  8
_U+30EC_U+30A4_U+30E4_U+30FC 1
100
AcDbBlockReference
  2
block 67
 10
0.0
 20
0.0
 30
0.0
  0
INSERT
  5
2DA
330
2D0
100
AcDbEntity
  8
_U+30EC_U+30A4_U+30E4_U+30FC 1
100
AcDbBlockReference
  2
block 68
 10
0.0
 20
0.0
 30
0.0
  0
INSERT
  5
2DF
330
2D0
100
AcDbEntity
  8
_U+30EC_U+30A4_U+30E4_U+30FC 1
100
AcDbBlockReference
  2
block 69
 10
0.0
 20
0.0
 30
0.0
  0
INSERT
  5
2E4
330
2D0
100
AcDbEntity
  8
_U+30EC_U+30A4_U+30E4_U+30FC 1
100
AcDbBlockReference
  2
block 70
 10
0.0
 20
0.0
 30
0.0
  0
ENDBLK
  5
2D3
330
2D0
100
AcDbEntity
  8
0
100
AcDbBlockEnd
  0
BLOCK
  5
2D6
330
2D4
100
AcDbEntity
  8
0
100
AcDbBlockBegin
  2
block 67
 70
     0
 10
0.0
 20
0.0
 30
0.0
  3
block 67
  1

  0
SPLINE
  5
2D8
330
2D4
100
AcDbEntity
  8
_U+30EC_U+30A4_U+30E4_U+30FC 1
 62
    12
420
 15007761
370
    35
100
AcDbSpline
210
0.0
220
0.0
230
1.0
 70
    11
 71
     3
 72
    20
 73
    16
 74
     0
 42
0.0000000001
 43
0.0000000001
 12
1.0
 22
0.0
 32
0.0
 13
1.0
 23
0.0
 33
0.0
 40
0.0
 40
0.0
 40
0.0
 40
0.0
 40
1.0
 40
1.0
 40
1.0
 40
2.0
 40
2.0
 40
2.0
 40
3.0
 40
3.0
 40
3.0
 40
4.0
 40
4.0
 40
4.0
 40
5.0
 40
5.0
 40
5.0
 40
5.0
 10
192.1738474649624
 20
-49.4336109858091
 30
0.0
 10
192.1738474649624
 20
-48.60518386106299
 30
0.0
 10
192.8454203402161
 20
-47.93361098580905
 30
0.0
 10
193.6738474649625
 20
-47.93361098580905
 30
0.0
 10
194.5022745897086
 20
-47.93361098580905
 30
0.0
 10
195.1738474649629
 20
-48.60518386106299
 30
0.0
 10
195.1738474649629
 20
-49.4336109858091
 30
0.0
 10
195.1738474649629
 20
-50.26203811055522
 30
0.0
 10
194.5022745897086
 20
-50.93361098580916
 30
0.0
 10
193.6738474649625
 20
-50.93361098580916
 30
0.0
 10
192.8454203402161
 20
-50.93361098580916
 30
0.0
 10
192.1738474649624
 20
-50.26203811055522
 30
0.0
 10
192.1738474649624
 20
-49.4336109858091
 30
0.0
 10
192.1738474649624
 20
-49.4336109858091
 30
0.0
 10
192.1738474649624
 20
-49.4336109858091
 30
0.0
 10
192.1738474649624
 20
-49.4336109858091
 30
0.0
  0
ENDBLK
  5
2D7
330
2D4
100
AcDbEntity
  8
0
100
AcDbBlockEnd
  0
BLOCK
  5
2DB
330
2D9
100
AcDbEntity
  8
0
100
AcDbBlockBegin
  2
block 68
 70
     0
 10
0.0
 20
0.0
 30
0.0
  3
block 68
  1

  0
SPLINE
  5
2DD
330
2D9
100
AcDbEntity
  8
_U+30EC_U+30A4_U+30E4_U+30FC 1
 62
    12
420
 15007761
370
    35
100
AcDbSpline
210
0.0
220
0.0
230
1.0
 70
    11
 71
     3
 72
    20
 73
    16
 74
     0
 42
0.0000000001
 43
0.0000000001
 12
1.0
 22
0.0
 32
0.0
 13
1.0
 23
0.0
 33
0.0
 40
0.0
 40
0.0
 40
0.0
 40
0.0
 40
1.0
 40
1.0
 40
1.0
 40
2.0
 40
2.0
 40
2.0
 40
3.0
 40
3.0
 40
3.0
 40
4.0
 40
4.0
 40
4.0
 40
5.0
 40
5.0
 40
5.0
 40
5.0
 10
190.1738474649624
 20
-49.4336109858091
 30
0.0
 10
190.1738474649624
 20
-47.5006143614014
 30
0.0
 10
191.7408508405551
 20
-45.93361098580898
 30
0.0
 10
193.6738474649625
 20
-45.93361098580898
 30
0.0
 10
195.6068440893702
 20
-45.93361098580898
 30
0.0
 10
197.173847464962
 20
-47.5006143614014
 30
0.0
 10
197.173847464962
 20
-49.4336109858091
 30
0.0
 10
197.173847464962
 20
-51.36660761021681
 30
0.0
 10
195.6068440893702
 20
-52.93361098580923
 30
0.0
 10
193.6738474649625
 20
-52.93361098580923
 30
0.0
 10
191.7408508405551
 20
-52.93361098580923
 30
0.0
 10
190.1738474649624
 20
-51.36660761021681
 30
0.0
 10
190.1738474649624
 20
-49.4336109858091
 30
0.0
 10
190.1738474649624
 20
-49.4336109858091
 30
0.0
 10
190.1738474649624
 20
-49.4336109858091
 30
0.0
 10
190.1738474649624
 20
-49.4336109858091
 30
0.0
  0
ENDBLK
  5
2DC
330
2D9
100
AcDbEntity
  8
0
100
AcDbBlockEnd
  0
BLOCK
  5
2E0
330
2DE
100
AcDbEntity
  8
0
100
AcDbBlockBegin
  2
block 69
 70
     0
 10
0.0
 20
0.0
 30
0.0
  3
block 69
  1

  0
SPLINE
  5
2E2
330
2DE
100
AcDbEntity
  8
_U+30EC_U+30A4_U+30E4_U+30FC 1
 62
    12
420
 15007761
370
    35
100
AcDbSpline
210
0.0
220
0.0
230
1.0
 70
    11
 71
     3
 72
    20
 73
    16
 74
     0
 42
0.0000000001
 43
0.0000000001
 12
1.0
 22
0.0
 32
0.0
 13
1.0
 23
0.0
 33
0.0
 40
0.0
 40
0.0
 40
0.0
 40
0.0
 40
1.0
 40
1.0
 40
1.0
 40
2.0
 40
2.0
 40
2.0
 40
3.0
 40
3.0
 40
3.0
 40
4.0
 40
4.0
 40
4.0
 40
5.0
 40
5.0
 40
5.0
 40
5.0
 10
192.1738474649621
 20
-64.433610985809
 30
0.0
 10
192.1738474649621
 20
-63.60518386106352
 30
0.0
 10
192.8454203402161
 20
-62.93361098580958
 30
0.0
 10
193.6738474649625
 20
-62.93361098580958
 30
0.0
 10
194.5022745897086
 20
-62.93361098580958
 30
0.0
 10
195.1738474649619
 20
-63.60518386106352
 30
0.0
 10
195.1738474649619
 20
-64.433610985809
 30
0.0
 10
195.1738474649619
 20
-65.26203811055511
 30
0.0
 10
194.5022745897086
 20
-65.93361098580873
 30
0.0
 10
193.6738474649625
 20
-65.93361098580873
 30
0.0
 10
192.8454203402161
 20
-65.93361098580873
 30
0.0
 10
192.1738474649621
 20
-65.26203811055511
 30
0.0
 10
192.1738474649621
 20
-64.433610985809
 30
0.0
 10
192.1738474649621
 20
-64.433610985809
 30
0.0
 10
192.1738474649621
 20
-64.433610985809
 30
0.0
 10
192.1738474649621
 20
-64.433610985809
 30
0.0
  0
ENDBLK
  5
2E1
330
2DE
100
AcDbEntity
  8
0
100
AcDbBlockEnd
  0
BLOCK
  5
2E5
330
2E3
100
AcDbEntity
  8
0
100
AcDbBlockBegin
  2
block 70
 70
     0
 10
0.0
 20
0.0
 30
0.0
  3
block 70
  1

  0
SPLINE
  5
2E7
330
2E3
100
AcDbEntity
  8
_U+30EC_U+30A4_U+30E4_U+30FC 1
 62
    12
420
 15007761
370
    35
100
AcDbSpline
210
0.0
220
0.0
230
1.0
 70
    11
 71
     3
 72
    20
 73
    16
 74
     0
 42
0.0000000001
 43
0.0000000001
 12
1.0
 22
0.0
 32
0.0
 13
1.0
 23
0.0
 33
0.0
 40
0.0
 40
0.0
 40
0.0
 40
0.0
 40
1.0
 40
1.0
 40
1.0
 40
2.0
 40
2.0
 40
2.0
 40
3.0
 40
3.0
 40
3.0
 40
4.0
 40
4.0
 40
4.0
 40
5.0
 40
5.0
 40
5.0
 40
5.0
 10
190.1738474649621
 20
-64.433610985809
 30
0.0
 10
190.1738474649621
 20
-62.50061436140097
 30
0.0
 10
191.7408508405542
 20
-60.93361098580919
 30
0.0
 10
193.6738474649625
 20
-60.93361098580919
 30
0.0
 10
195.6068440893699
 20
-60.93361098580919
 30
0.0
 10
197.173847464962
 20
-62.50061436140097
 30
0.0
 10
197.173847464962
 20
-64.433610985809
 30
0.0
 10
197.173847464962
 20
-66.36660761021702
 30
0.0
 10
195.6068440893699
 20
-67.9336109858088
 30
0.0
 10
193.6738474649625
 20
-67.9336109858088
 30
0.0
 10
191.7408508405542
 20
-67.9336109858088
 30
0.0
 10
190.1738474649621
 20
-66.36660761021702
 30
0.0
 10
190.1738474649621
 20
-64.433610985809
 30
0.0
 10
190.1738474649621
 20
-64.433610985809
 30
0.0
 10
190.1738474649621
 20
-64.433610985809
 30
0.0
 10
190.1738474649621
 20
-64.433610985809
 30
0.0
  0
ENDBLK
  5
2E6
330
2E3
100
AcDbEntity
  8
0
100
AcDbBlockEnd
  0
BLOCK
  5
2EA
330
2E8
100
AcDbEntity
  8
0
100
AcDbBlockBegin
  2
block 71
 70
     0
 10
0.0
 20
0.0
 30
0.0
  3
block 71
  1

  0
INSERT
  5
2ED
330
2E8
100
AcDbEntity
  8
_U+30EC_U+30A4_U+30E4_U+30FC 1
100
AcDbBlockReference
  2
block 72
 10
0.0
 20
0.0
 30
0.0
  0
INSERT
  5
2F2
330
2E8
100
AcDbEntity
  8
_U+30EC_U+30A4_U+30E4_U+30FC 1
100
AcDbBlockReference
  2
block 73
 10
0.0
 20
0.0
 30
0.0
  0
INSERT
  5
2F7
330
2E8
100
AcDbEntity
  8
_U+30EC_U+30A4_U+30E4_U+30FC 1
100
AcDbBlockReference
  2
block 74
 10
0.0
 20
0.0
 30
0.0
  0
INSERT
  5
2FC
330
2E8
100
AcDbEntity
  8
_U+30EC_U+30A4_U+30E4_U+30FC 1
100
AcDbBlockReference
  2
block 75
 10
0.0
 20
0.0
 30
0.0
  0
ENDBLK
  5
2EB
330
2E8
100
AcDbEntity
  8
0
100
AcDbBlockEnd
  0
BLOCK
  5
2EE
330
2EC
100
AcDbEntity
  8
0
100
AcDbBlockBegin
  2
block 72
 70
     0
 10
0.0
 20
0.0
 30
0.0
  3
block 72
  1

  0
SPLINE
  5
2F0
330
2EC
100
AcDbEntity
  8
_U+30EC_U+30A4_U+30E4_U+30FC 1
 62
    12
420
 15007761
370
    35
100
AcDbSpline
210
0.0
220
0.0
230
1.0
 70
    11
 71
     3
 72
    20
 73
    16
 74
     0
 42
0.0000000001
 43
0.0000000001
 12
1.0
 22
0.0
 32
0.0
 13
1.0
 23
0.0
 33
0.0
 40
0.0
 40
0.0
 40
0.0
 40
0.0
 40
1.0
 40
1.0
 40
1.0
 40
2.0
 40
2.0
 40
2.0
 40
3.0
 40
3.0
 40
3.0
 40
4.0
 40
4.0
 40
4.0
 40
5.0
 40
5.0
 40
5.0
 40
5.0
 10
211.2985459198162
 20
-19.43335776326083
 30
0.0
 10
211.2985459198162
 20
-18.60493063851472
 30
0.0
 10
211.9701187950699
 20
-17.93335776326077
 30
0.0
 10
212.798545919816
 20
-17.93335776326077
 30
0.0
 10
213.6269730445621
 20
-17.93335776326077
 30
0.0
 10
214.2985459198163
 20
-18.60493063851472
 30
0.0
 10
214.2985459198163
 20
-19.43335776326083
 30
0.0
 10
214.2985459198163
 20
-20.26178488800694
 30
0.0
 10
213.6269730445621
 20
-20.93335776326088
 30
0.0
 10
212.798545919816
 20
-20.93335776326088
 30
0.0
 10
211.9701187950699
 20
-20.93335776326088
 30
0.0
 10
211.2985459198162
 20
-20.26178488800694
 30
0.0
 10
211.2985459198162
 20
-19.43335776326083
 30
0.0
 10
211.2985459198162
 20
-19.43335776326083
 30
0.0
 10
211.2985459198162
 20
-19.43335776326083
 30
0.0
 10
211.2985459198162
 20
-19.43335776326083
 30
0.0
  0
ENDBLK
  5
2EF
330
2EC
100
AcDbEntity
  8
0
100
AcDbBlockEnd
  0
BLOCK
  5
2F3
330
2F1
100
AcDbEntity
  8
0
100
AcDbBlockBegin
  2
block 73
 70
     0
 10
0.0
 20
0.0
 30
0.0
  3
block 73
  1

  0
SPLINE
  5
2F5
330
2F1
100
AcDbEntity
  8
_U+30EC_U+30A4_U+30E4_U+30FC 1
 62
    12
420
 15007761
370
    35
100
AcDbSpline
210
0.0
220
0.0
230
1.0
 70
    11
 71
     3
 72
    20
 73
    16
 74
     0
 42
0.0000000001
 43
0.0000000001
 12
1.0
 22
0.0
 32
0.0
 13
1.0
 23
0.0
 33
0.0
 40
0.0
 40
0.0
 40
0.0
 40
0.0
 40
1.0
 40
1.0
 40
1.0
 40
2.0
 40
2.0
 40
2.0
 40
3.0
 40
3.0
 40
3.0
 40
4.0
 40
4.0
 40
4.0
 40
5.0
 40
5.0
 40
5.0
 40
5.0
 10
209.2985459198162
 20
-19.43335776326083
 30
0.0
 10
209.2985459198162
 20
-17.50036113885313
 30
0.0
 10
210.8655492954086
 20
-15.9333577632607
 30
0.0
 10
212.798545919816
 20
-15.9333577632607
 30
0.0
 10
214.731542544224
 20
-15.9333577632607
 30
0.0
 10
216.2985459198158
 20
-17.50036113885313
 30
0.0
 10
216.2985459198158
 20
-19.43335776326083
 30
0.0
 10
216.2985459198158
 20
-21.36635438766853
 30
0.0
 10
214.731542544224
 20
-22.93335776326063
 30
0.0
 10
212.798545919816
 20
-22.93335776326063
 30
0.0
 10
210.8655492954086
 20
-22.93335776326063
 30
0.0
 10
209.2985459198162
 20
-21.36635438766853
 30
0.0
 10
209.2985459198162
 20
-19.43335776326083
 30
0.0
 10
209.2985459198162
 20
-19.43335776326083
 30
0.0
 10
209.2985459198162
 20
-19.43335776326083
 30
0.0
 10
209.2985459198162
 20
-19.43335776326083
 30
0.0
  0
ENDBLK
  5
2F4
330
2F1
100
AcDbEntity
  8
0
100
AcDbBlockEnd
  0
BLOCK
  5
2F8
330
2F6
100
AcDbEntity
  8
0
100
AcDbBlockBegin
  2
block 74
 70
     0
 10
0.0
 20
0.0
 30
0.0
  3
block 74
  1

  0
SPLINE
  5
2FA
330
2F6
100
AcDbEntity
  8
_U+30EC_U+30A4_U+30E4_U+30FC 1
 62
    12
420
 15007761
370
    35
100
AcDbSpline
210
0.0
220
0.0
230
1.0
 70
    11
 71
     3
 72
    20
 73
    16
 74
     0
 42
0.0000000001
 43
0.0000000001
 12
1.0
 22
0.0
 32
0.0
 13
1.0
 23
0.0
 33
0.0
 40
0.0
 40
0.0
 40
0.0
 40
0.0
 40
1.0
 40
1.0
 40
1.0
 40
2.0
 40
2.0
 40
2.0
 40
3.0
 40
3.0
 40
3.0
 40
4.0
 40
4.0
 40
4.0
 40
5.0
 40
5.0
 40
5.0
 40
5.0
 10
211.2985459198159
 20
-34.43335776326072
 30
0.0
 10
211.2985459198159
 20
-33.6049306385146
 30
0.0
 10
211.9701187950699
 20
-32.93335776326098
 30
0.0
 10
212.798545919816
 20
-32.93335776326098
 30
0.0
 10
213.6269730445621
 20
-32.93335776326098
 30
0.0
 10
214.2985459198157
 20
-33.6049306385146
 30
0.0
 10
214.2985459198157
 20
-34.43335776326072
 30
0.0
 10
214.2985459198157
 20
-35.26178488800683
 30
0.0
 10
213.6269730445621
 20
-35.93335776326045
 30
0.0
 10
212.798545919816
 20
-35.93335776326045
 30
0.0
 10
211.9701187950699
 20
-35.93335776326045
 30
0.0
 10
211.2985459198159
 20
-35.26178488800683
 30
0.0
 10
211.2985459198159
 20
-34.43335776326072
 30
0.0
 10
211.2985459198159
 20
-34.43335776326072
 30
0.0
 10
211.2985459198159
 20
-34.43335776326072
 30
0.0
 10
211.2985459198159
 20
-34.43335776326072
 30
0.0
  0
ENDBLK
  5
2F9
330
2F6
100
AcDbEntity
  8
0
100
AcDbBlockEnd
  0
BLOCK
  5
2FD
330
2FB
100
AcDbEntity
  8
0
100
AcDbBlockBegin
  2
block 75
 70
     0
 10
0.0
 20
0.0
 30
0.0
  3
block 75
  1

  0
SPLINE
  5
2FF
330
2FB
100
AcDbEntity
  8
_U+30EC_U+30A4_U+30E4_U+30FC 1
 62
    12
420
 15007761
370
    35
100
AcDbSpline
210
0.0
220
0.0
230
1.0
 70
    11
 71
     3
 72
    20
 73
    16
 74
     0
 42
0.0000000001
 43
0.0000000001
 12
1.0
 22
0.0
 32
0.0
 13
1.0
 23
0.0
 33
0.0
 40
0.0
 40
0.0
 40
0.0
 40
0.0
 40
1.0
 40
1.0
 40
1.0
 40
2.0
 40
2.0
 40
2.0
 40
3.0
 40
3.0
 40
3.0
 40
4.0
 40
4.0
 40
4.0
 40
5.0
 40
5.0
 40
5.0
 40
5.0
 10
209.2985459198158
 20
-34.43335776326072
 30
0.0
 10
209.2985459198158
 20
-32.50036113885269
 30
0.0
 10
210.8655492954086
 20
-30.93335776326091
 30
0.0
 10
212.798545919816
 20
-30.93335776326091
 30
0.0
 10
214.7315425442233
 20
-30.93335776326091
 30
0.0
 10
216.2985459198158
 20
-32.50036113885269
 30
0.0
 10
216.2985459198158
 20
-34.43335776326072
 30
0.0
 10
216.2985459198158
 20
-36.36635438766906
 30
0.0
 10
214.7315425442233
 20
-37.93335776326052
 30
0.0
 10
212.798545919816
 20
-37.93335776326052
 30
0.0
 10
210.8655492954086
 20
-37.93335776326052
 30
0.0
 10
209.2985459198158
 20
-36.36635438766906
 30
0.0
 10
209.2985459198158
 20
-34.43335776326072
 30
0.0
 10
209.2985459198158
 20
-34.43335776326072
 30
0.0
 10
209.2985459198158
 20
-34.43335776326072
 30
0.0
 10
209.2985459198158
 20
-34.43335776326072
 30
0.0
  0
ENDBLK
  5
2FE
330
2FB
100
AcDbEntity
  8
0
100
AcDbBlockEnd
  0
BLOCK
  5
302
330
300
100
AcDbEntity
  8
0
100
AcDbBlockBegin
  2
block 76
 70
     0
 10
0.0
 20
0.0
 30
0.0
  3
block 76
  1

  0
INSERT
  5
305
330
300
100
AcDbEntity
  8
_U+30EC_U+30A4_U+30E4_U+30FC 1
100
AcDbBlockReference
  2
block 77
 10
0.0
 20
0.0
 30
0.0
  0
INSERT
  5
30A
330
300
100
AcDbEntity
  8
_U+30EC_U+30A4_U+30E4_U+30FC 1
100
AcDbBlockReference
  2
block 78
 10
0.0
 20
0.0
 30
0.0
  0
INSERT
  5
30F
330
300
100
AcDbEntity
  8
_U+30EC_U+30A4_U+30E4_U+30FC 1
100
AcDbBlockReference
  2
block 79
 10
0.0
 20
0.0
 30
0.0
  0
INSERT
  5
314
330
300
100
AcDbEntity
  8
_U+30EC_U+30A4_U+30E4_U+30FC 1
100
AcDbBlockReference
  2
block 80
 10
0.0
 20
0.0
 30
0.0
  0
ENDBLK
  5
303
330
300
100
AcDbEntity
  8
0
100
AcDbBlockEnd
  0
BLOCK
  5
306
330
304
100
AcDbEntity
  8
0
100
AcDbBlockBegin
  2
block 77
 70
     0
 10
0.0
 20
0.0
 30
0.0
  3
block 77
  1

  0
SPLINE
  5
308
330
304
100
AcDbEntity
  8
_U+30EC_U+30A4_U+30E4_U+30FC 1
 62
    12
420
 15007761
370
    35
100
AcDbSpline
210
0.0
220
0.0
230
1.0
 70
    11
 71
     3
 72
    20
 73
    16
 74
     0
 42
0.0000000001
 43
0.0000000001
 12
1.0
 22
0.0
 32
0.0
 13
1.0
 23
0.0
 33
0.0
 40
0.0
 40
0.0
 40
0.0
 40
0.0
 40
1.0
 40
1.0
 40
1.0
 40
2.0
 40
2.0
 40
2.0
 40
3.0
 40
3.0
 40
3.0
 40
4.0
 40
4.0
 40
4.0
 40
5.0
 40
5.0
 40
5.0
 40
5.0
 10
211.2985459198162
 20
-49.4336109858091
 30
0.0
 10
211.2985459198162
 20
-48.60518386106299
 30
0.0
 10
211.9701187950699
 20
-47.93361098580905
 30
0.0
 10
212.798545919816
 20
-47.93361098580905
 30
0.0
 10
213.6269730445621
 20
-47.93361098580905
 30
0.0
 10
214.2985459198163
 20
-48.60518386106299
 30
0.0
 10
214.2985459198163
 20
-49.4336109858091
 30
0.0
 10
214.2985459198163
 20
-50.26203811055522
 30
0.0
 10
213.6269730445621
 20
-50.93361098580916
 30
0.0
 10
212.798545919816
 20
-50.93361098580916
 30
0.0
 10
211.9701187950699
 20
-50.93361098580916
 30
0.0
 10
211.2985459198162
 20
-50.26203811055522
 30
0.0
 10
211.2985459198162
 20
-49.4336109858091
 30
0.0
 10
211.2985459198162
 20
-49.4336109858091
 30
0.0
 10
211.2985459198162
 20
-49.4336109858091
 30
0.0
 10
211.2985459198162
 20
-49.4336109858091
 30
0.0
  0
ENDBLK
  5
307
330
304
100
AcDbEntity
  8
0
100
AcDbBlockEnd
  0
BLOCK
  5
30B
330
309
100
AcDbEntity
  8
0
100
AcDbBlockBegin
  2
block 78
 70
     0
 10
0.0
 20
0.0
 30
0.0
  3
block 78
  1

  0
SPLINE
  5
30D
330
309
100
AcDbEntity
  8
_U+30EC_U+30A4_U+30E4_U+30FC 1
 62
    12
420
 15007761
370
    35
100
AcDbSpline
210
0.0
220
0.0
230
1.0
 70
    11
 71
     3
 72
    20
 73
    16
 74
     0
 42
0.0000000001
 43
0.0000000001
 12
1.0
 22
0.0
 32
0.0
 13
1.0
 23
0.0
 33
0.0
 40
0.0
 40
0.0
 40
0.0
 40
0.0
 40
1.0
 40
1.0
 40
1.0
 40
2.0
 40
2.0
 40
2.0
 40
3.0
 40
3.0
 40
3.0
 40
4.0
 40
4.0
 40
4.0
 40
5.0
 40
5.0
 40
5.0
 40
5.0
 10
209.2985459198162
 20
-49.4336109858091
 30
0.0
 10
209.2985459198162
 20
-47.5006143614014
 30
0.0
 10
210.8655492954086
 20
-45.93361098580898
 30
0.0
 10
212.798545919816
 20
-45.93361098580898
 30
0.0
 10
214.731542544224
 20
-45.93361098580898
 30
0.0
 10
216.2985459198158
 20
-47.5006143614014
 30
0.0
 10
216.2985459198158
 20
-49.4336109858091
 30
0.0
 10
216.2985459198158
 20
-51.36660761021681
 30
0.0
 10
214.731542544224
 20
-52.93361098580923
 30
0.0
 10
212.798545919816
 20
-52.93361098580923
 30
0.0
 10
210.8655492954086
 20
-52.93361098580923
 30
0.0
 10
209.2985459198162
 20
-51.36660761021681
 30
0.0
 10
209.2985459198162
 20
-49.4336109858091
 30
0.0
 10
209.2985459198162
 20
-49.4336109858091
 30
0.0
 10
209.2985459198162
 20
-49.4336109858091
 30
0.0
 10
209.2985459198162
 20
-49.4336109858091
 30
0.0
  0
ENDBLK
  5
30C
330
309
100
AcDbEntity
  8
0
100
AcDbBlockEnd
  0
BLOCK
  5
310
330
30E
100
AcDbEntity
  8
0
100
AcDbBlockBegin
  2
block 79
 70
     0
 10
0.0
 20
0.0
 30
0.0
  3
block 79
  1

  0
SPLINE
  5
312
330
30E
100
AcDbEntity
  8
_U+30EC_U+30A4_U+30E4_U+30FC 1
 62
    12
420
 15007761
370
    35
100
AcDbSpline
210
0.0
220
0.0
230
1.0
 70
    11
 71
     3
 72
    20
 73
    16
 74
     0
 42
0.0000000001
 43
0.0000000001
 12
1.0
 22
0.0
 32
0.0
 13
1.0
 23
0.0
 33
0.0
 40
0.0
 40
0.0
 40
0.0
 40
0.0
 40
1.0
 40
1.0
 40
1.0
 40
2.0
 40
2.0
 40
2.0
 40
3.0
 40
3.0
 40
3.0
 40
4.0
 40
4.0
 40
4.0
 40
5.0
 40
5.0
 40
5.0
 40
5.0
 10
211.2985459198159
 20
-64.43361098580867
 30
0.0
 10
211.2985459198159
 20
-63.60518386106352
 30
0.0
 10
211.9701187950699
 20
-62.93361098580862
 30
0.0
 10
212.798545919816
 20
-62.93361098580862
 30
0.0
 10
213.6269730445621
 20
-62.93361098580862
 30
0.0
 10
214.2985459198157
 20
-63.60518386106352
 30
0.0
 10
214.2985459198157
 20
-64.43361098580867
 30
0.0
 10
214.2985459198157
 20
-65.26203811055542
 30
0.0
 10
213.6269730445621
 20
-65.9336109858084
 30
0.0
 10
212.798545919816
 20
-65.9336109858084
 30
0.0
 10
211.9701187950699
 20
-65.9336109858084
 30
0.0
 10
211.2985459198159
 20
-65.26203811055542
 30
0.0
 10
211.2985459198159
 20
-64.43361098580867
 30
0.0
 10
211.2985459198159
 20
-64.43361098580867
 30
0.0
 10
211.2985459198159
 20
-64.43361098580867
 30
0.0
 10
211.2985459198159
 20
-64.43361098580867
 30
0.0
  0
ENDBLK
  5
311
330
30E
100
AcDbEntity
  8
0
100
AcDbBlockEnd
  0
BLOCK
  5
315
330
313
100
AcDbEntity
  8
0
100
AcDbBlockBegin
  2
block 80
 70
     0
 10
0.0
 20
0.0
 30
0.0
  3
block 80
  1

  0
SPLINE
  5
317
330
313
100
AcDbEntity
  8
_U+30EC_U+30A4_U+30E4_U+30FC 1
 62
    12
420
 15007761
370
    35
100
AcDbSpline
210
0.0
220
0.0
230
1.0
 70
    11
 71
     3
 72
    20
 73
    16
 74
     0
 42
0.0000000001
 43
0.0000000001
 12
1.0
 22
0.0
 32
0.0
 13
1.0
 23
0.0
 33
0.0
 40
0.0
 40
0.0
 40
0.0
 40
0.0
 40
1.0
 40
1.0
 40
1.0
 40
2.0
 40
2.0
 40
2.0
 40
3.0
 40
3.0
 40
3.0
 40
4.0
 40
4.0
 40
4.0
 40
5.0
 40
5.0
 40
5.0
 40
5.0
 10
209.2985459198158
 20
-64.43361098580867
 30
0.0
 10
209.2985459198158
 20
-62.50061436140129
 30
0.0
 10
210.8655492954086
 20
-60.93361098580887
 30
0.0
 10
212.798545919816
 20
-60.93361098580887
 30
0.0
 10
214.7315425442233
 20
-60.93361098580887
 30
0.0
 10
216.2985459198158
 20
-62.50061436140129
 30
0.0
 10
216.2985459198158
 20
-64.43361098580867
 30
0.0
 10
216.2985459198158
 20
-66.36660761021702
 30
0.0
 10
214.7315425442233
 20
-67.93361098580847
 30
0.0
 10
212.798545919816
 20
-67.93361098580847
 30
0.0
 10
210.8655492954086
 20
-67.93361098580847
 30
0.0
 10
209.2985459198158
 20
-66.36660761021702
 30
0.0
 10
209.2985459198158
 20
-64.43361098580867
 30
0.0
 10
209.2985459198158
 20
-64.43361098580867
 30
0.0
 10
209.2985459198158
 20
-64.43361098580867
 30
0.0
 10
209.2985459198158
 20
-64.43361098580867
 30
0.0
  0
ENDBLK
  5
316
330
313
100
AcDbEntity
  8
0
100
AcDbBlockEnd
  0
BLOCK
  5
31A
330
318
100
AcDbEntity
  8
0
100
AcDbBlockBegin
  2
block 81
 70
     0
 10
0.0
 20
0.0
 30
0.0
  3
block 81
  1

  0
INSERT
  5
31D
330
318
100
AcDbEntity
  8
_U+30EC_U+30A4_U+30E4_U+30FC 1
100
AcDbBlockReference
  2
block 82
 10
0.0
 20
0.0
 30
0.0
  0
INSERT
  5
322
330
318
100
AcDbEntity
  8
_U+30EC_U+30A4_U+30E4_U+30FC 1
100
AcDbBlockReference
  2
block 83
 10
0.0
 20
0.0
 30
0.0
  0
INSERT
  5
327
330
318
100
AcDbEntity
  8
_U+30EC_U+30A4_U+30E4_U+30FC 1
100
AcDbBlockReference
  2
block 84
 10
0.0
 20
0.0
 30
0.0
  0
INSERT
  5
32C
330
318
100
AcDbEntity
  8
_U+30EC_U+30A4_U+30E4_U+30FC 1
100
AcDbBlockReference
  2
block 85
 10
0.0
 20
0.0
 30
0.0
  0
ENDBLK
  5
31B
330
318
100
AcDbEntity
  8
0
100
AcDbBlockEnd
  0
BLOCK
  5
31E
330
31C
100
AcDbEntity
  8
0
100
AcDbBlockBegin
  2
block 82
 70
     0
 10
0.0
 20
0.0
 30
0.0
  3
block 82
  1

  0
SPLINE
  5
320
330
31C
100
AcDbEntity
  8
_U+30EC_U+30A4_U+30E4_U+30FC 1
 62
    12
420
 15007761
370
    35
100
AcDbSpline
210
0.0
220
0.0
230
1.0
 70
    11
 71
     3
 72
    20
 73
    16
 74
     0
 42
0.0000000001
 43
0.0000000001
 12
1.0
 22
0.0
 32
0.0
 13
1.0
 23
0.0
 33
0.0
 40
0.0
 40
0.0
 40
0.0
 40
0.0
 40
1.0
 40
1.0
 40
1.0
 40
2.0
 40
2.0
 40
2.0
 40
3.0
 40
3.0
 40
3.0
 40
4.0
 40
4.0
 40
4.0
 40
5.0
 40
5.0
 40
5.0
 40
5.0
 10
230.4232443746703
 20
-19.43335776326115
 30
0.0
 10
230.4232443746703
 20
-18.60493063851504
 30
0.0
 10
231.0948172499239
 20
-17.9333577632611
 30
0.0
 10
231.9232443746701
 20
-17.9333577632611
 30
0.0
 10
232.7516714994162
 20
-17.9333577632611
 30
0.0
 10
233.4232443746704
 20
-18.60493063851504
 30
0.0
 10
233.4232443746704
 20
-19.43335776326115
 30
0.0
 10
233.4232443746704
 20
-20.26178488800726
 30
0.0
 10
232.7516714994162
 20
-20.9333577632612
 30
0.0
 10
231.9232443746701
 20
-20.9333577632612
 30
0.0
 10
231.0948172499239
 20
-20.9333577632612
 30
0.0
 10
230.4232443746703
 20
-20.26178488800726
 30
0.0
 10
230.4232443746703
 20
-19.43335776326115
 30
0.0
 10
230.4232443746703
 20
-19.43335776326115
 30
0.0
 10
230.4232443746703
 20
-19.43335776326115
 30
0.0
 10
230.4232443746703
 20
-19.43335776326115
 30
0.0
  0
ENDBLK
  5
31F
330
31C
100
AcDbEntity
  8
0
100
AcDbBlockEnd
  0
BLOCK
  5
323
330
321
100
AcDbEntity
  8
0
100
AcDbBlockBegin
  2
block 83
 70
     0
 10
0.0
 20
0.0
 30
0.0
  3
block 83
  1

  0
SPLINE
  5
325
330
321
100
AcDbEntity
  8
_U+30EC_U+30A4_U+30E4_U+30FC 1
 62
    12
420
 15007761
370
    35
100
AcDbSpline
210
0.0
220
0.0
230
1.0
 70
    11
 71
     3
 72
    20
 73
    16
 74
     0
 42
0.0000000001
 43
0.0000000001
 12
1.0
 22
0.0
 32
0.0
 13
1.0
 23
0.0
 33
0.0
 40
0.0
 40
0.0
 40
0.0
 40
0.0
 40
1.0
 40
1.0
 40
1.0
 40
2.0
 40
2.0
 40
2.0
 40
3.0
 40
3.0
 40
3.0
 40
4.0
 40
4.0
 40
4.0
 40
5.0
 40
5.0
 40
5.0
 40
5.0
 10
228.4232443746703
 20
-19.43335776326115
 30
0.0
 10
228.4232443746703
 20
-17.50036113885345
 30
0.0
 10
229.9902477502624
 20
-15.93335776326102
 30
0.0
 10
231.9232443746701
 20
-15.93335776326102
 30
0.0
 10
233.8562409990781
 20
-15.93335776326102
 30
0.0
 10
235.4232443746699
 20
-17.50036113885345
 30
0.0
 10
235.4232443746699
 20
-19.43335776326115
 30
0.0
 10
235.4232443746699
 20
-21.36635438766885
 30
0.0
 10
233.8562409990781
 20
-22.93335776326095
 30
0.0
 10
231.9232443746701
 20
-22.93335776326095
 30
0.0
 10
229.9902477502624
 20
-22.93335776326095
 30
0.0
 10
228.4232443746703
 20
-21.36635438766885
 30
0.0
 10
228.4232443746703
 20
-19.43335776326115
 30
0.0
 10
228.4232443746703
 20
-19.43335776326115
 30
0.0
 10
228.4232443746703
 20
-19.43335776326115
 30
0.0
 10
228.4232443746703
 20
-19.43335776326115
 30
0.0
  0
ENDBLK
  5
324
330
321
100
AcDbEntity
  8
0
100
AcDbBlockEnd
  0
BLOCK
  5
328
330
326
100
AcDbEntity
  8
0
100
AcDbBlockBegin
  2
block 84
 70
     0
 10
0.0
 20
0.0
 30
0.0
  3
block 84
  1

  0
SPLINE
  5
32A
330
326
100
AcDbEntity
  8
_U+30EC_U+30A4_U+30E4_U+30FC 1
 62
    12
420
 15007761
370
    35
100
AcDbSpline
210
0.0
220
0.0
230
1.0
 70
    11
 71
     3
 72
    20
 73
    16
 74
     0
 42
0.0000000001
 43
0.0000000001
 12
1.0
 22
0.0
 32
0.0
 13
1.0
 23
0.0
 33
0.0
 40
0.0
 40
0.0
 40
0.0
 40
0.0
 40
1.0
 40
1.0
 40
1.0
 40
2.0
 40
2.0
 40
2.0
 40
3.0
 40
3.0
 40
3.0
 40
4.0
 40
4.0
 40
4.0
 40
5.0
 40
5.0
 40
5.0
 40
5.0
 10
230.42324437467
 20
-34.4333577632604
 30
0.0
 10
230.42324437467
 20
-33.60493063851492
 30
0.0
 10
231.0948172499239
 20
-32.93335776326066
 30
0.0
 10
231.9232443746701
 20
-32.93335776326066
 30
0.0
 10
232.7516714994162
 20
-32.93335776326066
 30
0.0
 10
233.4232443746698
 20
-33.60493063851492
 30
0.0
 10
233.4232443746698
 20
-34.4333577632604
 30
0.0
 10
233.4232443746698
 20
-35.26178488800715
 30
0.0
 10
232.7516714994162
 20
-35.93335776326013
 30
0.0
 10
231.9232443746701
 20
-35.93335776326013
 30
0.0
 10
231.0948172499239
 20
-35.93335776326013
 30
0.0
 10
230.42324437467
 20
-35.26178488800715
 30
0.0
 10
230.42324437467
 20
-34.4333577632604
 30
0.0
 10
230.42324437467
 20
-34.4333577632604
 30
0.0
 10
230.42324437467
 20
-34.4333577632604
 30
0.0
 10
230.42324437467
 20
-34.4333577632604
 30
0.0
  0
ENDBLK
  5
329
330
326
100
AcDbEntity
  8
0
100
AcDbBlockEnd
  0
BLOCK
  5
32D
330
32B
100
AcDbEntity
  8
0
100
AcDbBlockBegin
  2
block 85
 70
     0
 10
0.0
 20
0.0
 30
0.0
  3
block 85
  1

  0
SPLINE
  5
32F
330
32B
100
AcDbEntity
  8
_U+30EC_U+30A4_U+30E4_U+30FC 1
 62
    12
420
 15007761
370
    35
100
AcDbSpline
210
0.0
220
0.0
230
1.0
 70
    11
 71
     3
 72
    20
 73
    16
 74
     0
 42
0.0000000001
 43
0.0000000001
 12
1.0
 22
0.0
 32
0.0
 13
1.0
 23
0.0
 33
0.0
 40
0.0
 40
0.0
 40
0.0
 40
0.0
 40
1.0
 40
1.0
 40
1.0
 40
2.0
 40
2.0
 40
2.0
 40
3.0
 40
3.0
 40
3.0
 40
4.0
 40
4.0
 40
4.0
 40
5.0
 40
5.0
 40
5.0
 40
5.0
 10
228.4232443746699
 20
-34.4333577632604
 30
0.0
 10
228.4232443746699
 20
-32.50036113885301
 30
0.0
 10
229.9902477502621
 20
-30.93335776326059
 30
0.0
 10
231.9232443746701
 20
-30.93335776326059
 30
0.0
 10
233.8562409990774
 20
-30.93335776326059
 30
0.0
 10
235.4232443746699
 20
-32.50036113885301
 30
0.0
 10
235.4232443746699
 20
-34.4333577632604
 30
0.0
 10
235.4232443746699
 20
-36.36635438766906
 30
0.0
 10
233.8562409990774
 20
-37.9333577632602
 30
0.0
 10
231.9232443746701
 20
-37.9333577632602
 30
0.0
 10
229.9902477502621
 20
-37.9333577632602
 30
0.0
 10
228.4232443746699
 20
-36.36635438766906
 30
0.0
 10
228.4232443746699
 20
-34.4333577632604
 30
0.0
 10
228.4232443746699
 20
-34.4333577632604
 30
0.0
 10
228.4232443746699
 20
-34.4333577632604
 30
0.0
 10
228.4232443746699
 20
-34.4333577632604
 30
0.0
  0
ENDBLK
  5
32E
330
32B
100
AcDbEntity
  8
0
100
AcDbBlockEnd
  0
BLOCK
  5
332
330
330
100
AcDbEntity
  8
0
100
AcDbBlockBegin
  2
block 86
 70
     0
 10
0.0
 20
0.0
 30
0.0
  3
block 86
  1

  0
INSERT
  5
335
330
330
100
AcDbEntity
  8
_U+30EC_U+30A4_U+30E4_U+30FC 1
100
AcDbBlockReference
  2
block 87
 10
0.0
 20
0.0
 30
0.0
  0
INSERT
  5
33A
330
330
100
AcDbEntity
  8
_U+30EC_U+30A4_U+30E4_U+30FC 1
100
AcDbBlockReference
  2
block 88
 10
0.0
 20
0.0
 30
0.0
  0
INSERT
  5
33F
330
330
100
AcDbEntity
  8
_U+30EC_U+30A4_U+30E4_U+30FC 1
100
AcDbBlockReference
  2
block 89
 10
0.0
 20
0.0
 30
0.0
  0
INSERT
  5
344
330
330
100
AcDbEntity
  8
_U+30EC_U+30A4_U+30E4_U+30FC 1
100
AcDbBlockReference
  2
block 90
 10
0.0
 20
0.0
 30
0.0
  0
ENDBLK
  5
333
330
330
100
AcDbEntity
  8
0
100
AcDbBlockEnd
  0
BLOCK
  5
336
330
334
100
AcDbEntity
  8
0
100
AcDbBlockBegin
  2
block 87
 70
     0
 10
0.0
 20
0.0
 30
0.0
  3
block 87
  1

  0
SPLINE
  5
338
330
334
100
AcDbEntity
  8
_U+30EC_U+30A4_U+30E4_U+30FC 1
 62
    12
420
 15007761
370
    35
100
AcDbSpline
210
0.0
220
0.0
230
1.0
 70
    11
 71
     3
 72
    20
 73
    16
 74
     0
 42
0.0000000001
 43
0.0000000001
 12
1.0
 22
0.0
 32
0.0
 13
1.0
 23
0.0
 33
0.0
 40
0.0
 40
0.0
 40
0.0
 40
0.0
 40
1.0
 40
1.0
 40
1.0
 40
2.0
 40
2.0
 40
2.0
 40
3.0
 40
3.0
 40
3.0
 40
4.0
 40
4.0
 40
4.0
 40
5.0
 40
5.0
 40
5.0
 40
5.0
 10
230.4232443746703
 20
-49.4336109858091
 30
0.0
 10
230.4232443746703
 20
-48.60518386106299
 30
0.0
 10
231.0948172499239
 20
-47.93361098580905
 30
0.0
 10
231.9232443746701
 20
-47.93361098580905
 30
0.0
 10
232.7516714994162
 20
-47.93361098580905
 30
0.0
 10
233.4232443746704
 20
-48.60518386106299
 30
0.0
 10
233.4232443746704
 20
-49.4336109858091
 30
0.0
 10
233.4232443746704
 20
-50.26203811055522
 30
0.0
 10
232.7516714994162
 20
-50.93361098580916
 30
0.0
 10
231.9232443746701
 20
-50.93361098580916
 30
0.0
 10
231.0948172499239
 20
-50.93361098580916
 30
0.0
 10
230.4232443746703
 20
-50.26203811055522
 30
0.0
 10
230.4232443746703
 20
-49.4336109858091
 30
0.0
 10
230.4232443746703
 20
-49.4336109858091
 30
0.0
 10
230.4232443746703
 20
-49.4336109858091
 30
0.0
 10
230.4232443746703
 20
-49.4336109858091
 30
0.0
  0
ENDBLK
  5
337
330
334
100
AcDbEntity
  8
0
100
AcDbBlockEnd
  0
BLOCK
  5
33B
330
339
100
AcDbEntity
  8
0
100
AcDbBlockBegin
  2
block 88
 70
     0
 10
0.0
 20
0.0
 30
0.0
  3
block 88
  1

  0
SPLINE
  5
33D
330
339
100
AcDbEntity
  8
_U+30EC_U+30A4_U+30E4_U+30FC 1
 62
    12
420
 15007761
370
    35
100
AcDbSpline
210
0.0
220
0.0
230
1.0
 70
    11
 71
     3
 72
    20
 73
    16
 74
     0
 42
0.0000000001
 43
0.0000000001
 12
1.0
 22
0.0
 32
0.0
 13
1.0
 23
0.0
 33
0.0
 40
0.0
 40
0.0
 40
0.0
 40
0.0
 40
1.0
 40
1.0
 40
1.0
 40
2.0
 40
2.0
 40
2.0
 40
3.0
 40
3.0
 40
3.0
 40
4.0
 40
4.0
 40
4.0
 40
5.0
 40
5.0
 40
5.0
 40
5.0
 10
228.4232443746703
 20
-49.4336109858091
 30
0.0
 10
228.4232443746703
 20
-47.5006143614014
 30
0.0
 10
229.9902477502624
 20
-45.93361098580898
 30
0.0
 10
231.9232443746701
 20
-45.93361098580898
 30
0.0
 10
233.8562409990781
 20
-45.93361098580898
 30
0.0
 10
235.4232443746699
 20
-47.5006143614014
 30
0.0
 10
235.4232443746699
 20
-49.4336109858091
 30
0.0
 10
235.4232443746699
 20
-51.36660761021681
 30
0.0
 10
233.8562409990781
 20
-52.93361098580923
 30
0.0
 10
231.9232443746701
 20
-52.93361098580923
 30
0.0
 10
229.9902477502624
 20
-52.93361098580923
 30
0.0
 10
228.4232443746703
 20
-51.36660761021681
 30
0.0
 10
228.4232443746703
 20
-49.4336109858091
 30
0.0
 10
228.4232443746703
 20
-49.4336109858091
 30
0.0
 10
228.4232443746703
 20
-49.4336109858091
 30
0.0
 10
228.4232443746703
 20
-49.4336109858091
 30
0.0
  0
ENDBLK
  5
33C
330
339
100
AcDbEntity
  8
0
100
AcDbBlockEnd
  0
BLOCK
  5
340
330
33E
100
AcDbEntity
  8
0
100
AcDbBlockBegin
  2
block 89
 70
     0
 10
0.0
 20
0.0
 30
0.0
  3
block 89
  1

  0
SPLINE
  5
342
330
33E
100
AcDbEntity
  8
_U+30EC_U+30A4_U+30E4_U+30FC 1
 62
    12
420
 15007761
370
    35
100
AcDbSpline
210
0.0
220
0.0
230
1.0
 70
    11
 71
     3
 72
    20
 73
    16
 74
     0
 42
0.0000000001
 43
0.0000000001
 12
1.0
 22
0.0
 32
0.0
 13
1.0
 23
0.0
 33
0.0
 40
0.0
 40
0.0
 40
0.0
 40
0.0
 40
1.0
 40
1.0
 40
1.0
 40
2.0
 40
2.0
 40
2.0
 40
3.0
 40
3.0
 40
3.0
 40
4.0
 40
4.0
 40
4.0
 40
5.0
 40
5.0
 40
5.0
 40
5.0
 10
230.42324437467
 20
-64.43361098580836
 30
0.0
 10
230.42324437467
 20
-63.60518386106352
 30
0.0
 10
231.0948172499239
 20
-62.93361098580862
 30
0.0
 10
231.9232443746701
 20
-62.93361098580862
 30
0.0
 10
232.7516714994162
 20
-62.93361098580862
 30
0.0
 10
233.4232443746698
 20
-63.60518386106352
 30
0.0
 10
233.4232443746698
 20
-64.43361098580836
 30
0.0
 10
233.4232443746698
 20
-65.26203811055511
 30
0.0
 10
232.7516714994162
 20
-65.93361098580809
 30
0.0
 10
231.9232443746701
 20
-65.93361098580809
 30
0.0
 10
231.0948172499239
 20
-65.93361098580809
 30
0.0
 10
230.42324437467
 20
-65.26203811055511
 30
0.0
 10
230.42324437467
 20
-64.43361098580836
 30
0.0
 10
230.42324437467
 20
-64.43361098580836
 30
0.0
 10
230.42324437467
 20
-64.43361098580836
 30
0.0
 10
230.42324437467
 20
-64.43361098580836
 30
0.0
  0
ENDBLK
  5
341
330
33E
100
AcDbEntity
  8
0
100
AcDbBlockEnd
  0
BLOCK
  5
345
330
343
100
AcDbEntity
  8
0
100
AcDbBlockBegin
  2
block 90
 70
     0
 10
0.0
 20
0.0
 30
0.0
  3
block 90
  1

  0
SPLINE
  5
347
330
343
100
AcDbEntity
  8
_U+30EC_U+30A4_U+30E4_U+30FC 1
 62
    12
420
 15007761
370
    35
100
AcDbSpline
210
0.0
220
0.0
230
1.0
 70
    11
 71
     3
 72
    20
 73
    16
 74
     0
 42
0.0000000001
 43
0.0000000001
 12
1.0
 22
0.0
 32
0.0
 13
1.0
 23
0.0
 33
0.0
 40
0.0
 40
0.0
 40
0.0
 40
0.0
 40
1.0
 40
1.0
 40
1.0
 40
2.0
 40
2.0
 40
2.0
 40
3.0
 40
3.0
 40
3.0
 40
4.0
 40
4.0
 40
4.0
 40
5.0
 40
5.0
 40
5.0
 40
5.0
 10
228.4232443746699
 20
-64.43361098580836
 30
0.0
 10
228.4232443746699
 20
-62.50061436140097
 30
0.0
 10
229.9902477502621
 20
-60.93361098580823
 30
0.0
 10
231.9232443746701
 20
-60.93361098580823
 30
0.0
 10
233.8562409990774
 20
-60.93361098580823
 30
0.0
 10
235.4232443746699
 20
-62.50061436140097
 30
0.0
 10
235.4232443746699
 20
-64.43361098580836
 30
0.0
 10
235.4232443746699
 20
-66.36660761021702
 30
0.0
 10
233.8562409990774
 20
-67.93361098580816
 30
0.0
 10
231.9232443746701
 20
-67.93361098580816
 30
0.0
 10
229.9902477502621
 20
-67.93361098580816
 30
0.0
 10
228.4232443746699
 20
-66.36660761021702
 30
0.0
 10
228.4232443746699
 20
-64.43361098580836
 30
0.0
 10
228.4232443746699
 20
-64.43361098580836
 30
0.0
 10
228.4232443746699
 20
-64.43361098580836
 30
0.0
 10
228.4232443746699
 20
-64.43361098580836
 30
0.0
  0
ENDBLK
  5
346
330
343
100
AcDbEntity
  8
0
100
AcDbBlockEnd
  0
BLOCK
  5
34A
330
348
100
AcDbEntity
  8
0
100
AcDbBlockBegin
  2
block 91
 70
     0
 10
0.0
 20
0.0
 30
0.0
  3
block 91
  1

  0
INSERT
  5
34D
330
348
100
AcDbEntity
  8
_U+30EC_U+30A4_U+30E4_U+30FC 1
100
AcDbBlockReference
  2
block 92
 10
0.0
 20
0.0
 30
0.0
  0
INSERT
  5
352
330
348
100
AcDbEntity
  8
_U+30EC_U+30A4_U+30E4_U+30FC 1
100
AcDbBlockReference
  2
block 93
 10
0.0
 20
0.0
 30
0.0
  0
INSERT
  5
357
330
348
100
AcDbEntity
  8
_U+30EC_U+30A4_U+30E4_U+30FC 1
100
AcDbBlockReference
  2
block 94
 10
0.0
 20
0.0
 30
0.0
  0
INSERT
  5
35C
330
348
100
AcDbEntity
  8
_U+30EC_U+30A4_U+30E4_U+30FC 1
100
AcDbBlockReference
  2
block 95
 10
0.0
 20
0.0
 30
0.0
  0
ENDBLK
  5
34B
330
348
100
AcDbEntity
  8
0
100
AcDbBlockEnd
  0
BLOCK
  5
34E
330
34C
100
AcDbEntity
  8
0
100
AcDbBlockBegin
  2
block 92
 70
     0
 10
0.0
 20
0.0
 30
0.0
  3
block 92
  1

  0
SPLINE
  5
350
330
34C
100
AcDbEntity
  8
_U+30EC_U+30A4_U+30E4_U+30FC 1
 62
    12
420
 15007761
370
    35
100
AcDbSpline
210
0.0
220
0.0
230
1.0
 70
    11
 71
     3
 72
    20
 73
    16
 74
     0
 42
0.0000000001
 43
0.0000000001
 12
1.0
 22
0.0
 32
0.0
 13
1.0
 23
0.0
 33
0.0
 40
0.0
 40
0.0
 40
0.0
 40
0.0
 40
1.0
 40
1.0
 40
1.0
 40
2.0
 40
2.0
 40
2.0
 40
3.0
 40
3.0
 40
3.0
 40
4.0
 40
4.0
 40
4.0
 40
5.0
 40
5.0
 40
5.0
 40
5.0
 10
249.5479428295244
 20
-20.03335761574001
 30
0.0
 10
249.5479428295244
 20
-19.2049304909939
 30
0.0
 10
250.219515704778
 20
-18.53335761573996
 30
0.0
 10
251.0479428295242
 20
-18.53335761573996
 30
0.0
 10
251.8763699542703
 20
-18.53335761573996
 30
0.0
 10
252.5479428295245
 20
-19.2049304909939
 30
0.0
 10
252.5479428295245
 20
-20.03335761574001
 30
0.0
 10
252.5479428295245
 20
-20.86178474048613
 30
0.0
 10
251.8763699542703
 20
-21.53335761574007
 30
0.0
 10
251.0479428295242
 20
-21.53335761574007
 30
0.0
 10
250.219515704778
 20
-21.53335761574007
 30
0.0
 10
249.5479428295244
 20
-20.86178474048613
 30
0.0
 10
249.5479428295244
 20
-20.03335761574001
 30
0.0
 10
249.5479428295244
 20
-20.03335761574001
 30
0.0
 10
249.5479428295244
 20
-20.03335761574001
 30
0.0
 10
249.5479428295244
 20
-20.03335761574001
 30
0.0
  0
ENDBLK
  5
34F
330
34C
100
AcDbEntity
  8
0
100
AcDbBlockEnd
  0
BLOCK
  5
353
330
351
100
AcDbEntity
  8
0
100
AcDbBlockBegin
  2
block 93
 70
     0
 10
0.0
 20
0.0
 30
0.0
  3
block 93
  1

  0
SPLINE
  5
355
330
351
100
AcDbEntity
  8
_U+30EC_U+30A4_U+30E4_U+30FC 1
 62
    12
420
 15007761
370
    35
100
AcDbSpline
210
0.0
220
0.0
230
1.0
 70
    11
 71
     3
 72
    20
 73
    16
 74
     0
 42
0.0000000001
 43
0.0000000001
 12
1.0
 22
0.0
 32
0.0
 13
1.0
 23
0.0
 33
0.0
 40
0.0
 40
0.0
 40
0.0
 40
0.0
 40
1.0
 40
1.0
 40
1.0
 40
2.0
 40
2.0
 40
2.0
 40
3.0
 40
3.0
 40
3.0
 40
4.0
 40
4.0
 40
4.0
 40
5.0
 40
5.0
 40
5.0
 40
5.0
 10
247.5479428295244
 20
-20.03335761574001
 30
0.0
 10
247.5479428295244
 20
-18.10036099133231
 30
0.0
 10
249.1149462051165
 20
-16.53335761573989
 30
0.0
 10
251.0479428295242
 20
-16.53335761573989
 30
0.0
 10
252.9809394539322
 20
-16.53335761573989
 30
0.0
 10
254.5479428295246
 20
-18.10036099133231
 30
0.0
 10
254.5479428295246
 20
-20.03335761574001
 30
0.0
 10
254.5479428295246
 20
-21.96635424014772
 30
0.0
 10
252.9809394539322
 20
-23.53335761573982
 30
0.0
 10
251.0479428295242
 20
-23.53335761573982
 30
0.0
 10
249.1149462051165
 20
-23.53335761573982
 30
0.0
 10
247.5479428295244
 20
-21.96635424014772
 30
0.0
 10
247.5479428295244
 20
-20.03335761574001
 30
0.0
 10
247.5479428295244
 20
-20.03335761574001
 30
0.0
 10
247.5479428295244
 20
-20.03335761574001
 30
0.0
 10
247.5479428295244
 20
-20.03335761574001
 30
0.0
  0
ENDBLK
  5
354
330
351
100
AcDbEntity
  8
0
100
AcDbBlockEnd
  0
BLOCK
  5
358
330
356
100
AcDbEntity
  8
0
100
AcDbBlockBegin
  2
block 94
 70
     0
 10
0.0
 20
0.0
 30
0.0
  3
block 94
  1

  0
SPLINE
  5
35A
330
356
100
AcDbEntity
  8
_U+30EC_U+30A4_U+30E4_U+30FC 1
 62
    12
420
 15007761
370
    35
100
AcDbSpline
210
0.0
220
0.0
230
1.0
 70
    11
 71
     3
 72
    20
 73
    16
 74
     0
 42
0.0000000001
 43
0.0000000001
 12
1.0
 22
0.0
 32
0.0
 13
1.0
 23
0.0
 33
0.0
 40
0.0
 40
0.0
 40
0.0
 40
0.0
 40
1.0
 40
1.0
 40
1.0
 40
2.0
 40
2.0
 40
2.0
 40
3.0
 40
3.0
 40
3.0
 40
4.0
 40
4.0
 40
4.0
 40
5.0
 40
5.0
 40
5.0
 40
5.0
 10
249.5479428295241
 20
-35.03335761573958
 30
0.0
 10
249.5479428295241
 20
-34.20493049099379
 30
0.0
 10
250.219515704778
 20
-33.53335761573953
 30
0.0
 10
251.0479428295242
 20
-33.53335761573953
 30
0.0
 10
251.8763699542703
 20
-33.53335761573953
 30
0.0
 10
252.5479428295239
 20
-34.20493049099379
 30
0.0
 10
252.5479428295239
 20
-35.03335761573958
 30
0.0
 10
252.5479428295239
 20
-35.8617847404857
 30
0.0
 10
251.8763699542703
 20
-36.53335761573899
 30
0.0
 10
251.0479428295242
 20
-36.53335761573899
 30
0.0
 10
250.219515704778
 20
-36.53335761573899
 30
0.0
 10
249.5479428295241
 20
-35.8617847404857
 30
0.0
 10
249.5479428295241
 20
-35.03335761573958
 30
0.0
 10
249.5479428295241
 20
-35.03335761573958
 30
0.0
 10
249.5479428295241
 20
-35.03335761573958
 30
0.0
 10
249.5479428295241
 20
-35.03335761573958
 30
0.0
  0
ENDBLK
  5
359
330
356
100
AcDbEntity
  8
0
100
AcDbBlockEnd
  0
BLOCK
  5
35D
330
35B
100
AcDbEntity
  8
0
100
AcDbBlockBegin
  2
block 95
 70
     0
 10
0.0
 20
0.0
 30
0.0
  3
block 95
  1

  0
SPLINE
  5
35F
330
35B
100
AcDbEntity
  8
_U+30EC_U+30A4_U+30E4_U+30FC 1
 62
    12
420
 15007761
370
    35
100
AcDbSpline
210
0.0
220
0.0
230
1.0
 70
    11
 71
     3
 72
    20
 73
    16
 74
     0
 42
0.0000000001
 43
0.0000000001
 12
1.0
 22
0.0
 32
0.0
 13
1.0
 23
0.0
 33
0.0
 40
0.0
 40
0.0
 40
0.0
 40
0.0
 40
1.0
 40
1.0
 40
1.0
 40
2.0
 40
2.0
 40
2.0
 40
3.0
 40
3.0
 40
3.0
 40
4.0
 40
4.0
 40
4.0
 40
5.0
 40
5.0
 40
5.0
 40
5.0
 10
247.547942829524
 20
-35.03335761573958
 30
0.0
 10
247.547942829524
 20
-33.10036099133188
 30
0.0
 10
249.1149462051162
 20
-31.53335761573946
 30
0.0
 10
251.0479428295242
 20
-31.53335761573946
 30
0.0
 10
252.9809394539315
 20
-31.53335761573946
 30
0.0
 10
254.5479428295246
 20
-33.10036099133188
 30
0.0
 10
254.5479428295246
 20
-35.03335761573958
 30
0.0
 10
254.5479428295246
 20
-36.96635424014792
 30
0.0
 10
252.9809394539315
 20
-38.53335761573906
 30
0.0
 10
251.0479428295242
 20
-38.53335761573906
 30
0.0
 10
249.1149462051162
 20
-38.53335761573906
 30
0.0
 10
247.547942829524
 20
-36.96635424014792
 30
0.0
 10
247.547942829524
 20
-35.03335761573958
 30
0.0
 10
247.547942829524
 20
-35.03335761573958
 30
0.0
 10
247.547942829524
 20
-35.03335761573958
 30
0.0
 10
247.547942829524
 20
-35.03335761573958
 30
0.0
  0
ENDBLK
  5
35E
330
35B
100
AcDbEntity
  8
0
100
AcDbBlockEnd
  0
BLOCK
  5
362
330
360
100
AcDbEntity
  8
0
100
AcDbBlockBegin
  2
block 96
 70
     0
 10
0.0
 20
0.0
 30
0.0
  3
block 96
  1

  0
INSERT
  5
365
330
360
100
AcDbEntity
  8
_U+30EC_U+30A4_U+30E4_U+30FC 1
100
AcDbBlockReference
  2
block 97
 10
0.0
 20
0.0
 30
0.0
  0
INSERT
  5
36A
330
360
100
AcDbEntity
  8
_U+30EC_U+30A4_U+30E4_U+30FC 1
100
AcDbBlockReference
  2
block 98
 10
0.0
 20
0.0
 30
0.0
  0
INSERT
  5
36F
330
360
100
AcDbEntity
  8
_U+30EC_U+30A4_U+30E4_U+30FC 1
100
AcDbBlockReference
  2
block 99
 10
0.0
 20
0.0
 30
0.0
  0
INSERT
  5
374
330
360
100
AcDbEntity
  8
_U+30EC_U+30A4_U+30E4_U+30FC 1
100
AcDbBlockReference
  2
block 100
 10
0.0
 20
0.0
 30
0.0
  0
ENDBLK
  5
363
330
360
100
AcDbEntity
  8
0
100
AcDbBlockEnd
  0
BLOCK
  5
366
330
364
100
AcDbEntity
  8
0
100
AcDbBlockBegin
  2
block 97
 70
     0
 10
0.0
 20
0.0
 30
0.0
  3
block 97
  1

  0
SPLINE
  5
368
330
364
100
AcDbEntity
  8
_U+30EC_U+30A4_U+30E4_U+30FC 1
 62
    12
420
 15007761
370
    35
100
AcDbSpline
210
0.0
220
0.0
230
1.0
 70
    11
 71
     3
 72
    20
 73
    16
 74
     0
 42
0.0000000001
 43
0.0000000001
 12
1.0
 22
0.0
 32
0.0
 13
1.0
 23
0.0
 33
0.0
 40
0.0
 40
0.0
 40
0.0
 40
0.0
 40
1.0
 40
1.0
 40
1.0
 40
2.0
 40
2.0
 40
2.0
 40
3.0
 40
3.0
 40
3.0
 40
4.0
 40
4.0
 40
4.0
 40
5.0
 40
5.0
 40
5.0
 40
5.0
 10
249.5479428295244
 20
-49.4336109858091
 30
0.0
 10
249.5479428295244
 20
-48.60518386106299
 30
0.0
 10
250.219515704778
 20
-47.93361098580905
 30
0.0
 10
251.0479428295242
 20
-47.93361098580905
 30
0.0
 10
251.8763699542703
 20
-47.93361098580905
 30
0.0
 10
252.5479428295245
 20
-48.60518386106299
 30
0.0
 10
252.5479428295245
 20
-49.4336109858091
 30
0.0
 10
252.5479428295245
 20
-50.26203811055522
 30
0.0
 10
251.8763699542703
 20
-50.93361098580916
 30
0.0
 10
251.0479428295242
 20
-50.93361098580916
 30
0.0
 10
250.219515704778
 20
-50.93361098580916
 30
0.0
 10
249.5479428295244
 20
-50.26203811055522
 30
0.0
 10
249.5479428295244
 20
-49.4336109858091
 30
0.0
 10
249.5479428295244
 20
-49.4336109858091
 30
0.0
 10
249.5479428295244
 20
-49.4336109858091
 30
0.0
 10
249.5479428295244
 20
-49.4336109858091
 30
0.0
  0
ENDBLK
  5
367
330
364
100
AcDbEntity
  8
0
100
AcDbBlockEnd
  0
BLOCK
  5
36B
330
369
100
AcDbEntity
  8
0
100
AcDbBlockBegin
  2
block 98
 70
     0
 10
0.0
 20
0.0
 30
0.0
  3
block 98
  1

  0
SPLINE
  5
36D
330
369
100
AcDbEntity
  8
_U+30EC_U+30A4_U+30E4_U+30FC 1
 62
    12
420
 15007761
370
    35
100
AcDbSpline
210
0.0
220
0.0
230
1.0
 70
    11
 71
     3
 72
    20
 73
    16
 74
     0
 42
0.0000000001
 43
0.0000000001
 12
1.0
 22
0.0
 32
0.0
 13
1.0
 23
0.0
 33
0.0
 40
0.0
 40
0.0
 40
0.0
 40
0.0
 40
1.0
 40
1.0
 40
1.0
 40
2.0
 40
2.0
 40
2.0
 40
3.0
 40
3.0
 40
3.0
 40
4.0
 40
4.0
 40
4.0
 40
5.0
 40
5.0
 40
5.0
 40
5.0
 10
247.5479428295244
 20
-49.4336109858091
 30
0.0
 10
247.5479428295244
 20
-47.5006143614014
 30
0.0
 10
249.1149462051165
 20
-45.93361098580898
 30
0.0
 10
251.0479428295242
 20
-45.93361098580898
 30
0.0
 10
252.9809394539322
 20
-45.93361098580898
 30
0.0
 10
254.5479428295246
 20
-47.5006143614014
 30
0.0
 10
254.5479428295246
 20
-49.4336109858091
 30
0.0
 10
254.5479428295246
 20
-51.36660761021681
 30
0.0
 10
252.9809394539322
 20
-52.93361098580923
 30
0.0
 10
251.0479428295242
 20
-52.93361098580923
 30
0.0
 10
249.1149462051165
 20
-52.93361098580923
 30
0.0
 10
247.5479428295244
 20
-51.36660761021681
 30
0.0
 10
247.5479428295244
 20
-49.4336109858091
 30
0.0
 10
247.5479428295244
 20
-49.4336109858091
 30
0.0
 10
247.5479428295244
 20
-49.4336109858091
 30
0.0
 10
247.5479428295244
 20
-49.4336109858091
 30
0.0
  0
ENDBLK
  5
36C
330
369
100
AcDbEntity
  8
0
100
AcDbBlockEnd
  0
BLOCK
  5
370
330
36E
100
AcDbEntity
  8
0
100
AcDbBlockBegin
  2
block 99
 70
     0
 10
0.0
 20
0.0
 30
0.0
  3
block 99
  1

  0
SPLINE
  5
372
330
36E
100
AcDbEntity
  8
_U+30EC_U+30A4_U+30E4_U+30FC 1
 62
    12
420
 15007761
370
    35
100
AcDbSpline
210
0.0
220
0.0
230
1.0
 70
    11
 71
     3
 72
    20
 73
    16
 74
     0
 42
0.0000000001
 43
0.0000000001
 12
1.0
 22
0.0
 32
0.0
 13
1.0
 23
0.0
 33
0.0
 40
0.0
 40
0.0
 40
0.0
 40
0.0
 40
1.0
 40
1.0
 40
1.0
 40
2.0
 40
2.0
 40
2.0
 40
3.0
 40
3.0
 40
3.0
 40
4.0
 40
4.0
 40
4.0
 40
5.0
 40
5.0
 40
5.0
 40
5.0
 10
249.5479428295241
 20
-64.43361098580867
 30
0.0
 10
249.5479428295241
 20
-63.60518386106352
 30
0.0
 10
250.219515704778
 20
-62.93361098580862
 30
0.0
 10
251.0479428295242
 20
-62.93361098580862
 30
0.0
 10
251.8763699542703
 20
-62.93361098580862
 30
0.0
 10
252.5479428295239
 20
-63.60518386106352
 30
0.0
 10
252.5479428295239
 20
-64.43361098580867
 30
0.0
 10
252.5479428295239
 20
-65.26203811055542
 30
0.0
 10
251.8763699542703
 20
-65.9336109858084
 30
0.0
 10
251.0479428295242
 20
-65.9336109858084
 30
0.0
 10
250.219515704778
 20
-65.9336109858084
 30
0.0
 10
249.5479428295241
 20
-65.26203811055542
 30
0.0
 10
249.5479428295241
 20
-64.43361098580867
 30
0.0
 10
249.5479428295241
 20
-64.43361098580867
 30
0.0
 10
249.5479428295241
 20
-64.43361098580867
 30
0.0
 10
249.5479428295241
 20
-64.43361098580867
 30
0.0
  0
ENDBLK
  5
371
330
36E
100
AcDbEntity
  8
0
100
AcDbBlockEnd
  0
BLOCK
  5
375
330
373
100
AcDbEntity
  8
0
100
AcDbBlockBegin
  2
block 100
 70
     0
 10
0.0
 20
0.0
 30
0.0
  3
block 100
  1

  0
SPLINE
  5
377
330
373
100
AcDbEntity
  8
_U+30EC_U+30A4_U+30E4_U+30FC 1
 62
    12
420
 15007761
370
    35
100
AcDbSpline
210
0.0
220
0.0
230
1.0
 70
    11
 71
     3
 72
    20
 73
    16
 74
     0
 42
0.0000000001
 43
0.0000000001
 12
1.0
 22
0.0
 32
0.0
 13
1.0
 23
0.0
 33
0.0
 40
0.0
 40
0.0
 40
0.0
 40
0.0
 40
1.0
 40
1.0
 40
1.0
 40
2.0
 40
2.0
 40
2.0
 40
3.0
 40
3.0
 40
3.0
 40
4.0
 40
4.0
 40
4.0
 40
5.0
 40
5.0
 40
5.0
 40
5.0
 10
247.547942829524
 20
-64.43361098580867
 30
0.0
 10
247.547942829524
 20
-62.50061436140129
 30
0.0
 10
249.1149462051162
 20
-60.93361098580887
 30
0.0
 10
251.0479428295242
 20
-60.93361098580887
 30
0.0
 10
252.9809394539315
 20
-60.93361098580887
 30
0.0
 10
254.5479428295246
 20
-62.50061436140129
 30
0.0
 10
254.5479428295246
 20
-64.43361098580867
 30
0.0
 10
254.5479428295246
 20
-66.36660761021702
 30
0.0
 10
252.9809394539315
 20
-67.93361098580847
 30
0.0
 10
251.0479428295242
 20
-67.93361098580847
 30
0.0
 10
249.1149462051162
 20
-67.93361098580847
 30
0.0
 10
247.547942829524
 20
-66.36660761021702
 30
0.0
 10
247.547942829524
 20
-64.43361098580867
 30
0.0
 10
247.547942829524
 20
-64.43361098580867
 30
0.0
 10
247.547942829524
 20
-64.43361098580867
 30
0.0
 10
247.547942829524
 20
-64.43361098580867
 30
0.0
  0
ENDBLK
  5
376
330
373
100
AcDbEntity
  8
0
100
AcDbBlockEnd
  0
BLOCK
  5
37A
330
378
100
AcDbEntity
  8
0
100
AcDbBlockBegin
  2
block 101
 70
     0
 10
0.0
 20
0.0
 30
0.0
  3
block 101
  1

  0
SPLINE
  5
37C
330
378
100
AcDbEntity
  8
_U+30EC_U+30A4_U+30E4_U+30FC 1
 62
    12
420
 15007761
370
    35
100
AcDbSpline
210
0.0
220
0.0
230
1.0
 70
    11
 71
     3
 72
    20
 73
    16
 74
     0
 42
0.0000000001
 43
0.0000000001
 12
1.0
 22
0.0
 32
0.0
 13
1.0
 23
0.0
 33
0.0
 40
0.0
 40
0.0
 40
0.0
 40
0.0
 40
1.0
 40
1.0
 40
1.0
 40
2.0
 40
2.0
 40
2.0
 40
3.0
 40
3.0
 40
3.0
 40
4.0
 40
4.0
 40
4.0
 40
5.0
 40
5.0
 40
5.0
 40
5.0
 10
123.1511735852308
 20
-67.0334842270132
 30
0.0
 10
123.1511735852308
 20
-66.20505710226709
 30
0.0
 10
123.8227464604847
 20
-65.53348422701346
 30
0.0
 10
124.6511735852305
 20
-65.53348422701346
 30
0.0
 10
125.4796007099766
 20
-65.53348422701346
 30
0.0
 10
126.1511735852309
 20
-66.20505710226709
 30
0.0
 10
126.1511735852309
 20
-67.0334842270132
 30
0.0
 10
126.1511735852309
 20
-67.86191135175996
 30
0.0
 10
125.4796007099766
 20
-68.53348422701357
 30
0.0
 10
124.6511735852305
 20
-68.53348422701357
 30
0.0
 10
123.8227464604847
 20
-68.53348422701357
 30
0.0
 10
123.1511735852308
 20
-67.86191135175996
 30
0.0
 10
123.1511735852308
 20
-67.0334842270132
 30
0.0
 10
123.1511735852308
 20
-67.0334842270132
 30
0.0
 10
123.1511735852308
 20
-67.0334842270132
 30
0.0
 10
123.1511735852308
 20
-67.0334842270132
 30
0.0
  0
ENDBLK
  5
37B
330
378
100
AcDbEntity
  8
0
100
AcDbBlockEnd
  0
BLOCK
  5
37F
330
37D
100
AcDbEntity
  8
0
100
AcDbBlockBegin
  2
block 102
 70
     0
 10
0.0
 20
0.0
 30
0.0
  3
block 102
  1

  0
SPLINE
  5
381
330
37D
100
AcDbEntity
  8
_U+30EC_U+30A4_U+30E4_U+30FC 1
 62
    12
420
 15007761
370
    35
100
AcDbSpline
210
0.0
220
0.0
230
1.0
 70
    11
 71
     3
 72
    20
 73
    16
 74
     0
 42
0.0000000001
 43
0.0000000001
 12
1.0
 22
0.0
 32
0.0
 13
1.0
 23
0.0
 33
0.0
 40
0.0
 40
0.0
 40
0.0
 40
0.0
 40
1.0
 40
1.0
 40
1.0
 40
2.0
 40
2.0
 40
2.0
 40
3.0
 40
3.0
 40
3.0
 40
4.0
 40
4.0
 40
4.0
 40
5.0
 40
5.0
 40
5.0
 40
5.0
 10
123.1511735852308
 20
-18.03348422701339
 30
0.0
 10
123.1511735852308
 20
-17.20505710226728
 30
0.0
 10
123.8227464604847
 20
-16.53348422701334
 30
0.0
 10
124.6511735852305
 20
-16.53348422701334
 30
0.0
 10
125.4796007099766
 20
-16.53348422701334
 30
0.0
 10
126.1511735852309
 20
-17.20505710226728
 30
0.0
 10
126.1511735852309
 20
-18.03348422701339
 30
0.0
 10
126.1511735852309
 20
-18.86191135175951
 30
0.0
 10
125.4796007099766
 20
-19.53348422701345
 30
0.0
 10
124.6511735852305
 20
-19.53348422701345
 30
0.0
 10
123.8227464604847
 20
-19.53348422701345
 30
0.0
 10
123.1511735852308
 20
-18.86191135175951
 30
0.0
 10
123.1511735852308
 20
-18.03348422701339
 30
0.0
 10
123.1511735852308
 20
-18.03348422701339
 30
0.0
 10
123.1511735852308
 20
-18.03348422701339
 30
0.0
 10
123.1511735852308
 20
-18.03348422701339
 30
0.0
  0
ENDBLK
  5
380
330
37D
100
AcDbEntity
  8
0
100
AcDbBlockEnd
  0
BLOCK
  5
384
330
382
100
AcDbEntity
  8
0
100
AcDbBlockBegin
  2
block 103
 70
     0
 10
0.0
 20
0.0
 30
0.0
  3
block 103
  1

  0
SPLINE
  5
386
330
382
100
AcDbEntity
  8
_U+30EC_U+30A4_U+30E4_U+30FC 1
 62
    12
420
 15007761
370
    35
100
AcDbSpline
210
0.0
220
0.0
230
1.0
 70
    11
 71
     3
 72
    29
 73
    25
 74
     0
 42
0.0000000001
 43
0.0000000001
 12
1.0
 22
0.0
 32
0.0
 13
1.0
 23
0.0
 33
0.0
 40
0.0
 40
0.0
 40
0.0
 40
0.0
 40
1.0
 40
1.0
 40
1.0
 40
2.0
 40
2.0
 40
2.0
 40
3.0
 40
3.0
 40
3.0
 40
4.0
 40
4.0
 40
4.0
 40
5.0
 40
5.0
 40
5.0
 40
6.0
 40
6.0
 40
6.0
 40
7.0
 40
7.0
 40
7.0
 40
8.0
 40
8.0
 40
8.0
 40
8.0
 10
127.1511735852309
 20
-20.48297396979665
 30
0.0
 10
127.1511735852309
 20
-20.48297396979665
 30
0.0
 10
127.1511735852309
 20
-64.58399448423026
 30
0.0
 10
127.1511735852309
 20
-64.58399448423026
 30
0.0
 10
128.4845069185643
 20
-65.94482211910974
 30
0.0
 10
128.4845069185643
 20
-68.12214633491729
 30
0.0
 10
127.1511735852309
 20
-69.48297396979677
 30
0.0
 10
125.7983577554248
 20
-70.8636858443732
 30
0.0
 10
123.5823957170247
 20
-70.88630005681969
 30
0.0
 10
122.2016838424476
 20
-69.5334842270136
 30
0.0
 10
120.8209719678705
 20
-68.18066839720687
 30
0.0
 10
120.7983577554247
 20
-65.96470635880733
 30
0.0
 10
122.1511735852308
 20
-64.58399448423026
 30
0.0
 10
122.1511735852308
 20
-64.58399448423026
 30
0.0
 10
122.1511735852308
 20
-20.48297396979665
 30
0.0
 10
122.1511735852308
 20
-20.48297396979665
 30
0.0
 10
120.8178402518974
 20
-19.12214633491717
 30
0.0
 10
120.8178402518974
 20
-16.94482211910994
 30
0.0
 10
122.1511735852308
 20
-15.58399448423014
 30
0.0
 10
123.5039894150368
 20
-14.20328260965339
 30
0.0
 10
125.719951453437
 20
-14.18066839720721
 30
0.0
 10
127.1006633280144
 20
-15.5334842270133
 30
0.0
 10
128.4813752025912
 20
-16.88630005681972
 30
0.0
 10
128.503989415037
 20
-19.10226209521958
 30
0.0
 10
127.1511735852309
 20
-20.48297396979665
 30
0.0
  0
ENDBLK
  5
385
330
382
100
AcDbEntity
  8
0
100
AcDbBlockEnd
  0
ENDSEC
  0
SECTION
  2
ENTITIES
  0
INSERT
  5
42
330
1F
100
AcDbEntity
  8
_U+30EC_U+30A4_U+30E4_U+30FC 1
100
AcDbBlockReference
  2
block 2
 10
0.0
 20
0.0
 30
0.0
  0
INSERT
  5
47
330
1F
100
AcDbEntity
  8
_U+30EC_U+30A4_U+30E4_U+30FC 1
100
AcDbBlockReference
  2
block 3
 10
0.0
 20
0.0
 30
0.0
  0
INSERT
  5
4C
330
1F
100
AcDbEntity
  8
_U+30EC_U+30A4_U+30E4_U+30FC 1
100
AcDbBlockReference
  2
block 4
 10
0.0
 20
0.0
 30
0.0
  0
INSERT
  5
51
330
1F
100
AcDbEntity
  8
_U+30EC_U+30A4_U+30E4_U+30FC 1
100
AcDbBlockReference
  2
block 5
 10
0.0
 20
0.0
 30
0.0
  0
INSERT
  5
56
330
1F
100
AcDbEntity
  8
_U+30EC_U+30A4_U+30E4_U+30FC 1
100
AcDbBlockReference
  2
block 6
 10
0.0
 20
0.0
 30
0.0
  0
INSERT
  5
5B
330
1F
100
AcDbEntity
  8
_U+30EC_U+30A4_U+30E4_U+30FC 1
100
AcDbBlockReference
  2
block 7
 10
0.0
 20
0.0
 30
0.0
  0
INSERT
  5
60
330
1F
100
AcDbEntity
  8
_U+30EC_U+30A4_U+30E4_U+30FC 1
100
AcDbBlockReference
  2
block 8
 10
0.0
 20
0.0
 30
0.0
  0
INSERT
  5
65
330
1F
100
AcDbEntity
  8
_U+30EC_U+30A4_U+30E4_U+30FC 1
100
AcDbBlockReference
  2
block 9
 10
0.0
 20
0.0
 30
0.0
  0
INSERT
  5
6A
330
1F
100
AcDbEntity
  8
_U+30EC_U+30A4_U+30E4_U+30FC 1
100
AcDbBlockReference
  2
block 10
 10
0.0
 20
0.0
 30
0.0
  0
INSERT
  5
6F
330
1F
100
AcDbEntity
  8
_U+30EC_U+30A4_U+30E4_U+30FC 1
100
AcDbBlockReference
  2
block 11
 10
0.0
 20
0.0
 30
0.0
  0
INSERT
  5
74
330
1F
100
AcDbEntity
  8
_U+30EC_U+30A4_U+30E4_U+30FC 1
100
AcDbBlockReference
  2
block 12
 10
0.0
 20
0.0
 30
0.0
  0
INSERT
  5
79
330
1F
100
AcDbEntity
  8
_U+30EC_U+30A4_U+30E4_U+30FC 1
100
AcDbBlockReference
  2
block 13
 10
0.0
 20
0.0
 30
0.0
  0
INSERT
  5
7E
330
1F
100
AcDbEntity
  8
_U+30EC_U+30A4_U+30E4_U+30FC 1
100
AcDbBlockReference
  2
block 14
 10
0.0
 20
0.0
 30
0.0
  0
INSERT
  5
83
330
1F
100
AcDbEntity
  8
_U+30EC_U+30A4_U+30E4_U+30FC 1
100
AcDbBlockReference
  2
block 15
 10
0.0
 20
0.0
 30
0.0
  0
INSERT
  5
88
330
1F
100
AcDbEntity
  8
_U+30EC_U+30A4_U+30E4_U+30FC 1
100
AcDbBlockReference
  2
block 16
 10
0.0
 20
0.0
 30
0.0
  0
INSERT
  5
8D
330
1F
100
AcDbEntity
  8
_U+30EC_U+30A4_U+30E4_U+30FC 1
100
AcDbBlockReference
  2
block 17
 10
0.0
 20
0.0
 30
0.0
  0
INSERT
  5
92
330
1F
100
AcDbEntity
  8
_U+30EC_U+30A4_U+30E4_U+30FC 1
100
AcDbBlockReference
  2
block 18
 10
0.0
 20
0.0
 30
0.0
  0
INSERT
  5
97
330
1F
100
AcDbEntity
  8
_U+30EC_U+30A4_U+30E4_U+30FC 1
100
AcDbBlockReference
  2
block 19
 10
0.0
 20
0.0
 30
0.0
  0
INSERT
  5
9F
330
1F
100
AcDbEntity
  8
_U+30EC_U+30A4_U+30E4_U+30FC 1
100
AcDbBlockReference
  2
block 20
 10
0.0
 20
0.0
 30
0.0
  0
INSERT
  5
C4
330
1F
100
AcDbEntity
  8
_U+30EC_U+30A4_U+30E4_U+30FC 1
100
AcDbBlockReference
  2
block 21
 10
0.0
 20
0.0
 30
0.0
  0
INSERT
  5
C9
330
1F
100
AcDbEntity
  8
_U+30EC_U+30A4_U+30E4_U+30FC 1
100
AcDbBlockReference
  2
block 22
 10
0.0
 20
0.0
 30
0.0
  0
INSERT
  5
CE
330
1F
100
AcDbEntity
  8
_U+30EC_U+30A4_U+30E4_U+30FC 1
100
AcDbBlockReference
  2
block 23
 10
0.0
 20
0.0
 30
0.0
  0
INSERT
  5
D6
330
1F
100
AcDbEntity
  8
_U+30EC_U+30A4_U+30E4_U+30FC 1
100
AcDbBlockReference
  2
block 24
 10
0.0
 20
0.0
 30
0.0
  0
INSERT
  5
FB
330
1F
100
AcDbEntity
  8
_U+30EC_U+30A4_U+30E4_U+30FC 1
100
AcDbBlockReference
  2
block 25
 10
0.0
 20
0.0
 30
0.0
  0
INSERT
  5
100
330
1F
100
AcDbEntity
  8
_U+30EC_U+30A4_U+30E4_U+30FC 1
100
AcDbBlockReference
  2
block 26
 10
0.0
 20
0.0
 30
0.0
  0
INSERT
  5
105
330
1F
100
AcDbEntity
  8
_U+30EC_U+30A4_U+30E4_U+30FC 1
100
AcDbBlockReference
  2
block 27
 10
0.0
 20
0.0
 30
0.0
  0
INSERT
  5
10D
330
1F
100
AcDbEntity
  8
_U+30EC_U+30A4_U+30E4_U+30FC 1
100
AcDbBlockReference
  2
block 28
 10
0.0
 20
0.0
 30
0.0
  0
INSERT
  5
132
330
1F
100
AcDbEntity
  8
_U+30EC_U+30A4_U+30E4_U+30FC 1
100
AcDbBlockReference
  2
block 29
 10
0.0
 20
0.0
 30
0.0
  0
INSERT
  5
137
330
1F
100
AcDbEntity
  8
_U+30EC_U+30A4_U+30E4_U+30FC 1
100
AcDbBlockReference
  2
block 30
 10
0.0
 20
0.0
 30
0.0
  0
INSERT
  5
13C
330
1F
100
AcDbEntity
  8
_U+30EC_U+30A4_U+30E4_U+30FC 1
100
AcDbBlockReference
  2
block 31
 10
0.0
 20
0.0
 30
0.0
  0
INSERT
  5
144
330
1F
100
AcDbEntity
  8
_U+30EC_U+30A4_U+30E4_U+30FC 1
100
AcDbBlockReference
  2
block 32
 10
0.0
 20
0.0
 30
0.0
  0
INSERT
  5
169
330
1F
100
AcDbEntity
  8
_U+30EC_U+30A4_U+30E4_U+30FC 1
100
AcDbBlockReference
  2
block 33
 10
0.0
 20
0.0
 30
0.0
  0
INSERT
  5
16E
330
1F
100
AcDbEntity
  8
_U+30EC_U+30A4_U+30E4_U+30FC 1
100
AcDbBlockReference
  2
block 34
 10
0.0
 20
0.0
 30
0.0
  0
INSERT
  5
173
330
1F
100
AcDbEntity
  8
_U+30EC_U+30A4_U+30E4_U+30FC 1
100
AcDbBlockReference
  2
block 35
 10
0.0
 20
0.0
 30
0.0
  0
INSERT
  5
17B
330
1F
100
AcDbEntity
  8
_U+30EC_U+30A4_U+30E4_U+30FC 1
100
AcDbBlockReference
  2
block 36
 10
0.0
 20
0.0
 30
0.0
  0
INSERT
  5
1A0
330
1F
100
AcDbEntity
  8
_U+30EC_U+30A4_U+30E4_U+30FC 1
100
AcDbBlockReference
  2
block 37
 10
0.0
 20
0.0
 30
0.0
  0
INSERT
  5
1A5
330
1F
100
AcDbEntity
  8
_U+30EC_U+30A4_U+30E4_U+30FC 1
100
AcDbBlockReference
  2
block 38
 10
0.0
 20
0.0
 30
0.0
  0
INSERT
  5
1AA
330
1F
100
AcDbEntity
  8
_U+30EC_U+30A4_U+30E4_U+30FC 1
100
AcDbBlockReference
  2
block 39
 10
0.0
 20
0.0
 30
0.0
  0
INSERT
  5
1B2
330
1F
100
AcDbEntity
  8
_U+30EC_U+30A4_U+30E4_U+30FC 1
100
AcDbBlockReference
  2
block 40
 10
0.0
 20
0.0
 30
0.0
  0
INSERT
  5
1D7
330
1F
100
AcDbEntity
  8
_U+30EC_U+30A4_U+30E4_U+30FC 1
100
AcDbBlockReference
  2
block 41
 10
0.0
 20
0.0
 30
0.0
  0
INSERT
  5
1EE
330
1F
100
AcDbEntity
  8
_U+30EC_U+30A4_U+30E4_U+30FC 1
100
AcDbBlockReference
  2
block 42
 10
0.0
 20
0.0
 30
0.0
  0
INSERT
  5
205
330
1F
100
AcDbEntity
  8
_U+30EC_U+30A4_U+30E4_U+30FC 1
100
AcDbBlockReference
  2
block 43
 10
0.0
 20
0.0
 30
0.0
  0
INSERT
  5
21C
330
1F
100
AcDbEntity
  8
_U+30EC_U+30A4_U+30E4_U+30FC 1
100
AcDbBlockReference
  2
block 44
 10
0.0
 20
0.0
 30
0.0
  0
INSERT
  5
233
330
1F
100
AcDbEntity
  8
_U+30EC_U+30A4_U+30E4_U+30FC 1
100
AcDbBlockReference
  2
block 45
 10
0.0
 20
0.0
 30
0.0
  0
INSERT
  5
24A
330
1F
100
AcDbEntity
  8
_U+30EC_U+30A4_U+30E4_U+30FC 1
100
AcDbBlockReference
  2
block 46
 10
0.0
 20
0.0
 30
0.0
  0
INSERT
  5
261
330
1F
100
AcDbEntity
  8
_U+30EC_U+30A4_U+30E4_U+30FC 1
100
AcDbBlockReference
  2
block 47
 10
0.0
 20
0.0
 30
0.0
  0
INSERT
  5
266
330
1F
100
AcDbEntity
  8
_U+30EC_U+30A4_U+30E4_U+30FC 1
100
AcDbBlockReference
  2
block 48
 10
0.0
 20
0.0
 30
0.0
  0
INSERT
  5
26B
330
1F
100
AcDbEntity
  8
_U+30EC_U+30A4_U+30E4_U+30FC 1
100
AcDbBlockReference
  2
block 49
 10
0.0
 20
0.0
 30
0.0
  0
INSERT
  5
270
330
1F
100
AcDbEntity
  8
_U+30EC_U+30A4_U+30E4_U+30FC 1
100
AcDbBlockReference
  2
block 50
 10
0.0
 20
0.0
 30
0.0
  0
INSERT
  5
278
330
1F
100
AcDbEntity
  8
_U+30EC_U+30A4_U+30E4_U+30FC 1
100
AcDbBlockReference
  2
block 51
 10
0.0
 20
0.0
 30
0.0
  0
INSERT
  5
27D
330
1F
100
AcDbEntity
  8
_U+30EC_U+30A4_U+30E4_U+30FC 1
100
AcDbBlockReference
  2
block 52
 10
0.0
 20
0.0
 30
0.0
  0
INSERT
  5
285
330
1F
100
AcDbEntity
  8
_U+30EC_U+30A4_U+30E4_U+30FC 1
100
AcDbBlockReference
  2
block 53
 10
0.0
 20
0.0
 30
0.0
  0
INSERT
  5
28D
330
1F
100
AcDbEntity
  8
_U+30EC_U+30A4_U+30E4_U+30FC 1
100
AcDbBlockReference
  2
block 54
 10
0.0
 20
0.0
 30
0.0
  0
INSERT
  5
292
330
1F
100
AcDbEntity
  8
_U+30EC_U+30A4_U+30E4_U+30FC 1
100
AcDbBlockReference
  2
block 55
 10
0.0
 20
0.0
 30
0.0
  0
INSERT
  5
297
330
1F
100
AcDbEntity
  8
_U+30EC_U+30A4_U+30E4_U+30FC 1
100
AcDbBlockReference
  2
block 56
 10
0.0
 20
0.0
 30
0.0
  0
INSERT
  5
29C
330
1F
100
AcDbEntity
  8
_U+30EC_U+30A4_U+30E4_U+30FC 1
100
AcDbBlockReference
  2
block 57
 10
0.0
 20
0.0
 30
0.0
  0
INSERT
  5
2A4
330
1F
100
AcDbEntity
  8
_U+30EC_U+30A4_U+30E4_U+30FC 1
100
AcDbBlockReference
  2
block 58
 10
0.0
 20
0.0
 30
0.0
  0
INSERT
  5
2A9
330
1F
100
AcDbEntity
  8
_U+30EC_U+30A4_U+30E4_U+30FC 1
100
AcDbBlockReference
  2
block 59
 10
0.0
 20
0.0
 30
0.0
  0
INSERT
  5
2B1
330
1F
100
AcDbEntity
  8
_U+30EC_U+30A4_U+30E4_U+30FC 1
100
AcDbBlockReference
  2
block 60
 10
0.0
 20
0.0
 30
0.0
  0
INSERT
  5
2B9
330
1F
100
AcDbEntity
  8
_U+30EC_U+30A4_U+30E4_U+30FC 1
100
AcDbBlockReference
  2
block 61
 10
0.0
 20
0.0
 30
0.0
  0
INSERT
  5
2D1
330
1F
100
AcDbEntity
  8
_U+30EC_U+30A4_U+30E4_U+30FC 1
100
AcDbBlockReference
  2
block 66
 10
0.0
 20
0.0
 30
0.0
  0
INSERT
  5
2E9
330
1F
100
AcDbEntity
  8
_U+30EC_U+30A4_U+30E4_U+30FC 1
100
AcDbBlockReference
  2
block 71
 10
0.0
 20
0.0
 30
0.0
  0
INSERT
  5
301
330
1F
100
AcDbEntity
  8
_U+30EC_U+30A4_U+30E4_U+30FC 1
100
AcDbBlockReference
  2
block 76
 10
0.0
 20
0.0
 30
0.0
  0
INSERT
  5
319
330
1F
100
AcDbEntity
  8
_U+30EC_U+30A4_U+30E4_U+30FC 1
100
AcDbBlockReference
  2
block 81
 10
0.0
 20
0.0
 30
0.0
  0
INSERT
  5
331
330
1F
100
AcDbEntity
  8
_U+30EC_U+30A4_U+30E4_U+30FC 1
100
AcDbBlockReference
  2
block 86
 10
0.0
 20
0.0
 30
0.0
  0
INSERT
  5
349
330
1F
100
AcDbEntity
  8
_U+30EC_U+30A4_U+30E4_U+30FC 1
100
AcDbBlockReference
  2
block 91
 10
0.0
 20
0.0
 30
0.0
  0
INSERT
  5
361
330
1F
100
AcDbEntity
  8
_U+30EC_U+30A4_U+30E4_U+30FC 1
100
AcDbBlockReference
  2
block 96
 10
0.0
 20
0.0
 30
0.0
  0
INSERT
  5
379
330
1F
100
AcDbEntity
  8
_U+30EC_U+30A4_U+30E4_U+30FC 1
100
AcDbBlockReference
  2
block 101
 10
0.0
 20
0.0
 30
0.0
  0
INSERT
  5
37E
330
1F
100
AcDbEntity
  8
_U+30EC_U+30A4_U+30E4_U+30FC 1
100
AcDbBlockReference
  2
block 102
 10
0.0
 20
0.0
 30
0.0
  0
INSERT
  5
383
330
1F
100
AcDbEntity
  8
_U+30EC_U+30A4_U+30E4_U+30FC 1
100
AcDbBlockReference
  2
block 103
 10
0.0
 20
0.0
 30
0.0
  0
ENDSEC
  0
SECTION
  2
OBJECTS
  0
DICTIONARY
  5
C
330
0
100
AcDbDictionary
281
     1
  3
ACAD_GROUP
350
D
  3
ACAD_LAYOUT
350
1A
  3
ACAD_MATERIAL
350
3B
  3
ACAD_MLEADERSTYLE
350
388
  3
ACAD_MLINESTYLE
350
17
  3
ACAD_PLOTSETTINGS
350
19
  3
ACAD_PLOTSTYLENAME
350
E
  3
ACAD_TABLESTYLE
350
387
  3
ACAD_VISUALSTYLE
350
2A
  0
SUN
  5
3F
330
29
100
AcDbSun
 90
        1
290
     0
 63
     7
421
 16777215
 40
1.0
291
     1
 91
  2455826
 92
 54000000
292
     0
 70
     2
 71
   256
280
     1
  0
DICTIONARY
  5
D
102
{ACAD_REACTORS
330
C
102
}
330
C
100
AcDbDictionary
281
     1
  0
DICTIONARY
  5
1A
102
{ACAD_REACTORS
330
C
102
}
330
C
100
AcDbDictionary
281
     1
  3
Layout1
350
1E
  3
Layout2
350
26
  3
Model
350
22
  0
DICTIONARY
  5
3B
102
{ACAD_REACTORS
330
C
102
}
330
C
100
AcDbDictionary
281
     1
  3
ByBlock
350
3D
  3
ByLayer
350
3C
  3
Global
350
3E
  0
DICTIONARY
  5
388
102
{ACAD_REACTORS
330
C
102
}
330
C
100
AcDbDictionary
281
     1
  0
DICTIONARY
  5
17
102
{ACAD_REACTORS
330
C
102
}
330
C
100
AcDbDictionary
281
     1
  3
Standard
350
18
  0
DICTIONARY
  5
19
102
{ACAD_REACTORS
330
C
102
}
330
C
100
AcDbDictionary
281
     1
  0
ACDBDICTIONARYWDFLT
  5
E
102
{ACAD_REACTORS
330
C
102
}
330
C
100
AcDbDictionary
281
     1
  3
Normal
350
F
100
AcDbDictionaryWithDefault
340
F
  0
DICTIONARY
  5
387
102
{ACAD_REACTORS
330
C
102
}
330
C
100
AcDbDictionary
281
     1
  0
DICTIONARY
  5
2A
102
{ACAD_REACTORS
330
C
102
}
330
C
100
AcDbDictionary
281
     1
  3
2dWireframe
350
2F
  3
3D Hidden
350
31
  3
3dWireframe
350
30
  3
Basic
350
32
  3
Brighten
350
36
  3
ColorChange
350
3A
  3
Conceptual
350
34
  3
Dim
350
35
  3
Facepattern
350
39
  3
Flat
350
2B
  3
FlatWithEdges
350
2C
  3
Gouraud
350
2D
  3
GouraudWithEdges
350
2E
  3
Linepattern
350
38
  3
Realistic
350
33
  3
Thicken
350
37
  0
LAYOUT
  5
1E
102
{ACAD_REACTORS
330
1A
102
}
330
1A
100
AcDbPlotSettings
  1

  2
none_device
  4

  6

 40
0.0
 41
0.0
 42
0.0
 43
0.0
 44
0.0
 45
0.0
 46
0.0
 47
0.0
 48
0.0
 49
0.0
140
0.0
141
0.0
142
1.0
143
1.0
 70
   688
 72
     0
 73
     0
 74
     5
  7

 75
    16
 76
     0
 77
     2
 78
   300
147
1.0
148
0.0
149
0.0
100
AcDbLayout
  1
Layout1
 70
     1
 71
     1
 10
0.0
 20
0.0
 11
12.0
 21
9.0
 12
0.0
 22
0.0
 32
0.0
 14
1.000000000000000E+20
 24
1.000000000000000E+20
 34
1.000000000000000E+20
 15
-1.000000000000000E+20
 25
-1.000000000000000E+20
 35
-1.000000000000000E+20
146
0.0
 13
0.0
 23
0.0
 33
0.0
 16
1.0
 26
0.0
 36
0.0
 17
0.0
 27
1.0
 37
0.0
 76
     0
330
1B
  0
LAYOUT
  5
26
102
{ACAD_REACTORS
330
1A
102
}
330
1A
100
AcDbPlotSettings
  1

  2
none_device
  4

  6

 40
0.0
 41
0.0
 42
0.0
 43
0.0
 44
0.0
 45
0.0
 46
0.0
 47
0.0
 48
0.0
 49
0.0
140
0.0
141
0.0
142
1.0
143
1.0
 70
   688
 72
     0
 73
     0
 74
     5
  7

 75
    16
 76
     0
 77
     2
 78
   300
147
1.0
148
0.0
149
0.0
100
AcDbLayout
  1
Layout2
 70
     1
 71
     2
 10
0.0
 20
0.0
 11
0.0
 21
0.0
 12
0.0
 22
0.0
 32
0.0
 14
0.0
 24
0.0
 34
0.0
 15
0.0
 25
0.0
 35
0.0
146
0.0
 13
0.0
 23
0.0
 33
0.0
 16
1.0
 26
0.0
 36
0.0
 17
0.0
 27
1.0
 37
0.0
 76
     0
330
23
  0
LAYOUT
  5
22
102
{ACAD_REACTORS
330
1A
102
}
330
1A
100
AcDbPlotSettings
  1

  2
none_device
  4

  6

 40
0.0
 41
0.0
 42
0.0
 43
0.0
 44
0.0
 45
0.0
 46
0.0
 47
0.0
 48
0.0
 49
0.0
140
0.0
141
0.0
142
1.0
143
1.0
 70
  1712
 72
     0
 73
     0
 74
     0
  7

 75
     0
 76
     0
 77
     2
 78
   300
147
1.0
148
0.0
149
0.0
100
AcDbLayout
  1
Model
 70
     1
 71
     0
 10
0.0
 20
0.0
 11
12.0
 21
9.0
 12
0.0
 22
0.0
 32
0.0
 14
1.000000000000000E+20
 24
1.000000000000000E+20
 34
1.000000000000000E+20
 15
-1.000000000000000E+20
 25
-1.000000000000000E+20
 35
-1.000000000000000E+20
146
0.0
 13
0.0
 23
0.0
 33
0.0
 16
1.0
 26
0.0
 36
0.0
 17
0.0
 27
1.0
 37
0.0
 76
     0
330
1F
331
29
  0
MATERIAL
  5
3D
102
{ACAD_REACTORS
330
3B
102
}
330
3B
100
AcDbMaterial
  1
ByBlock
 72
     1
 94
      127
  0
MATERIAL
  5
3C
102
{ACAD_REACTORS
330
3B
102
}
330
3B
100
AcDbMaterial
  1
ByLayer
 72
     1
 94
      127
  0
MATERIAL
  5
3E
102
{ACAD_REACTORS
330
3B
102
}
330
3B
100
AcDbMaterial
  1
Global
 72
     1
 94
      127
  0
MLINESTYLE
  5
18
102
{ACAD_REACTORS
330
17
102
}
330
17
100
AcDbMlineStyle
  2
Standard
 70
     0
  3

 62
   256
 51
90.0
 52
90.0
 71
     2
 49
0.5
 62
   256
  6
BYLAYER
 49
-0.5
 62
   256
  6
BYLAYER
  0
ACDBPLACEHOLDER
  5
F
102
{ACAD_REACTORS
330
E
102
}
330
E
  0
VISUALSTYLE
  5
2F
102
{ACAD_REACTORS
330
2A
102
}
330
2A
100
AcDbVisualStyle
  2
2dWireframe
 70
     4
177
     2
291
     0
 71
     0
176
     1
 72
     2
176
     1
 73
     0
176
     1
 90
        0
176
     1
 40
-0.6
176
     1
 41
-30.0
176
     1
 62
     5
 63
     7
421
 16777215
176
     1
 74
     1
176
     1
 91
        4
176
     1
 64
     7
176
     1
 65
   257
176
     1
 75
     1
176
     1
175
     1
176
     1
 42
1.0
176
     1
 92
        0
176
     1
 66
   257
176
     1
 43
1.0
176
     1
 76
     1
176
     1
 77
     6
176
     1
 78
     2
176
     1
 67
     7
176
     1
 79
     5
176
     1
170
     0
176
     1
171
     0
176
     1
290
     0
176
     1
 93
        1
176
     1
 44
0.0
176
     1
173
     0
176
     1
  0
VISUALSTYLE
  5
31
102
{ACAD_REACTORS
330
2A
102
}
330
2A
100
AcDbVisualStyle
  2
3D Hidden
 70
     6
177
     2
291
     0
 71
     1
176
     1
 72
     2
176
     1
 73
     2
176
     1
 90
        0
176
     1
 40
-0.6
176
     1
 41
-30.0
176
     1
 62
     5
 63
     7
421
 16777215
176
     1
 74
     2
176
     1
 91
        2
176
     1
 64
     7
176
     1
 65
   257
176
     1
 75
     2
176
     1
175
     1
176
     1
 42
40.0
176
     1
 92
        0
176
     1
 66
   257
176
     1
 43
1.0
176
     1
 76
     1
176
     1
 77
     6
176
     1
 78
     2
176
     1
 67
     7
176
     1
 79
     3
176
     1
170
     0
176
     1
171
     0
176
     1
290
     0
176
     1
 93
        1
176
     1
 44
0.0
176
     1
173
     0
176
     1
  0
VISUALSTYLE
  5
30
102
{ACAD_REACTORS
330
2A
102
}
330
2A
100
AcDbVisualStyle
  2
3dWireframe
 70
     5
177
     2
291
     0
 71
     0
176
     1
 72
     2
176
     1
 73
     0
176
     1
 90
        0
176
     1
 40
-0.6
176
     1
 41
-30.0
176
     1
 62
     5
 63
     7
421
 16777215
176
     1
 74
     1
176
     1
 91
        4
176
     1
 64
     7
176
     1
 65
   257
176
     1
 75
     1
176
     1
175
     1
176
     1
 42
1.0
176
     1
 92
        0
176
     1
 66
   257
176
     1
 43
1.0
176
     1
 76
     1
176
     1
 77
     6
176
     1
 78
     2
176
     1
 67
     7
176
     1
 79
     5
176
     1
170
     0
176
     1
171
     0
176
     1
290
     0
176
     1
 93
        1
176
     1
 44
0.0
176
     1
173
     0
176
     1
  0
VISUALSTYLE
  5
32
102
{ACAD_REACTORS
330
2A
102
}
330
2A
100
AcDbVisualStyle
  2
Basic
 70
     7
177
     2
291
     1
 71
     1
176
     1
 72
     0
176
     1
 73
     1
176
     1
 90
        0
176
     1
 40
-0.6
176
     1
 41
-30.0
176
     1
 62
     5
 63
     7
421
 16777215
176
     1
 74
     0
176
     1
 91
        4
176
     1
 64
     7
176
     1
 65
   257
176
     1
 75
     1
176
     1
175
     1
176
     1
 42
1.0
176
     1
 92
        8
176
     1
 66
     7
176
     1
 43
1.0
176
     1
 76
     1
176
     1
 77
     6
176
     1
 78
     2
176
     1
 67
     7
176
     1
 79
     5
176
     1
170
     0
176
     1
171
     0
176
     1
290
     0
176
     1
 93
        1
176
     1
 44
0.0
176
     1
173
     0
176
     1
  0
VISUALSTYLE
  5
36
102
{ACAD_REACTORS
330
2A
102
}
330
2A
100
AcDbVisualStyle
  2
Brighten
 70
    12
177
     2
291
     1
 71
     2
176
     1
 72
     2
176
     1
 73
     0
176
     1
 90
        0
176
     1
 40
-0.6
176
     1
 41
-30.0
176
     1
 62
     5
 63
     7
421
 16777215
176
     1
 74
     1
176
     1
 91
        4
176
     1
 64
     7
176
     1
 65
   257
176
     1
 75
     1
176
     1
175
     1
176
     1
 42
1.0
176
     1
 92
        8
176
     1
 66
     7
176
     1
 43
1.0
176
     1
 76
     1
176
     1
 77
     6
176
     1
 78
     2
176
     1
 67
     7
176
     1
 79
     5
176
     1
170
     0
176
     1
171
     0
176
     1
290
     0
176
     1
 93
        1
176
     1
 44
50.0
176
     1
173
     0
176
     1
  0
VISUALSTYLE
  5
3A
102
{ACAD_REACTORS
330
2A
102
}
330
2A
100
AcDbVisualStyle
  2
ColorChange
 70
    16
177
     2
291
     1
 71
     2
176
     1
 72
     2
176
     1
 73
     3
176
     1
 90
        0
176
     1
 40
-0.6
176
     1
 41
-30.0
176
     1
 62
     5
 63
     8
421
  8421504
176
     1
 74
     1
176
     1
 91
        4
176
     1
 64
     7
176
     1
 65
   257
176
     1
 75
     1
176
     1
175
     1
176
     1
 42
1.0
176
     1
 92
        8
176
     1
 66
     8
424
  8421504
176
     1
 43
1.0
176
     1
 76
     1
176
     1
 77
     6
176
     1
 78
     2
176
     1
 67
     7
176
     1
 79
     5
176
     1
170
     0
176
     1
171
     0
176
     1
290
     0
176
     1
 93
        1
176
     1
 44
0.0
176
     1
173
     0
176
     1
  0
VISUALSTYLE
  5
34
102
{ACAD_REACTORS
330
2A
102
}
330
2A
100
AcDbVisualStyle
  2
Conceptual
 70
     9
177
     2
291
     0
 71
     3
176
     1
 72
     2
176
     1
 73
     0
176
     1
 90
        0
176
     1
 40
-0.6
176
     1
 41
-30.0
176
     1
 62
     5
 63
     7
421
 16777215
176
     1
 74
     2
176
     1
 91
        2
176
     1
 64
     7
176
     1
 65
   257
176
     1
 75
     1
176
     1
175
     1
176
     1
 42
40.0
176
     1
 92
        8
176
     1
 66
     7
176
     1
 43
1.0
176
     1
 76
     1
176
     1
 77
     6
176
     1
 78
     2
176
     1
 67
     7
176
     1
 79
     3
176
     1
170
     0
176
     1
171
     0
176
     1
290
     0
176
     1
 93
        1
176
     1
 44
0.0
176
     1
173
     0
176
     1
  0
VISUALSTYLE
  5
35
102
{ACAD_REACTORS
330
2A
102
}
330
2A
100
AcDbVisualStyle
  2
Dim
 70
    11
177
     2
291
     1
 71
     2
176
     1
 72
     2
176
     1
 73
     0
176
     1
 90
        0
176
     1
 40
-0.6
176
     1
 41
-30.0
176
     1
 62
     5
 63
     7
421
 16777215
176
     1
 74
     1
176
     1
 91
        4
176
     1
 64
     7
176
     1
 65
   257
176
     1
 75
     1
176
     1
175
     1
176
     1
 42
1.0
176
     1
 92
        8
176
     1
 66
     7
176
     1
 43
1.0
176
     1
 76
     1
176
     1
 77
     6
176
     1
 78
     2
176
     1
 67
     7
176
     1
 79
     5
176
     1
170
     0
176
     1
171
     0
176
     1
290
     0
176
     1
 93
        1
176
     1
 44
-50.0
176
     1
173
     0
176
     1
  0
VISUALSTYLE
  5
39
102
{ACAD_REACTORS
330
2A
102
}
330
2A
100
AcDbVisualStyle
  2
Facepattern
 70
    15
177
     2
291
     1
 71
     2
176
     1
 72
     2
176
     1
 73
     0
176
     1
 90
        0
176
     1
 40
-0.6
176
     1
 41
-30.0
176
     1
 62
     5
 63
     7
421
 16777215
176
     1
 74
     1
176
     1
 91
        4
176
     1
 64
     7
176
     1
 65
   257
176
     1
 75
     1
176
     1
175
     1
176
     1
 42
1.0
176
     1
 92
        8
176
     1
 66
     7
176
     1
 43
1.0
176
     1
 76
     1
176
     1
 77
     6
176
     1
 78
     2
176
     1
 67
     7
176
     1
 79
     5
176
     1
170
     0
176
     1
171
     0
176
     1
290
     0
176
     1
 93
        1
176
     1
 44
0.0
176
     1
173
     0
176
     1
  0
VISUALSTYLE
  5
2B
102
{ACAD_REACTORS
330
2A
102
}
330
2A
100
AcDbVisualStyle
  2
Flat
 70
     0
177
     2
291
     1
 71
     2
176
     1
 72
     1
176
     1
 73
     1
176
     1
 90
        2
176
     1
 40
-0.6
176
     1
 41
30.0
176
     1
 62
     5
 63
     7
421
 16777215
176
     1
 74
     0
176
     1
 91
        4
176
     1
 64
     7
176
     1
 65
   257
176
     1
 75
     1
176
     1
175
     1
176
     1
 42
1.0
176
     1
 92
        8
176
     1
 66
     7
176
     1
 43
1.0
176
     1
 76
     1
176
     1
 77
     6
176
     1
 78
     2
176
     1
 67
     7
176
     1
 79
     5
176
     1
170
     0
176
     1
171
     0
176
     1
290
     0
176
     1
 93
       13
176
     1
 44
0.0
176
     1
173
     0
176
     1
  0
VISUALSTYLE
  5
2C
102
{ACAD_REACTORS
330
2A
102
}
330
2A
100
AcDbVisualStyle
  2
FlatWithEdges
 70
     1
177
     2
291
     1
 71
     2
176
     1
 72
     1
176
     1
 73
     1
176
     1
 90
        2
176
     1
 40
-0.6
176
     1
 41
30.0
176
     1
 62
     5
 63
     7
421
 16777215
176
     1
 74
     1
176
     1
 91
        4
176
     1
 64
     7
176
     1
 65
   257
176
     1
 75
     1
176
     1
175
     1
176
     1
 42
1.0
176
     1
 92
        0
176
     1
 66
   257
176
     1
 43
1.0
176
     1
 76
     1
176
     1
 77
     6
176
     1
 78
     2
176
     1
 67
     7
176
     1
 79
     5
176
     1
170
     0
176
     1
171
     0
176
     1
290
     0
176
     1
 93
       13
176
     1
 44
0.0
176
     1
173
     0
176
     1
  0
VISUALSTYLE
  5
2D
102
{ACAD_REACTORS
330
2A
102
}
330
2A
100
AcDbVisualStyle
  2
Gouraud
 70
     2
177
     2
291
     1
 71
     2
176
     1
 72
     2
176
     1
 73
     1
176
     1
 90
        2
176
     1
 40
-0.6
176
     1
 41
30.0
176
     1
 62
     5
 63
     7
421
 16777215
176
     1
 74
     0
176
     1
 91
        4
176
     1
 64
     7
176
     1
 65
   257
176
     1
 75
     1
176
     1
175
     1
176
     1
 42
1.0
176
     1
 92
        0
176
     1
 66
     7
176
     1
 43
1.0
176
     1
 76
     1
176
     1
 77
     6
176
     1
 78
     2
176
     1
 67
     7
176
     1
 79
     5
176
     1
170
     0
176
     1
171
     0
176
     1
290
     0
176
     1
 93
       13
176
     1
 44
0.0
176
     1
173
     0
176
     1
  0
VISUALSTYLE
  5
2E
102
{ACAD_REACTORS
330
2A
102
}
330
2A
100
AcDbVisualStyle
  2
GouraudWithEdges
 70
     3
177
     2
291
     1
 71
     2
176
     1
 72
     2
176
     1
 73
     1
176
     1
 90
        2
176
     1
 40
-0.6
176
     1
 41
30.0
176
     1
 62
     5
 63
     7
421
 16777215
176
     1
 74
     1
176
     1
 91
        4
176
     1
 64
     7
176
     1
 65
   257
176
     1
 75
     1
176
     1
175
     1
176
     1
 42
1.0
176
     1
 92
        0
176
     1
 66
   257
176
     1
 43
1.0
176
     1
 76
     1
176
     1
 77
     6
176
     1
 78
     2
176
     1
 67
     7
176
     1
 79
     5
176
     1
170
     0
176
     1
171
     0
176
     1
290
     0
176
     1
 93
       13
176
     1
 44
0.0
176
     1
173
     0
176
     1
  0
VISUALSTYLE
  5
38
102
{ACAD_REACTORS
330
2A
102
}
330
2A
100
AcDbVisualStyle
  2
Linepattern
 70
    14
177
     2
291
     1
 71
     2
176
     1
 72
     2
176
     1
 73
     0
176
     1
 90
        0
176
     1
 40
-0.6
176
     1
 41
-30.0
176
     1
 62
     5
 63
     7
421
 16777215
176
     1
 74
     1
176
     1
 91
        4
176
     1
 64
     7
176
     1
 65
   257
176
     1
 75
     7
176
     1
175
     7
176
     1
 42
1.0
176
     1
 92
        8
176
     1
 66
     7
176
     1
 43
1.0
176
     1
 76
     1
176
     1
 77
     6
176
     1
 78
     2
176
     1
 67
     7
176
     1
 79
     5
176
     1
170
     0
176
     1
171
     0
176
     1
290
     0
176
     1
 93
        1
176
     1
 44
0.0
176
     1
173
     0
176
     1
  0
VISUALSTYLE
  5
33
102
{ACAD_REACTORS
330
2A
102
}
330
2A
100
AcDbVisualStyle
  2
Realistic
 70
     8
177
     2
291
     0
 71
     2
176
     1
 72
     2
176
     1
 73
     0
176
     1
 90
        0
176
     1
 40
-0.6
176
     1
 41
-30.0
176
     1
 62
     5
 63
     7
421
 16777215
176
     1
 74
     1
176
     1
 91
        0
176
     1
 64
     7
176
     1
 65
   257
176
     1
 75
     1
176
     1
175
     1
176
     1
 42
1.0
176
     1
 92
        8
176
     1
 66
     8
424
  7895160
176
     1
 43
1.0
176
     1
 76
     1
176
     1
 77
     6
176
     1
 78
     2
176
     1
 67
     7
176
     1
 79
     5
176
     1
170
     0
176
     1
171
     0
176
     1
290
     0
176
     1
 93
       13
176
     1
 44
0.0
176
     1
173
     0
176
     1
  0
VISUALSTYLE
  5
37
102
{ACAD_REACTORS
330
2A
102
}
330
2A
100
AcDbVisualStyle
  2
Thicken
 70
    13
177
     2
291
     1
 71
     2
176
     1
 72
     2
176
     1
 73
     0
176
     1
 90
        0
176
     1
 40
-0.6
176
     1
 41
-30.0
176
     1
 62
     5
 63
     7
421
 16777215
176
     1
 74
     1
176
     1
 91
        4
176
     1
 64
     7
176
     1
 65
   257
176
     1
 75
     1
176
     1
175
     1
176
     1
 42
1.0
176
     1
 92
       12
176
     1
 66
     7
176
     1
 43
1.0
176
     1
 76
     1
176
     1
 77
     6
176
     1
 78
     2
176
     1
 67
     7
176
     1
 79
     5
176
     1
170
     0
176
     1
171
     0
176
     1
290
     0
176
     1
 93
        1
176
     1
 44
0.0
176
     1
173
     0
176
     1
  0
ENDSEC
  0
EOF
