0
SECTION
2
HEADER
9
$INSUNITS
70
4
9
$ACADVER
1
AC1014
9
$HANDSEED
5
FFFF
0
ENDSEC
0
SECTION
2
TABLES
0
TABLE
2
VPORT
5
8
100
AcDbSymbolTable
0
ENDTAB
0
TABLE
2
LTYPE
5
5
100
AcDbSymbolTable
0
LTYPE
5
14
100
AcDbSymbolTableRecord
100
AcDbLinetypeTableRecord
2
BYBLOCK
70
0
0
LTYPE
5
15
100
AcDbSymbolTableRecord
100
AcDbLinetypeTableRecord
2
BYLAYER
70
0
0
ENDTAB
0
TABLE
2
LAYER
5
2
100
AcDbSymbolTable
70
2
0
LAYER
5
50
100
AcDbSymbolTableRecord
100
AcDbLayerTableRecord
2
0
70
0
6
CONTINUOUS
0
ENDTAB
0
TABLE
2
STYLE
5
3
100
AcDbSymbolTable
70
1
0
STYLE
5
11
100
AcDbSymbolTableRecord
100
AcDbTextStyleTableRecord
2
STANDARD
70
0
0
ENDTAB
0
TABLE
2
VIEW
5
6
100
AcDbSymbolTable
70
0
0
ENDTAB
0
TABLE
2
UCS
5
7
100
AcDbSymbolTable
70
0
0
ENDTAB
0
TABLE
2
APPID
5
9
100
AcDbSymbolTable
70
2
0
APPID
5
12
100
AcDbSymbolTableRecord
100
AcDbRegAppTableRecord
2
ACAD
70
0
0
ENDTAB
0
TABLE
2
DIMSTYLE
5
A
100
AcDbSymbolTable
70
1
0
ENDTAB
0
TABLE
2
BLOCK_RECORD
5
1
100
AcDbSymbolTable
70
1
0
BLOCK_RECORD
5
1F
100
AcDbSymbolTableRecord
100
AcDbBlockTableRecord
2
*MODEL_SPACE
0
BLOCK_RECORD
5
1B
100
AcDbSymbolTableRecord
100
AcDbBlockTableRecord
2
*PAPER_SPACE
0
ENDTAB
0
ENDSEC
0
SECTION
2
BLOCKS
0
BLOCK
5
20
100
AcDbEntity
100
AcDbBlockBegin
2
*MODEL_SPACE
0
ENDBLK
5
21
100
AcDbEntity
100
AcDbBlockEnd
0
BLOCK
5
1C
100
AcDbEntity
100
AcDbBlockBegin
2
*PAPER_SPACE
0
ENDBLK
5
1D
100
AcDbEntity
100
AcDbBlockEnd
0
ENDSEC
0
SECTION
2
ENTITIES
0
CIRCLE
5
100
100
AcDbEntity
8
0
100
AcDbCircle
10
-155.91381212381987
20
195.60122422249555
30
0
40
1.3000000000000078
0
CIRCLE
5
101
100
AcDbEntity
8
0
100
AcDbCircle
10
-190.11351904843636
20
195.77582980902574
30
0
40
1.2999999999999898
0
CIRCLE
5
102
100
AcDbEntity
8
0
100
AcDbCircle
10
-217.03602049157809
20
231.33463990340741
30
0
40
1.2999999999999898
0
CIRCLE
5
103
100
AcDbEntity
8
0
100
AcDbCircle
10
-183.03610086924664
20
231.26047706576995
30
0
40
1.2999999999999898
0
LINE
5
104
100
AcDbEntity
8
0
100
AcDbLine
10
-146.98886656708771
20
252.87448831249748
30
0
11
-149.98885943023714
21
252.87448831249745
31
0
0
LINE
5
105
100
AcDbEntity
8
0
100
AcDbLine
10
-149.98885943023714
20
252.87448831249745
30
0
11
-149.98885943023714
21
258.56793171760523
31
0
0
LINE
5
106
100
AcDbEntity
8
0
100
AcDbLine
10
-149.98885943023714
20
258.56793171760523
30
0
11
-146.97644765776261
21
258.56793171760523
31
0
0
LINE
5
107
100
AcDbEntity
8
0
100
AcDbLine
10
-146.97644765776261
20
258.56793171760523
30
0
11
-146.97292720982296
21
260.18187949519694
31
0
0
ARC
5
108
100
AcDbEntity
8
0
100
AcDbCircle
10
-156.97290342032093
20
260.20369209417714
30
0
40
9.9999999999999805
100
AcDbArc
50
-0.12497708528237851
51
89.875022914718016
0
LINE
5
109
100
AcDbEntity
8
0
100
AcDbLine
10
-156.95109082134081
20
270.20366830467515
30
0
11
-216.95094808432879
21
270.33454389855569
31
0
0
ARC
5
110
100
AcDbEntity
8
0
100
AcDbCircle
10
-216.97276068330888
20
260.33456768805769
30
0
40
10.000000000000016
100
AcDbArc
50
89.875022914718173
51
179.87502291472055
0
LINE
5
111
100
AcDbEntity
8
0
100
AcDbLine
10
-226.97273689380688
20
260.35638028703778
30
0
11
-226.9762573417465
21
258.74243250944608
31
0
0
LINE
5
112
100
AcDbEntity
8
0
100
AcDbLine
10
-226.9762573417465
20
258.74243250944608
30
0
11
-223.96387423474823
21
258.72929083471831
31
0
0
LINE
5
113
100
AcDbEntity
8
0
100
AcDbLine
10
-223.96387423474823
20
258.72929083471831
30
0
11
-223.98871193522282
21
253.03590160721944
31
0
0
LINE
5
114
100
AcDbEntity
8
0
100
AcDbLine
10
-223.98871193522282
20
253.03590160721944
30
0
11
-226.98867625107167
21
253.04898910433826
31
0
0
LINE
5
115
100
AcDbEntity
8
0
100
AcDbLine
10
-226.98867625107167
20
253.04898910433826
30
0
11
-227.15890743461702
21
175.00657942671506
31
0
0
LINE
5
116
100
AcDbEntity
8
0
100
AcDbLine
10
-227.15891078737036
20
175.00657943402831
30
0
11
-225.65891813991743
21
175.00003563970779
31
0
0
LINE
5
117
100
AcDbEntity
8
0
100
AcDbLine
10
-225.65891813991743
20
175.00003563970779
30
0
11
-224.15892170834269
21
174.99676374986078
31
0
0
LINE
5
118
100
AcDbEntity
8
0
100
AcDbLine
10
-224.15892170834269
20
174.99676374986078
30
0
11
-224.18007992935341
21
165.29678682567774
31
0
0
LINE
5
119
100
AcDbEntity
8
0
100
AcDbLine
10
-224.18007992935341
20
165.29678682567774
30
0
11
-225.68007636092807
21
165.30005871552476
31
0
0
LINE
5
120
100
AcDbEntity
8
0
100
AcDbLine
10
-225.68007636092807
20
165.30005871552476
30
0
11
-227.1800586803478
21
165.3098003164809
31
0
0
LINE
5
121
100
AcDbEntity
8
0
100
AcDbLine
10
-227.1800586803478
20
165.3098003164809
30
0
11
-227.19086288360782
21
160.35661818205793
31
0
0
ARC
5
122
100
AcDbEntity
8
0
100
AcDbCircle
10
-217.19088667310984
20
160.33480558307787
30
0
40
9.9999999999999787
100
AcDbArc
50
179.87502291472055
51
269.87502291471816
0
LINE
5
123
100
AcDbEntity
8
0
100
AcDbLine
10
-217.21269927208994
20
150.33482937257983
30
0
11
-157.21284200910205
21
150.2039537786992
31
0
0
ARC
5
124
100
AcDbEntity
8
0
100
AcDbCircle
10
-157.19102941012193
20
160.20392998919721
30
0
40
10.000000000000016
100
AcDbArc
50
269.87502291471804
51
359.87502291472055
0
LINE
5
125
100
AcDbEntity
8
0
100
AcDbLine
10
-147.19105319962395
20
160.18211739021712
30
0
11
-147.18024899636393
21
165.13529952464012
31
0
0
LINE
5
126
100
AcDbEntity
8
0
100
AcDbLine
10
-147.18024899636393
20
165.13529952464012
30
0
11
-148.6802595400936
21
165.13210170337797
31
0
0
LINE
5
127
100
AcDbEntity
8
0
100
AcDbLine
10
-148.6802595400936
20
165.13210170337797
30
0
11
-150.18025597166829
21
165.13537359322498
31
0
0
LINE
5
128
100
AcDbEntity
8
0
100
AcDbLine
10
-150.18025597166829
20
165.13537359322498
30
0
11
-150.15909775065759
21
174.83535051740802
31
0
0
LINE
5
129
100
AcDbEntity
8
0
100
AcDbLine
10
-150.15909775065759
20
174.83535051740802
30
0
11
-148.65910131908291
21
174.832078627561
31
0
0
LINE
5
130
100
AcDbEntity
8
0
100
AcDbLine
10
-148.65910131908291
20
174.832078627561
30
0
11
-147.15909439787987
21
174.832078627561
31
0
0
LINE
5
131
100
AcDbEntity
8
0
100
AcDbLine
10
-147.15909775063315
20
174.83207863487425
30
0
11
-146.98886656708771
21
252.87448831249748
31
0
0
ENDSEC
0
SECTION
2
OBJECTS
0
DICTIONARY
5
C
100
AcDbDictionary
3
ACAD_GROUP
350
D
3
ACAD_MLINESTYLE
350
17
0
DICTIONARY
5
D
100
AcDbDictionary
0
DICTIONARY
5
1A
330
C
100
AcDbDictionary
0
DICTIONARY
5
17
100
AcDbDictionary
0
ENDSEC
0
EOF
