0
SECTION
2
HEADER
9
$ACADVER
1
AC1009
0
ENDSEC
0
SECTION
2
TABLES
0
TABLE
2
VPORT
70
1
0
VPORT
2
ACTIVE
70
0
10
0.0
20
0.0
11
0.0
21
0.0
12
0.0
22
0.0
13
0.0
23
0.0
14
0.0
24
0.0
15
0.0
25
0.0
16
0.0
26
0.0
36
0.0
17
0.0
27
0.0
37
0.0
40
0.0
41
0.0
42
0.0
43
0.0
44
0.0
50
0.0
51
0.0
71
0
72
1000
73
1
74
3
75
0
76
0
77
0
78
0
0
ENDTAB
0
ENDSEC
0
SECTION
2
ENTITIES
0
LINE
8
boundary
62
5
39
2
10
12.069545
20
272.535974
11
12.308774
21
271.400541
0
LINE
8
boundary
62
5
39
2
10
12.308774
20
271.400541
11
12.414130
21
270.894800
0
LINE
8
boundary
62
5
39
2
10
12.414130
20
270.894800
11
12.639294
21
269.876337
0
LINE
8
boundary
62
5
39
2
10
12.639294
20
269.876337
11
12.862721
21
268.844894
0
LINE
8
boundary
62
5
39
2
10
12.862721
20
268.844894
11
12.987552
21
268.299183
0
LINE
8
boundary
62
5
39
2
10
12.987552
20
268.299183
11
13.352983
21
266.690500
0
LINE
8
boundary
62
5
39
2
10
13.352983
20
266.690500
11
13.745520
21
265.050423
0
LINE
8
boundary
62
5
39
2
10
13.745520
20
265.050423
11
13.900950
21
264.405310
0
LINE
8
boundary
62
5
39
2
10
13.900950
20
264.405310
11
14.379152
21
262.487196
0
LINE
8
boundary
62
5
39
2
10
14.379152
20
262.487196
11
15.073451
21
259.803636
0
LINE
8
boundary
62
5
39
2
10
15.073451
20
259.803636
11
15.386439
21
258.628607
0
LINE
8
boundary
62
5
39
2
10
15.386439
20
258.628607
11
15.833204
21
256.986243
0
LINE
8
boundary
62
5
39
2
10
15.833204
20
256.986243
11
16.149356
21
255.852373
0
LINE
8
boundary
62
5
39
2
10
16.149356
20
255.852373
11
16.377212
21
255.031803
0
LINE
8
boundary
62
5
39
2
10
16.377212
20
255.031803
11
16.654607
21
254.037766
0
LINE
8
boundary
62
5
39
2
10
16.654607
20
254.037766
11
17.084582
21
252.518708
0
LINE
8
boundary
62
5
39
2
10
17.084582
20
252.518708
11
17.281014
21
251.853325
0
LINE
8
boundary
62
5
39
2
10
17.281014
20
251.853325
11
17.531869
21
250.965038
0
LINE
8
boundary
62
5
39
2
10
17.531869
20
250.965038
11
17.851592
21
249.886019
0
LINE
8
boundary
62
5
39
2
10
17.851592
20
249.886019
11
17.995709
21
249.378588
0
LINE
8
boundary
62
5
39
2
10
17.995709
20
249.378588
11
18.442661
21
247.876015
0
LINE
8
boundary
62
5
39
2
10
18.442661
20
247.876015
11
18.614691
21
247.295327
0
LINE
8
boundary
62
5
39
2
10
18.614691
20
247.295327
11
18.958002
21
246.124773
0
LINE
8
boundary
62
5
39
2
10
18.958002
20
246.124773
11
19.449956
21
244.465407
0
LINE
8
boundary
62
5
39
2
10
19.449956
20
244.465407
11
19.772528
21
243.399918
0
LINE
8
boundary
62
5
39
2
10
19.772528
20
243.399918
11
19.955567
21
242.782036
0
LINE
8
boundary
62
5
39
2
10
19.955567
20
242.782036
11
20.470611
21
241.088994
0
LINE
8
boundary
62
5
39
2
10
20.470611
20
241.088994
11
21.337012
21
238.201826
0
LINE
8
boundary
62
5
39
2
10
21.337012
20
238.201826
11
22.022693
21
235.966695
0
LINE
8
boundary
62
5
39
2
10
22.022693
20
235.966695
11
22.230240
21
235.281562
0
LINE
8
boundary
62
5
39
2
10
22.230240
20
235.281562
11
22.516286
21
234.358406
0
LINE
8
boundary
62
5
39
2
10
22.516286
20
234.358406
11
23.129038
21
232.327654
0
LINE
8
boundary
62
5
39
2
10
23.129038
20
232.327654
11
23.587337
21
230.840248
0
LINE
8
boundary
62
5
39
2
10
23.587337
20
230.840248
11
24.042983
21
229.346462
0
LINE
8
boundary
62
5
39
2
10
24.042983
20
229.346462
11
24.720297
21
227.173197
0
LINE
8
boundary
62
5
39
2
10
24.720297
20
227.173197
11
24.970449
21
226.343594
0
LINE
8
boundary
62
5
39
2
10
24.970449
20
226.343594
11
25.142331
21
225.785482
0
LINE
8
boundary
62
5
39
2
10
25.142331
20
225.785482
11
25.893781
21
223.325596
0
LINE
8
boundary
62
5
39
2
10
25.893781
20
223.325596
11
26.669658
21
220.840927
0
LINE
8
boundary
62
5
39
2
10
26.669658
20
220.840927
11
26.838283
21
220.297003
0
LINE
8
boundary
62
5
39
2
10
26.838283
20
220.297003
11
27.127337
21
219.385587
0
LINE
8
boundary
62
5
39
2
10
27.127337
20
219.385587
11
27.776330
21
217.260713
0
LINE
8
boundary
62
5
39
2
10
27.776330
20
217.260713
11
28.162595
21
216.025974
0
LINE
8
boundary
62
5
39
2
10
28.162595
20
216.025974
11
28.724067
21
214.220882
0
LINE
8
boundary
62
5
39
2
10
28.724067
20
214.220882
11
29.637148
21
211.357692
0
LINE
8
boundary
62
5
39
2
10
29.637148
20
211.357692
11
29.809393
21
210.824227
0
LINE
8
boundary
62
5
39
2
10
29.809393
20
210.824227
11
30.659848
21
208.137925
0
LINE
8
boundary
62
5
39
2
10
30.659848
20
208.137925
11
31.082356
21
206.828718
0
LINE
8
boundary
62
5
39
2
10
31.082356
20
206.828718
11
31.301319
21
206.155524
0
LINE
8
boundary
62
5
39
2
10
31.301319
20
206.155524
11
31.640694
21
205.096455
0
LINE
8
boundary
62
5
39
2
10
31.640694
20
205.096455
11
32.134746
21
203.575815
0
LINE
8
boundary
62
5
39
2
10
32.134746
20
203.575815
11
32.510124
21
202.437081
0
LINE
8
boundary
62
5
39
2
10
32.510124
20
202.437081
11
32.945229
21
201.129587
0
LINE
8
boundary
62
5
39
2
10
32.945229
20
201.129587
11
33.140574
21
200.534808
0
LINE
8
boundary
62
5
39
2
10
33.140574
20
200.534808
11
33.647620
21
199.014013
0
LINE
8
boundary
62
5
39
2
10
33.647620
20
199.014013
11
33.931191
21
198.176857
0
LINE
8
boundary
62
5
39
2
10
33.931191
20
198.176857
11
34.162688
21
197.492916
0
LINE
8
boundary
62
5
39
2
10
34.162688
20
197.492916
11
34.643807
21
196.094213
0
LINE
8
boundary
62
5
39
2
10
34.643807
20
196.094213
11
35.211986
21
194.448710
0
LINE
8
boundary
62
5
39
2
10
35.211986
20
194.448710
11
35.745277
21
192.925074
0
LINE
8
boundary
62
5
39
2
10
35.745277
20
192.925074
11
36.070293
21
192.011729
0
LINE
8
boundary
62
5
39
2
10
36.070293
20
192.011729
11
36.287988
21
191.400032
0
LINE
8
boundary
62
5
39
2
10
36.287988
20
191.400032
11
36.790186
21
190.010774
0
LINE
8
boundary
62
5
39
2
10
36.790186
20
190.010774
11
37.010610
21
189.407992
0
LINE
8
boundary
62
5
39
2
10
37.010610
20
189.407992
11
37.393673
21
188.344348
0
LINE
8
boundary
62
5
39
2
10
37.393673
20
188.344348
11
37.953251
21
186.813033
0
LINE
8
boundary
62
5
39
2
10
37.953251
20
186.813033
11
38.521509
21
185.278814
0
LINE
8
boundary
62
5
39
2
10
38.521509
20
185.278814
11
38.715828
21
184.759746
0
LINE
8
boundary
62
5
39
2
10
38.715828
20
184.759746
11
39.098160
21
183.741276
0
LINE
8
boundary
62
5
39
2
10
39.098160
20
183.741276
11
39.363406
21
183.040931
0
LINE
8
boundary
62
5
39
2
10
39.363406
20
183.040931
11
39.682958
21
182.199933
0
LINE
8
boundary
62
5
39
2
10
39.682958
20
182.199933
11
40.018692
21
181.323019
0
LINE
8
boundary
62
5
39
2
10
40.018692
20
181.323019
11
40.275643
21
180.654333
0
LINE
8
boundary
62
5
39
2
10
40.275643
20
180.654333
11
40.681515
21
179.604787
0
LINE
8
boundary
62
5
39
2
10
40.681515
20
179.604787
11
40.875994
21
179.103947
0
LINE
8
boundary
62
5
39
2
10
40.875994
20
179.103947
11
41.351756
21
177.885013
0
LINE
8
boundary
62
5
39
2
10
41.351756
20
177.885013
11
42.705813
21
174.456647
0
LINE
8
boundary
62
5
39
2
10
42.705813
20
174.456647
11
43.966493
21
171.263051
0
LINE
8
boundary
62
5
39
2
10
43.966493
20
171.263051
11
44.310970
21
170.395670
0
LINE
8
boundary
62
5
39
2
10
44.310970
20
170.395670
11
45.237054
21
168.075303
0
LINE
8
boundary
62
5
39
2
10
45.237054
20
168.075303
11
45.950715
21
166.293691
0
LINE
8
boundary
62
5
39
2
10
45.950715
20
166.293691
11
46.531874
21
164.850747
0
LINE
8
boundary
62
5
39
2
10
46.531874
20
164.850747
11
47.625189
21
162.137305
0
LINE
8
boundary
62
5
39
2
10
47.625189
20
162.137305
11
47.849394
21
161.584145
0
LINE
8
boundary
62
5
39
2
10
47.849394
20
161.584145
11
48.659773
21
159.579356
0
LINE
8
boundary
62
5
39
2
10
48.659773
20
159.579356
11
49.181244
21
158.270719
0
LINE
8
boundary
62
5
39
2
10
49.181244
20
158.270719
11
50.521943
21
154.905578
0
LINE
8
boundary
62
5
39
2
10
50.521943
20
154.905578
11
51.102538
21
153.436242
0
LINE
8
boundary
62
5
39
2
10
51.102538
20
153.436242
11
51.880382
21
151.481395
0
LINE
8
boundary
62
5
39
2
10
51.880382
20
151.481395
11
52.919780
21
148.838183
0
LINE
8
boundary
62
5
39
2
10
52.919780
20
148.838183
11
53.255172
21
147.991381
0
LINE
8
boundary
62
5
39
2
10
53.255172
20
147.991381
11
54.217706
21
145.525687
0
LINE
8
boundary
62
5
39
2
10
54.217706
20
145.525687
11
54.638862
21
144.429555
0
LINE
8
boundary
62
5
39
2
10
54.638862
20
144.429555
11
56.021474
21
140.790872
0
LINE
8
boundary
62
5
39
2
10
56.021474
20
140.790872
11
56.572896
21
139.313590
0
LINE
8
boundary
62
5
39
2
10
56.572896
20
139.313590
11
57.135775
21
137.817119
0
LINE
8
boundary
62
5
39
2
10
57.135775
20
137.817119
11
58.070085
21
135.284764
0
LINE
8
boundary
62
5
39
2
10
58.070085
20
135.284764
11
58.256815
21
134.782467
0
LINE
8
boundary
62
5
39
2
10
58.256815
20
134.782467
11
58.770907
21
133.370708
0
LINE
8
boundary
62
5
39
2
10
58.770907
20
133.370708
11
59.373651
21
131.685851
0
LINE
8
boundary
62
5
39
2
10
59.373651
20
131.685851
11
59.615526
21
130.994781
0
LINE
8
boundary
62
5
39
2
10
59.615526
20
130.994781
11
60.486460
21
128.523167
0
LINE
8
boundary
62
5
39
2
10
60.486460
20
128.523167
11
61.217096
21
126.402388
0
LINE
8
boundary
62
5
39
2
10
61.217096
20
126.402388
11
61.603699
21
125.287445
0
LINE
8
boundary
62
5
39
2
10
61.603699
20
125.287445
11
62.414358
21
122.898648
0
LINE
8
boundary
62
5
39
2
10
62.414358
20
122.898648
11
62.719040
21
121.983420
0
LINE
8
boundary
62
5
39
2
10
62.719040
20
121.983420
11
62.879162
21
121.492915
0
LINE
8
boundary
62
5
39
2
10
62.879162
20
121.492915
11
63.821411
21
118.621829
0
LINE
8
boundary
62
5
39
2
10
63.821411
20
118.621829
11
64.601266
21
116.202169
0
LINE
8
boundary
62
5
39
2
10
64.601266
20
116.202169
11
64.926241
21
115.198905
0
LINE
8
boundary
62
5
39
2
10
64.926241
20
115.198905
11
65.470319
21
113.491000
0
LINE
8
boundary
62
5
39
2
10
65.470319
20
113.491000
11
66.021450
21
111.727501
0
LINE
8
boundary
62
5
39
2
10
66.021450
20
111.727501
11
66.378077
21
110.569849
0
LINE
8
boundary
62
5
39
2
10
66.378077
20
110.569849
11
67.106310
21
108.215029
0
LINE
8
boundary
62
5
39
2
10
67.106310
20
108.215029
11
68.170443
21
104.719691
0
LINE
8
boundary
62
5
39
2
10
68.170443
20
104.719691
11
69.254250
21
101.087973
0
LINE
8
boundary
62
5
39
2
10
69.254250
20
101.087973
11
70.648577
21
96.352594
0
LINE
8
boundary
62
5
39
2
10
70.648577
20
96.352594
11
71.362618
21
93.885755
0
LINE
8
boundary
62
5
39
2
10
71.362618
20
93.885755
11
72.973686
21
88.280831
0
LINE
8
boundary
62
5
39
2
10
72.973686
20
88.280831
11
73.427180
21
86.681625
0
LINE
8
boundary
62
5
39
2
10
73.427180
20
86.681625
11
73.661474
21
85.854292
0
LINE
8
boundary
62
5
39
2
10
73.661474
20
85.854292
11
74.187412
21
83.998368
0
LINE
8
boundary
62
5
39
2
10
74.187412
20
83.998368
11
74.815117
21
81.783281
0
LINE
8
boundary
62
5
39
2
10
74.815117
20
81.783281
11
75.197538
21
80.435210
0
LINE
8
boundary
62
5
39
2
10
75.197538
20
80.435210
11
75.693989
21
78.670244
0
LINE
8
boundary
62
5
39
2
10
75.693989
20
78.670244
11
75.953233
21
77.751304
0
LINE
8
boundary
62
5
39
2
10
75.953233
20
77.751304
11
76.435658
21
76.040491
0
LINE
8
boundary
62
5
39
2
10
76.435658
20
76.040491
11
77.078716
21
73.768719
0
LINE
8
boundary
62
5
39
2
10
77.078716
20
73.768719
11
77.361292
21
72.772935
0
LINE
8
boundary
62
5
39
2
10
77.361292
20
72.772935
11
77.900598
21
70.861614
0
LINE
8
boundary
62
5
39
2
10
77.900598
20
70.861614
11
78.619721
21
68.328674
0
LINE
8
boundary
62
5
39
2
10
78.619721
20
68.328674
11
78.876236
21
67.434457
0
LINE
8
boundary
62
5
39
2
10
78.876236
20
67.434457
11
79.335941
21
65.824181
0
LINE
8
boundary
62
5
39
2
10
79.335941
20
65.824181
11
79.735137
21
64.442695
0
LINE
8
boundary
62
5
39
2
10
79.735137
20
64.442695
11
80.049033
21
63.350821
0
LINE
8
boundary
62
5
39
2
10
80.049033
20
63.350821
11
80.587321
21
61.502915
0
LINE
8
boundary
62
5
39
2
10
80.587321
20
61.502915
11
80.758738
21
60.911283
0
LINE
8
boundary
62
5
39
2
10
80.758738
20
60.911283
11
81.432086
21
58.620120
0
LINE
8
boundary
62
5
39
2
10
81.432086
20
58.620120
11
81.634787
21
57.935358
0
LINE
8
boundary
62
5
39
2
10
81.634787
20
57.935358
11
82.157637
21
56.175708
0
LINE
8
boundary
62
5
39
2
10
82.157637
20
56.175708
11
82.843584
21
53.895900
0
LINE
8
boundary
62
5
39
2
10
82.843584
20
53.895900
11
83.073031
21
53.148232
0
LINE
8
boundary
62
5
39
2
10
83.073031
20
53.148232
11
83.525366
21
51.661121
0
LINE
8
boundary
62
5
39
2
10
83.525366
20
51.661121
11
83.878703
21
50.524865
0
LINE
8
boundary
62
5
39
2
10
83.878703
20
50.524865
11
84.202718
21
49.473507
0
LINE
8
boundary
62
5
39
2
10
84.202718
20
49.473507
11
84.491832
21
48.546443
0
LINE
8
boundary
62
5
39
2
10
84.491832
20
48.546443
11
84.875700
21
47.334984
0
LINE
8
boundary
62
5
39
2
10
84.875700
20
47.334984
11
85.537626
21
45.260176
0
LINE
8
boundary
62
5
39
2
10
85.537626
20
45.260176
11
86.204783
21
43.224632
0
LINE
8
boundary
62
5
39
2
10
86.204783
20
43.224632
11
86.371364
21
42.729287
0
LINE
8
boundary
62
5
39
2
10
86.371364
20
42.729287
11
86.860716
21
41.264163
0
LINE
8
boundary
62
5
39
2
10
86.860716
20
41.264163
11
87.193674
21
40.293208
0
LINE
8
boundary
62
5
39
2
10
87.193674
20
40.293208
11
87.513410
21
39.354487
0
LINE
8
boundary
62
5
39
2
10
87.513410
20
39.354487
11
88.005655
21
37.948817
0
LINE
8
boundary
62
5
39
2
10
88.005655
20
37.948817
11
88.808254
21
35.694831
0
LINE
8
boundary
62
5
39
2
10
88.808254
20
35.694831
11
89.457656
21
33.945363
0
LINE
8
boundary
62
5
39
2
10
89.457656
20
33.945363
11
90.103213
21
32.253748
0
LINE
8
boundary
62
5
39
2
10
90.103213
20
32.253748
11
90.529754
21
31.176392
0
LINE
8
boundary
62
5
39
2
10
90.529754
20
31.176392
11
90.962917
21
30.075776
0
LINE
8
boundary
62
5
39
2
10
90.962917
20
30.075776
11
91.655527
21
28.393790
0
LINE
8
boundary
62
5
39
2
10
91.655527
20
28.393790
11
92.395271
21
26.653225
0
LINE
8
boundary
62
5
39
2
10
92.395271
20
26.653225
11
92.683477
21
25.991225
0
LINE
8
boundary
62
5
39
2
10
92.683477
20
25.991225
11
93.548526
21
24.093957
0
LINE
8
boundary
62
5
39
2
10
93.548526
20
24.093957
11
93.879300
21
23.405807
0
LINE
8
boundary
62
5
39
2
10
93.879300
20
23.405807
11
94.416017
21
22.285185
0
LINE
8
boundary
62
5
39
2
10
94.416017
20
22.285185
11
94.975571
21
21.181066
0
LINE
8
boundary
62
5
39
2
10
94.975571
20
21.181066
11
95.286583
21
20.565749
0
LINE
8
boundary
62
5
39
2
10
95.286583
20
20.565749
11
96.059692
21
19.125414
0
LINE
8
boundary
62
5
39
2
10
96.059692
20
19.125414
11
96.617130
21
18.138115
0
LINE
8
boundary
62
5
39
2
10
96.617130
20
18.138115
11
97.040549
21
17.403832
0
LINE
8
boundary
62
5
39
2
10
97.040549
20
17.403832
11
97.926366
21
15.967526
0
LINE
8
boundary
62
5
39
2
10
97.926366
20
15.967526
11
98.209220
21
15.540088
0
LINE
8
boundary
62
5
39
2
10
98.209220
20
15.540088
11
98.817169
21
14.624753
0
LINE
8
boundary
62
5
39
2
10
98.817169
20
14.624753
11
99.269192
21
13.993814
0
LINE
8
boundary
62
5
39
2
10
99.269192
20
13.993814
11
99.713242
21
13.377522
0
LINE
8
boundary
62
5
39
2
10
99.713242
20
13.377522
11
100.317681
21
12.604882
0
LINE
8
boundary
62
5
39
2
10
100.317681
20
12.604882
11
101.354833
21
11.370626
0
LINE
8
boundary
62
5
39
2
10
101.354833
20
11.370626
11
102.380739
21
10.288300
0
LINE
8
boundary
62
5
39
2
10
102.380739
20
10.288300
11
102.966502
21
9.746967
0
LINE
8
boundary
62
5
39
2
10
102.966502
20
9.746967
11
103.355798
21
9.392264
0
LINE
8
boundary
62
5
39
2
10
103.355798
20
9.392264
11
104.282816
21
8.661748
0
LINE
8
boundary
62
5
39
2
10
104.282816
20
8.661748
11
105.216517
21
8.041567
0
LINE
8
boundary
62
5
39
2
10
105.216517
20
8.041567
11
106.157326
21
7.534723
0
LINE
8
boundary
62
5
39
2
10
106.157326
20
7.534723
11
107.104861
21
7.143713
0
LINE
8
boundary
62
5
39
2
10
107.104861
20
7.143713
11
108.055228
21
6.868973
0
LINE
8
boundary
62
5
39
2
10
108.055228
20
6.868973
11
109.003731
21
6.710331
0
LINE
8
boundary
62
5
39
2
10
109.003731
20
6.710331
11
109.945819
21
6.667500
0
LINE
8
boundary
62
5
39
2
10
109.945819
20
6.667500
11
110.877024
21
6.740064
0
LINE
8
boundary
62
5
39
2
10
110.877024
20
6.740064
11
111.792903
21
6.927627
0
LINE
8
boundary
62
5
39
2
10
111.792903
20
6.927627
11
112.689056
21
7.229680
0
LINE
8
boundary
62
5
39
2
10
112.689056
20
7.229680
11
113.510007
21
7.621428
0
LINE
8
boundary
62
5
39
2
10
113.510007
20
7.621428
11
114.267433
21
8.089635
0
LINE
8
boundary
62
5
39
2
10
114.267433
20
8.089635
11
114.988967
21
8.640017
0
LINE
8
boundary
62
5
39
2
10
114.988967
20
8.640017
11
115.673402
21
9.269059
0
LINE
8
boundary
62
5
39
2
10
115.673402
20
9.269059
11
116.319549
21
9.973729
0
LINE
8
boundary
62
5
39
2
10
116.319549
20
9.973729
11
116.712409
21
10.446088
0
LINE
8
boundary
62
5
39
2
10
116.712409
20
10.446088
11
117.391653
21
11.426741
0
LINE
8
boundary
62
5
39
2
10
117.391653
20
11.426741
11
118.012328
21
12.511036
0
LINE
8
boundary
62
5
39
2
10
118.012328
20
12.511036
11
118.486612
21
13.513767
0
LINE
8
boundary
62
5
39
2
10
118.486612
20
13.513767
11
118.910655
21
14.575509
0
LINE
8
boundary
62
5
39
2
10
118.910655
20
14.575509
11
119.286997
21
15.702659
0
LINE
8
boundary
62
5
39
2
10
119.286997
20
15.702659
11
119.512371
21
16.462208
0
LINE
8
boundary
62
5
39
2
10
119.512371
20
16.462208
11
119.863815
21
18.000887
0
LINE
8
boundary
62
5
39
2
10
119.863815
20
18.000887
11
119.990970
21
18.781791
0
LINE
8
boundary
62
5
39
2
10
119.990970
20
18.781791
11
120.105539
21
19.480308
0
LINE
8
boundary
62
5
39
2
10
120.105539
20
19.480308
11
120.259238
21
20.876985
0
LINE
8
boundary
62
5
39
2
10
120.259238
20
20.876985
11
107.436175
21
21.125261
0
LINE
8
boundary
62
5
39
2
10
107.436175
20
21.125261
11
107.436175
21
23.871261
0
LINE
8
boundary
62
5
39
2
10
107.436175
20
23.871261
11
120.375103
21
23.871261
0
LINE
8
boundary
62
5
39
2
10
120.375103
20
23.871261
11
120.368168
21
25.264670
0
LINE
8
boundary
62
5
39
2
10
120.368168
20
25.264670
11
120.306289
21
26.256522
0
LINE
8
boundary
62
5
39
2
10
120.306289
20
26.256522
11
120.251864
21
27.136884
0
LINE
8
boundary
62
5
39
2
10
120.251864
20
27.136884
11
120.127431
21
28.395437
0
LINE
8
boundary
62
5
39
2
10
120.127431
20
28.395437
11
120.058707
21
28.972033
0
LINE
8
boundary
62
5
39
2
10
120.058707
20
28.972033
11
119.988194
21
29.572798
0
LINE
8
boundary
62
5
39
2
10
119.988194
20
29.572798
11
119.877681
21
30.305857
0
LINE
8
boundary
62
5
39
2
10
119.877681
20
30.305857
11
119.722809
21
31.305439
0
LINE
8
boundary
62
5
39
2
10
119.722809
20
31.305439
11
119.443952
21
32.806818
0
LINE
8
boundary
62
5
39
2
10
119.443952
20
32.806818
11
119.214209
21
33.924545
0
LINE
8
boundary
62
5
39
2
10
119.214209
20
33.924545
11
118.991630
21
34.962289
0
LINE
8
boundary
62
5
39
2
10
118.991630
20
34.962289
11
118.530782
21
36.880505
0
LINE
8
boundary
62
5
39
2
10
118.530782
20
36.880505
11
118.242688
21
37.967829
0
LINE
8
boundary
62
5
39
2
10
118.242688
20
37.967829
11
118.008329
21
38.859993
0
LINE
8
boundary
62
5
39
2
10
118.008329
20
38.859993
11
117.669204
21
40.047422
0
LINE
8
boundary
62
5
39
2
10
117.669204
20
40.047422
11
102.217619
21
40.047422
0
LINE
8
boundary
62
5
39
2
10
102.217619
20
40.047422
11
102.217619
21
42.793422
0
LINE
8
boundary
62
5
39
2
10
102.217619
20
42.793422
11
116.793270
21
42.793422
0
LINE
8
boundary
62
5
39
2
10
116.793270
20
42.793422
11
116.625977
21
43.495217
0
LINE
8
boundary
62
5
39
2
10
116.625977
20
43.495217
11
116.097774
21
45.137057
0
LINE
8
boundary
62
5
39
2
10
116.097774
20
45.137057
11
115.681815
21
46.365253
0
LINE
8
boundary
62
5
39
2
10
115.681815
20
46.365253
11
115.354387
21
47.336802
0
LINE
8
boundary
62
5
39
2
10
115.354387
20
47.336802
11
114.659561
21
49.308292
0
LINE
8
boundary
62
5
39
2
10
114.659561
20
49.308292
11
114.227221
21
50.503981
0
LINE
8
boundary
62
5
39
2
10
114.227221
20
50.503981
11
113.722731
21
51.885346
0
LINE
8
boundary
62
5
39
2
10
113.722731
20
51.885346
11
112.841303
21
54.225807
0
LINE
8
boundary
62
5
39
2
10
112.841303
20
54.225807
11
112.417144
21
55.319961
0
LINE
8
boundary
62
5
39
2
10
112.417144
20
55.319961
11
111.918126
21
56.611371
0
LINE
8
boundary
62
5
39
2
10
111.918126
20
56.611371
11
111.211513
21
58.393043
0
LINE
8
boundary
62
5
39
2
10
111.211513
20
58.393043
11
110.983549
21
58.969583
0
LINE
8
boundary
62
5
39
2
10
110.983549
20
58.969583
11
95.761909
21
58.969583
0
LINE
8
boundary
62
5
39
2
10
95.761909
20
58.969583
11
95.761909
21
61.715583
0
LINE
8
boundary
62
5
39
2
10
95.761909
20
61.715583
11
109.799640
21
61.715583
0
LINE
8
boundary
62
5
39
2
10
109.799640
20
61.715583
11
108.928318
21
64.005828
0
LINE
8
boundary
62
5
39
2
10
108.928318
20
64.005828
11
108.495019
21
65.036329
0
LINE
8
boundary
62
5
39
2
10
108.495019
20
65.036329
11
107.328472
21
67.816754
0
LINE
8
boundary
62
5
39
2
10
107.328472
20
67.816754
11
106.243316
21
70.352442
0
LINE
8
boundary
62
5
39
2
10
106.243316
20
70.352442
11
105.668548
21
71.698370
0
LINE
8
boundary
62
5
39
2
10
105.668548
20
71.698370
11
103.992924
21
75.561225
0
LINE
8
boundary
62
5
39
2
10
103.992924
20
75.561225
11
102.971266
21
77.891744
0
LINE
8
boundary
62
5
39
2
10
102.971266
20
77.891744
11
88.999861
21
77.891744
0
LINE
8
boundary
62
5
39
2
10
88.999861
20
77.891744
11
88.999860
21
80.637743
0
LINE
8
boundary
62
5
39
2
10
88.999860
20
80.637743
11
101.686625
21
80.637744
0
LINE
8
boundary
62
5
39
2
10
101.686625
20
80.637744
11
100.432327
21
83.653185
0
LINE
8
boundary
62
5
39
2
10
100.432327
20
83.653185
11
99.395487
21
85.989940
0
LINE
8
boundary
62
5
39
2
10
99.395487
20
85.989940
11
98.630785
21
87.717383
0
LINE
8
boundary
62
5
39
2
10
98.630785
20
87.717383
11
97.142390
21
91.071437
0
LINE
8
boundary
62
5
39
2
10
97.142390
20
91.071437
11
96.815776
21
91.809251
0
LINE
8
boundary
62
5
39
2
10
96.815776
20
91.809251
11
95.329385
21
95.168609
0
LINE
8
boundary
62
5
39
2
10
95.329385
20
95.168609
11
94.997269
21
95.918292
0
LINE
8
boundary
62
5
39
2
10
94.997269
20
95.918292
11
94.668736
21
96.663905
0
LINE
8
boundary
62
5
39
2
10
94.668736
20
96.663905
11
82.101664
21
96.813904
0
LINE
8
boundary
62
5
39
2
10
82.101664
20
96.813904
11
82.101664
21
99.559905
0
LINE
8
boundary
62
5
39
2
10
82.101664
20
99.559905
11
93.317104
21
99.559904
0
LINE
8
boundary
62
5
39
2
10
93.317104
20
99.559904
11
92.797572
21
100.918315
0
LINE
8
boundary
62
5
39
2
10
92.797572
20
100.918315
11
91.389705
21
104.144662
0
LINE
8
boundary
62
5
39
2
10
91.389705
20
104.144662
11
90.724652
21
105.682385
0
LINE
8
boundary
62
5
39
2
10
90.724652
20
105.682385
11
89.615726
21
108.255225
0
LINE
8
boundary
62
5
39
2
10
89.615726
20
108.255225
11
88.720588
21
110.354914
0
LINE
8
boundary
62
5
39
2
10
88.720588
20
110.354914
11
87.870268
21
112.356746
0
LINE
8
boundary
62
5
39
2
10
87.870268
20
112.356746
11
86.782386
21
114.946837
0
LINE
8
boundary
62
5
39
2
10
86.782386
20
114.946837
11
86.514918
21
115.586066
0
LINE
8
boundary
62
5
39
2
10
86.514918
20
115.586066
11
75.167765
21
115.736066
0
LINE
8
boundary
62
5
39
2
10
75.167765
20
115.736066
11
75.167765
21
118.482066
0
LINE
8
boundary
62
5
39
2
10
75.167765
20
118.482066
11
85.240502
21
118.482065
0
LINE
8
boundary
62
5
39
2
10
85.240502
20
118.482065
11
84.901472
21
119.476552
0
LINE
8
boundary
62
5
39
2
10
84.901472
20
119.476552
11
84.465806
21
120.533889
0
LINE
8
boundary
62
5
39
2
10
84.465806
20
120.533889
11
83.070283
21
123.960490
0
LINE
8
boundary
62
5
39
2
10
83.070283
20
123.960490
11
82.806415
21
124.610989
0
LINE
8
boundary
62
5
39
2
10
82.806415
20
124.610989
11
81.282327
21
128.413220
0
LINE
8
boundary
62
5
39
2
10
81.282327
20
128.413220
11
80.019207
21
131.612489
0
LINE
8
boundary
62
5
39
2
10
80.019207
20
131.612489
11
79.572146
21
132.744596
0
LINE
8
boundary
62
5
39
2
10
79.572146
20
132.744596
11
78.886824
21
134.508227
0
LINE
8
boundary
62
5
39
2
10
78.886824
20
134.508227
11
68.147413
21
134.658226
0
LINE
8
boundary
62
5
39
2
10
68.147413
20
134.658226
11
68.147413
21
137.404226
0
LINE
8
boundary
62
5
39
2
10
68.147413
20
137.404226
11
77.697220
21
137.404226
0
LINE
8
boundary
62
5
39
2
10
77.697220
20
137.404226
11
76.448476
21
140.849230
0
LINE
8
boundary
62
5
39
2
10
76.448476
20
140.849230
11
76.141473
21
141.662573
0
LINE
8
boundary
62
5
39
2
10
76.141473
20
141.662573
11
74.926916
21
144.894790
0
LINE
8
boundary
62
5
39
2
10
74.926916
20
144.894790
11
74.481799
21
146.094347
0
LINE
8
boundary
62
5
39
2
10
74.481799
20
146.094347
11
73.431911
21
148.935960
0
LINE
8
boundary
62
5
39
2
10
73.431911
20
148.935960
11
72.841880
21
150.553711
0
LINE
8
boundary
62
5
39
2
10
72.841880
20
150.553711
11
71.963259
21
152.972603
0
LINE
8
boundary
62
5
39
2
10
71.963259
20
152.972603
11
71.745412
21
153.580387
0
LINE
8
boundary
62
5
39
2
10
71.745412
20
153.580387
11
61.003115
21
153.580387
0
LINE
8
boundary
62
5
39
2
10
61.003115
20
153.580387
11
61.003116
21
156.326388
0
LINE
8
boundary
62
5
39
2
10
61.003116
20
156.326388
11
70.699068
21
156.326387
0
LINE
8
boundary
62
5
39
2
10
70.699068
20
156.326387
11
70.520843
21
157.004391
0
LINE
8
boundary
62
5
39
2
10
70.520843
20
157.004391
11
69.607875
21
159.596666
0
LINE
8
boundary
62
5
39
2
10
69.607875
20
159.596666
11
69.104573
21
161.030821
0
LINE
8
boundary
62
5
39
2
10
69.104573
20
161.030821
11
68.007232
21
164.202276
0
LINE
8
boundary
62
5
39
2
10
68.007232
20
164.202276
11
67.714453
21
165.051180
0
LINE
8
boundary
62
5
39
2
10
67.714453
20
165.051180
11
66.413022
21
168.880201
0
LINE
8
boundary
62
5
39
2
10
66.413022
20
168.880201
11
66.022978
21
170.045792
0
LINE
8
boundary
62
5
39
2
10
66.022978
20
170.045792
11
65.249647
21
172.352549
0
LINE
8
boundary
62
5
39
2
10
65.249647
20
172.352549
11
53.960234
21
172.502548
0
LINE
8
boundary
62
5
39
2
10
53.960234
20
172.502548
11
53.960234
21
175.248548
0
LINE
8
boundary
62
5
39
2
10
53.960234
20
175.248548
11
64.228947
21
175.248548
0
LINE
8
boundary
62
5
39
2
10
64.228947
20
175.248548
11
63.694092
21
177.060753
0
LINE
8
boundary
62
5
39
2
10
63.694092
20
177.060753
11
63.483621
21
177.706762
0
LINE
8
boundary
62
5
39
2
10
63.483621
20
177.706762
11
63.045736
21
179.053990
0
LINE
8
boundary
62
5
39
2
10
63.045736
20
179.053990
11
62.768807
21
179.911810
0
LINE
8
boundary
62
5
39
2
10
62.768807
20
179.911810
11
62.403841
21
181.044718
0
LINE
8
boundary
62
5
39
2
10
62.403841
20
181.044718
11
62.057447
21
182.127648
0
LINE
8
boundary
62
5
39
2
10
62.057447
20
182.127648
11
61.768464
21
183.032727
0
LINE
8
boundary
62
5
39
2
10
61.768464
20
183.032727
11
61.349429
21
184.354988
0
LINE
8
boundary
62
5
39
2
10
61.349429
20
184.354988
11
61.139687
21
185.017820
0
LINE
8
boundary
62
5
39
2
10
61.139687
20
185.017820
11
60.644654
21
186.594534
0
LINE
8
boundary
62
5
39
2
10
60.644654
20
186.594534
11
59.943023
21
188.847108
0
LINE
8
boundary
62
5
39
2
10
59.943023
20
188.847108
11
59.626770
21
189.872522
0
LINE
8
boundary
62
5
39
2
10
59.626770
20
189.872522
11
59.290984
21
190.953515
0
LINE
8
boundary
62
5
39
2
10
59.290984
20
190.953515
11
47.355056
21
191.424709
0
LINE
8
boundary
62
5
39
2
10
47.355056
20
191.424709
11
47.355056
21
194.170709
0
LINE
8
boundary
62
5
39
2
10
47.355056
20
194.170709
11
58.248459
21
194.170709
0
LINE
8
boundary
62
5
39
2
10
58.248459
20
194.170709
11
58.017632
21
195.111793
0
LINE
8
boundary
62
5
39
2
10
58.017632
20
195.111793
11
57.729053
21
196.069239
0
LINE
8
boundary
62
5
39
2
10
57.729053
20
196.069239
11
57.359624
21
197.294104
0
LINE
8
boundary
62
5
39
2
10
57.359624
20
197.294104
11
56.939958
21
198.702282
0
LINE
8
boundary
62
5
39
2
10
56.939958
20
198.702282
11
56.710363
21
199.471823
0
LINE
8
boundary
62
5
39
2
10
56.710363
20
199.471823
11
56.154097
21
201.360137
0
LINE
8
boundary
62
5
39
2
10
56.154097
20
201.360137
11
55.719727
21
202.848492
0
LINE
8
boundary
62
5
39
2
10
55.719727
20
202.848492
11
55.435171
21
203.813694
0
LINE
8
boundary
62
5
39
2
10
55.435171
20
203.813694
11
54.804204
21
205.979889
0
LINE
8
boundary
62
5
39
2
10
54.804204
20
205.979889
11
54.576357
21
206.773892
0
LINE
8
boundary
62
5
39
2
10
54.576357
20
206.773892
11
54.182579
21
208.141931
0
LINE
8
boundary
62
5
39
2
10
54.182579
20
208.141931
11
53.790574
21
209.525863
0
LINE
8
boundary
62
5
39
2
10
53.790574
20
209.525863
11
53.570606
21
210.299726
0
LINE
8
boundary
62
5
39
2
10
53.570606
20
210.299726
11
41.447612
21
210.346870
0
LINE
8
boundary
62
5
39
2
10
41.447612
20
210.346870
11
41.447612
21
213.092870
0
LINE
8
boundary
62
5
39
2
10
41.447612
20
213.092870
11
52.739157
21
213.092870
0
LINE
8
boundary
62
5
39
2
10
52.739157
20
213.092870
11
52.366705
21
214.607692
0
LINE
8
boundary
62
5
39
2
10
52.366705
20
214.607692
11
52.220823
21
215.137788
0
LINE
8
boundary
62
5
39
2
10
52.220823
20
215.137788
11
51.771919
21
216.760722
0
LINE
8
boundary
62
5
39
2
10
51.771919
20
216.760722
11
51.433317
21
218.009304
0
LINE
8
boundary
62
5
39
2
10
51.433317
20
218.009304
11
51.187470
21
218.910903
0
LINE
8
boundary
62
5
39
2
10
51.187470
20
218.910903
11
50.652701
21
220.912949
0
LINE
8
boundary
62
5
39
2
10
50.652701
20
220.912949
11
50.509049
21
221.456066
0
LINE
8
boundary
62
5
39
2
10
50.509049
20
221.456066
11
50.036925
21
223.212400
0
LINE
8
boundary
62
5
39
2
10
50.036925
20
223.212400
11
49.434138
21
225.521812
0
LINE
8
boundary
62
5
39
2
10
49.434138
20
225.521812
11
48.909819
21
227.522094
0
LINE
8
boundary
62
5
39
2
10
48.909819
20
227.522094
11
48.555698
21
228.925668
0
LINE
8
boundary
62
5
39
2
10
48.555698
20
228.925668
11
35.973529
21
229.269031
0
LINE
8
boundary
62
5
39
2
10
35.973529
20
229.269031
11
35.973528
21
232.015031
0
LINE
8
boundary
62
5
39
2
10
35.973528
20
232.015031
11
47.717879
21
232.015031
0
LINE
8
boundary
62
5
39
2
10
47.717879
20
232.015031
11
47.257140
21
234.051679
0
LINE
8
boundary
62
5
39
2
10
47.257140
20
234.051679
11
46.850048
21
235.677065
0
LINE
8
boundary
62
5
39
2
10
46.850048
20
235.677065
11
46.716808
21
236.203878
0
LINE
8
boundary
62
5
39
2
10
46.716808
20
236.203878
11
46.077142
21
238.822513
0
LINE
8
boundary
62
5
39
2
10
46.077142
20
238.822513
11
45.636807
21
240.606313
0
LINE
8
boundary
62
5
39
2
10
45.636807
20
240.606313
11
45.339670
21
241.853817
0
LINE
8
boundary
62
5
39
2
10
45.339670
20
241.853817
11
44.563729
21
245.067185
0
LINE
8
boundary
62
5
39
2
10
44.563729
20
245.067185
11
44.311201
21
246.139453
0
LINE
8
boundary
62
5
39
2
10
44.311201
20
246.139453
11
43.859598
21
248.041193
0
LINE
8
boundary
62
5
39
2
10
43.859598
20
248.041193
11
30.809049
21
248.191192
0
LINE
8
boundary
62
5
39
2
10
30.809049
20
248.191192
11
30.809049
21
250.937192
0
LINE
8
boundary
62
5
39
2
10
30.809049
20
250.937192
11
43.127859
21
250.937192
0
LINE
8
boundary
62
5
39
2
10
43.127859
20
250.937192
11
42.946600
21
251.908378
0
LINE
8
boundary
62
5
39
2
10
42.946600
20
251.908378
11
42.385973
21
254.260694
0
LINE
8
boundary
62
5
39
2
10
42.385973
20
254.260694
11
42.212629
21
255.015688
0
LINE
8
boundary
62
5
39
2
10
42.212629
20
255.015688
11
41.910771
21
256.299773
0
LINE
8
boundary
62
5
39
2
10
41.910771
20
256.299773
11
41.505655
21
258.011423
0
LINE
8
boundary
62
5
39
2
10
41.505655
20
258.011423
11
41.254736
21
259.044985
0
LINE
8
boundary
62
5
39
2
10
41.254736
20
259.044985
11
40.818211
21
260.908087
0
LINE
8
boundary
62
5
39
2
10
40.818211
20
260.908087
11
40.227977
21
263.363946
0
LINE
8
boundary
62
5
39
2
10
40.227977
20
263.363946
11
40.073624
21
263.993659
0
LINE
8
boundary
62
5
39
2
10
40.073624
20
263.993659
11
39.488489
21
266.434880
0
LINE
8
boundary
62
5
39
2
10
39.488489
20
266.434880
11
39.322985
21
267.113353
0
LINE
8
boundary
62
5
39
2
10
39.322985
20
267.113353
11
26.109979
21
267.113353
0
LINE
8
boundary
62
5
39
2
10
26.109979
20
267.113353
11
26.109979
21
269.859353
0
LINE
8
boundary
62
5
39
2
10
26.109979
20
269.859353
11
38.595504
21
269.859353
0
LINE
8
boundary
62
5
39
2
10
38.595504
20
269.859353
11
38.205147
21
271.650821
0
LINE
8
boundary
62
5
39
2
10
38.205147
20
271.650821
11
37.977456
21
272.575067
0
LINE
8
boundary
62
5
39
2
10
37.977456
20
272.575067
11
37.581755
21
274.149587
0
LINE
8
boundary
62
5
39
2
10
37.581755
20
274.149587
11
36.979561
21
276.517915
0
LINE
8
boundary
62
5
39
2
10
36.979561
20
276.517915
11
36.360282
21
278.950814
0
LINE
8
boundary
62
5
39
2
10
36.360282
20
278.950814
11
36.063300
21
280.110992
0
LINE
8
boundary
62
5
39
2
10
36.063300
20
280.110992
11
35.763508
21
281.253942
0
LINE
8
boundary
62
5
39
2
10
35.763508
20
281.253942
11
35.174630
21
283.484885
0
LINE
8
boundary
62
5
39
2
10
35.174630
20
283.484885
11
34.594543
21
285.672647
0
LINE
8
boundary
62
5
39
2
10
34.594543
20
285.672647
11
21.809286
21
286.035513
0
LINE
8
boundary
62
5
39
2
10
21.809286
20
286.035513
11
21.809286
21
288.781514
0
LINE
8
boundary
62
5
39
2
10
21.809286
20
288.781514
11
33.697472
21
288.781514
0
LINE
8
boundary
62
5
39
2
10
33.697472
20
288.781514
11
33.235137
21
290.626730
0
LINE
8
boundary
62
5
39
2
10
33.235137
20
290.626730
11
33.083387
21
291.183302
0
LINE
8
boundary
62
5
39
2
10
33.083387
20
291.183302
11
32.350609
21
293.768507
0
LINE
8
boundary
62
5
39
2
10
32.350609
20
293.768507
11
31.874168
21
295.420723
0
LINE
8
boundary
62
5
39
2
10
31.874168
20
295.420723
11
31.626761
21
296.254902
0
LINE
8
boundary
62
5
39
2
10
31.626761
20
296.254902
11
31.146752
21
297.863282
0
LINE
8
boundary
62
5
39
2
10
31.146752
20
297.863282
11
30.562834
21
299.782553
0
LINE
8
boundary
62
5
39
2
10
30.562834
20
299.782553
11
30.384642
21
300.365697
0
LINE
8
boundary
62
5
39
2
10
30.384642
20
300.365697
11
30.040492
21
301.456087
0
LINE
8
boundary
62
5
39
2
10
30.040492
20
301.456087
11
29.709157
21
302.505332
0
LINE
8
boundary
62
5
39
2
10
29.709157
20
302.505332
11
29.523052
21
303.075953
0
LINE
8
boundary
62
5
39
2
10
29.523052
20
303.075953
11
29.045176
21
304.539717
0
LINE
8
boundary
62
5
39
2
10
29.045176
20
304.539717
11
17.923092
21
304.957674
0
LINE
8
boundary
62
5
39
2
10
17.923092
20
304.957674
11
17.923092
21
307.703675
0
LINE
8
boundary
62
5
39
2
10
17.923092
20
307.703675
11
27.895532
21
307.703674
0
LINE
8
boundary
62
5
39
2
10
27.895532
20
307.703674
11
27.767319
21
308.245818
0
LINE
8
boundary
62
5
39
2
10
27.767319
20
308.245818
11
27.503863
21
308.970592
0
LINE
8
boundary
62
5
39
2
10
27.503863
20
308.970592
11
27.142758
21
309.954552
0
LINE
8
boundary
62
5
39
2
10
27.142758
20
309.954552
11
26.526196
21
311.573765
0
LINE
8
boundary
62
5
39
2
10
26.526196
20
311.573765
11
26.032327
21
312.800286
0
LINE
8
boundary
62
5
39
2
10
26.032327
20
312.800286
11
25.547586
21
313.957259
0
LINE
8
boundary
62
5
39
2
10
25.547586
20
313.957259
11
24.941951
21
315.322204
0
LINE
8
boundary
62
5
39
2
10
24.941951
20
315.322204
11
24.585911
21
316.114394
0
LINE
8
boundary
62
5
39
2
10
24.585911
20
316.114394
11
24.273660
21
316.753878
0
LINE
8
boundary
62
5
39
2
10
24.273660
20
316.753878
11
23.629173
21
318.048378
0
LINE
8
boundary
62
5
39
2
10
23.629173
20
318.048378
11
23.373168
21
318.523131
0
LINE
8
boundary
62
5
39
2
10
23.373168
20
318.523131
11
22.992240
21
319.215020
0
LINE
8
boundary
62
5
39
2
10
22.992240
20
319.215020
11
22.355392
21
320.290447
0
LINE
8
boundary
62
5
39
2
10
22.355392
20
320.290447
11
21.870880
21
321.024182
0
LINE
8
boundary
62
5
39
2
10
21.870880
20
321.024182
11
21.399727
21
321.693222
0
LINE
8
boundary
62
5
39
2
10
21.399727
20
321.693222
11
21.070209
21
322.145339
0
LINE
8
boundary
62
5
39
2
10
21.070209
20
322.145339
11
20.521951
21
322.824816
0
LINE
8
boundary
62
5
39
2
10
20.521951
20
322.824816
11
19.968468
21
323.428289
0
LINE
8
boundary
62
5
39
2
10
19.968468
20
323.428289
11
19.512961
21
323.879835
0
LINE
8
boundary
62
5
39
2
10
19.512961
20
323.879835
11
14.131529
21
323.879835
0
LINE
8
boundary
62
5
39
2
10
14.131529
20
323.879835
11
14.131529
21
326.101249
0
LINE
8
boundary
62
5
39
2
10
14.131529
20
326.101249
11
13.471061
21
325.984036
0
LINE
8
boundary
62
5
39
2
10
13.471061
20
325.984036
11
12.763219
21
325.776495
0
LINE
8
boundary
62
5
39
2
10
12.763219
20
325.776495
11
12.269893
21
325.556103
0
LINE
8
boundary
62
5
39
2
10
12.269893
20
325.556103
11
11.783961
21
325.287108
0
LINE
8
boundary
62
5
39
2
10
11.783961
20
325.287108
11
11.306339
21
324.963428
0
LINE
8
boundary
62
5
39
2
10
11.306339
20
324.963428
11
10.838736
21
324.582131
0
LINE
8
boundary
62
5
39
2
10
10.838736
20
324.582131
11
10.414410
21
324.177610
0
LINE
8
boundary
62
5
39
2
10
10.414410
20
324.177610
11
9.944785
21
323.649866
0
LINE
8
boundary
62
5
39
2
10
9.944785
20
323.649866
11
9.523897
21
323.096703
0
LINE
8
boundary
62
5
39
2
10
9.523897
20
323.096703
11
9.220550
21
322.623982
0
LINE
8
boundary
62
5
39
2
10
9.220550
20
322.623982
11
8.955541
21
322.167321
0
LINE
8
boundary
62
5
39
2
10
8.955541
20
322.167321
11
8.700413
21
321.691442
0
LINE
8
boundary
62
5
39
2
10
8.700413
20
321.691442
11
8.462080
21
321.177131
0
LINE
8
boundary
62
5
39
2
10
8.462080
20
321.177131
11
8.210337
21
320.534072
0
LINE
8
boundary
62
5
39
2
10
8.210337
20
320.534072
11
7.988532
21
319.948474
0
LINE
8
boundary
62
5
39
2
10
7.988532
20
319.948474
11
7.827995
21
319.432635
0
LINE
8
boundary
62
5
39
2
10
7.827995
20
319.432635
11
7.633566
21
318.735062
0
LINE
8
boundary
62
5
39
2
10
7.633566
20
318.735062
11
7.478012
21
318.091864
0
LINE
8
boundary
62
5
39
2
10
7.478012
20
318.091864
11
7.346054
21
317.468389
0
LINE
8
boundary
62
5
39
2
10
7.346054
20
317.468389
11
7.247191
21
316.936622
0
LINE
8
boundary
62
5
39
2
10
7.247191
20
316.936622
11
7.156000
21
316.394941
0
LINE
8
boundary
62
5
39
2
10
7.156000
20
316.394941
11
7.072598
21
315.843654
0
LINE
8
boundary
62
5
39
2
10
7.072598
20
315.843654
11
6.998561
21
315.296311
0
LINE
8
boundary
62
5
39
2
10
6.998561
20
315.296311
11
6.922708
21
314.631170
0
LINE
8
boundary
62
5
39
2
10
6.922708
20
314.631170
11
6.849609
21
313.877831
0
LINE
8
boundary
62
5
39
2
10
6.849609
20
313.877831
11
6.792502
21
313.153080
0
LINE
8
boundary
62
5
39
2
10
6.792502
20
313.153080
11
6.757536
21
312.611515
0
LINE
8
boundary
62
5
39
2
10
6.757536
20
312.611515
11
6.727585
21
312.047835
0
LINE
8
boundary
62
5
39
2
10
6.727585
20
312.047835
11
6.701931
21
311.420193
0
LINE
8
boundary
62
5
39
2
10
6.701931
20
311.420193
11
6.679739
21
310.616298
0
LINE
8
boundary
62
5
39
2
10
6.679739
20
310.616298
11
6.668884
21
309.806468
0
LINE
8
boundary
62
5
39
2
10
6.668884
20
309.806468
11
6.668215
21
309.042108
0
LINE
8
boundary
62
5
39
2
10
6.668215
20
309.042108
11
6.675644
21
308.308238
0
LINE
8
boundary
62
5
39
2
10
6.675644
20
308.308238
11
6.686766
21
307.756149
0
LINE
8
boundary
62
5
39
2
10
6.686766
20
307.756149
11
6.705138
21
307.088779
0
LINE
8
boundary
62
5
39
2
10
6.705138
20
307.088779
11
6.725254
21
306.520657
0
LINE
8
boundary
62
5
39
2
10
6.725254
20
306.520657
11
6.752322
21
305.960370
0
LINE
8
boundary
62
5
39
2
10
6.752322
20
305.960370
11
6.788756
21
305.198501
0
LINE
8
boundary
62
5
39
2
10
6.788756
20
305.198501
11
6.859817
21
304.035348
0
LINE
8
boundary
62
5
39
2
10
6.859817
20
304.035348
11
6.913776
21
303.256757
0
LINE
8
boundary
62
5
39
2
10
6.913776
20
303.256757
11
7.026489
21
301.854766
0
LINE
8
boundary
62
5
39
2
10
7.026489
20
301.854766
11
7.141987
21
300.554350
0
LINE
8
boundary
62
5
39
2
10
7.141987
20
300.554350
11
7.255095
21
299.404821
0
LINE
8
boundary
62
5
39
2
10
7.255095
20
299.404821
11
7.331057
21
298.677355
0
LINE
8
boundary
62
5
39
2
10
7.331057
20
298.677355
11
7.490964
21
297.278644
0
LINE
8
boundary
62
5
39
2
10
7.490964
20
297.278644
11
7.562514
21
296.712629
0
LINE
8
boundary
62
5
39
2
10
7.562514
20
296.712629
11
7.650341
21
296.018105
0
LINE
8
boundary
62
5
39
2
10
7.650341
20
296.018105
11
7.777984
21
295.104663
0
LINE
8
boundary
62
5
39
2
10
7.777984
20
295.104663
11
7.924861
21
294.101340
0
LINE
8
boundary
62
5
39
2
10
7.924861
20
294.101340
11
8.037909
21
293.391180
0
LINE
8
boundary
62
5
39
2
10
8.037909
20
293.391180
11
8.183121
21
292.508622
0
LINE
8
boundary
62
5
39
2
10
8.183121
20
292.508622
11
8.348278
21
291.567070
0
LINE
8
boundary
62
5
39
2
10
8.348278
20
291.567070
11
8.459670
21
290.945741
0
LINE
8
boundary
62
5
39
2
10
8.459670
20
290.945741
11
8.657460
21
289.885609
0
LINE
8
boundary
62
5
39
2
10
8.657460
20
289.885609
11
8.755838
21
289.362572
0
LINE
8
boundary
62
5
39
2
10
8.755838
20
289.362572
11
8.963333
21
288.279830
0
LINE
8
boundary
62
5
39
2
10
8.963333
20
288.279830
11
9.149880
21
287.308262
0
LINE
8
boundary
62
5
39
2
10
9.149880
20
287.308262
11
9.298388
21
286.546756
0
LINE
8
boundary
62
5
39
2
10
9.298388
20
286.546756
11
9.487225
21
285.588695
0
LINE
8
boundary
62
5
39
2
10
9.487225
20
285.588695
11
9.586469
21
285.083951
0
LINE
8
boundary
62
5
39
2
10
9.586469
20
285.083951
11
9.818082
21
283.910025
0
LINE
8
boundary
62
5
39
2
10
9.818082
20
283.910025
11
10.069619
21
282.623309
0
LINE
8
boundary
62
5
39
2
10
10.069619
20
282.623309
11
10.170724
21
282.102979
0
LINE
8
boundary
62
5
39
2
10
10.170724
20
282.102979
11
10.300878
21
281.429064
0
LINE
8
boundary
62
5
39
2
10
10.300878
20
281.429064
11
10.511765
21
280.336723
0
LINE
8
boundary
62
5
39
2
10
10.511765
20
280.336723
11
10.629694
21
279.723771
0
LINE
8
boundary
62
5
39
2
10
10.629694
20
279.723771
11
10.941727
21
278.128106
0
LINE
8
boundary
62
5
39
2
10
10.941727
20
278.128106
11
11.161598
21
277.012785
0
LINE
8
boundary
62
5
39
2
10
11.161598
20
277.012785
11
11.272452
21
276.450916
0
LINE
8
boundary
62
5
39
2
10
11.272452
20
276.450916
11
11.382999
21
275.900211
0
LINE
8
boundary
62
5
39
2
10
11.382999
20
275.900211
11
11.575893
21
274.943781
0
LINE
8
boundary
62
5
39
2
10
11.575893
20
274.943781
11
11.835650
21
273.665544
0
LINE
8
boundary
62
5
39
2
10
11.835650
20
273.665544
11
12.006845
21
272.834655
0
LINE
8
boundary
62
5
39
2
10
12.006845
20
272.834655
11
12.069545
21
272.535974
0
LINE
8
annotation
62
1
39
211
10
100.774871
20
20.098261
11
100.774871
21
20.098261
0
LINE
8
annotation
62
1
39
211
10
100.774871
20
20.098261
11
101.079687
21
20.211850
0
LINE
8
annotation
62
1
39
211
10
101.079687
20
20.211850
11
101.359469
21
20.365386
0
LINE
8
annotation
62
1
39
211
10
101.359469
20
20.365386
11
101.611328
21
20.554958
0
LINE
8
annotation
62
1
39
211
10
101.611328
20
20.554958
11
101.832371
21
20.776653
0
LINE
8
annotation
62
1
39
211
10
101.832371
20
20.776653
11
102.019709
21
21.026559
0
LINE
8
annotation
62
1
39
211
10
102.019709
20
21.026559
11
102.170448
21
21.300764
0
LINE
8
annotation
62
1
39
211
10
102.170448
20
21.300764
11
102.281699
21
21.595356
0
LINE
8
annotation
62
1
39
211
10
102.281699
20
21.595356
11
102.350570
21
21.906424
0
LINE
8
annotation
62
1
39
211
10
102.350570
20
21.906424
11
102.374169
21
22.230056
0
LINE
8
annotation
62
1
39
211
10
102.374169
20
22.230056
11
102.374169
21
23.830858
0
LINE
8
annotation
62
1
39
211
10
102.374169
20
23.830858
11
102.374169
21
23.830858
0
LINE
8
annotation
62
1
39
211
10
102.374169
20
23.830858
11
102.357010
21
24.022614
0
LINE
8
annotation
62
1
39
211
10
102.357010
20
24.022614
11
102.307531
21
24.203140
0
LINE
8
annotation
62
1
39
211
10
102.307531
20
24.203140
11
102.228734
21
24.369409
0
LINE
8
annotation
62
1
39
211
10
102.228734
20
24.369409
11
102.123618
21
24.518399
0
LINE
8
annotation
62
1
39
211
10
102.123618
20
24.518399
11
101.995184
21
24.647082
0
LINE
8
annotation
62
1
39
211
10
101.995184
20
24.647082
11
101.846432
21
24.752435
0
LINE
8
annotation
62
1
39
211
10
101.846432
20
24.752435
11
101.680363
21
24.831433
0
LINE
8
annotation
62
1
39
211
10
101.680363
20
24.831433
11
101.499976
21
24.881050
0
LINE
8
annotation
62
1
39
211
10
101.499976
20
24.881050
11
101.308272
21
24.898261
0
LINE
8
annotation
62
1
39
211
10
101.308272
20
24.898261
11
101.308272
21
24.898261
0
LINE
8
annotation
62
1
39
211
10
101.308272
20
24.898261
11
101.116964
21
24.881050
0
LINE
8
annotation
62
1
39
211
10
101.116964
20
24.881050
11
100.936787
21
24.831433
0
LINE
8
annotation
62
1
39
211
10
100.936787
20
24.831433
11
100.770780
21
24.752435
0
LINE
8
annotation
62
1
39
211
10
100.770780
20
24.752435
11
100.621978
21
24.647082
0
LINE
8
annotation
62
1
39
211
10
100.621978
20
24.647082
11
100.493421
21
24.518399
0
LINE
8
annotation
62
1
39
211
10
100.493421
20
24.518399
11
100.388144
21
24.369409
0
LINE
8
annotation
62
1
39
211
10
100.388144
20
24.369409
11
100.309186
21
24.203140
0
LINE
8
annotation
62
1
39
211
10
100.309186
20
24.203140
11
100.259583
21
24.022614
0
LINE
8
annotation
62
1
39
211
10
100.259583
20
24.022614
11
100.242374
21
23.830858
0
LINE
8
annotation
62
1
39
211
10
100.242374
20
23.830858
11
100.242374
21
23.297157
0
LINE
8
annotation
62
1
39
211
10
100.242374
20
23.297157
11
100.242374
21
23.297157
0
LINE
8
annotation
62
1
39
211
10
100.242374
20
23.297157
11
100.259583
21
23.105412
0
LINE
8
annotation
62
1
39
211
10
100.259583
20
23.105412
11
100.309186
21
22.924914
0
LINE
8
annotation
62
1
39
211
10
100.309186
20
22.924914
11
100.388144
21
22.758684
0
LINE
8
annotation
62
1
39
211
10
100.388144
20
22.758684
11
100.493421
21
22.609743
0
LINE
8
annotation
62
1
39
211
10
100.493421
20
22.609743
11
100.621978
21
22.481109
0
LINE
8
annotation
62
1
39
211
10
100.621978
20
22.481109
11
100.770780
21
22.375803
0
LINE
8
annotation
62
1
39
211
10
100.770780
20
22.375803
11
100.936787
21
22.296846
0
LINE
8
annotation
62
1
39
211
10
100.936787
20
22.296846
11
101.116964
21
22.247257
0
LINE
8
annotation
62
1
39
211
10
101.116964
20
22.247257
11
101.308272
21
22.230056
0
LINE
8
annotation
62
1
39
211
10
101.308272
20
22.230056
11
102.374169
21
22.230056
0
LINE
8
annotation
62
1
39
211
10
100.109175
20
19.498261
11
102.509175
21
19.498261
0
LINE
8
annotation
62
1
39
211
10
94.716763
20
39.111562
11
94.716763
21
43.729282
0
LINE
8
annotation
62
1
39
211
10
94.716763
20
43.729282
11
93.690185
21
42.702414
0
LINE
8
annotation
62
1
39
211
10
97.189992
20
39.172471
11
97.189992
21
39.172471
0
LINE
8
annotation
62
1
39
211
10
97.189992
20
39.172471
11
97.297314
21
39.132352
0
LINE
8
annotation
62
1
39
211
10
97.297314
20
39.132352
11
97.407381
21
39.112420
0
LINE
8
annotation
62
1
39
211
10
97.407381
20
39.112420
11
97.517706
21
39.111862
0
LINE
8
annotation
62
1
39
211
10
97.517706
20
39.111862
11
97.625799
21
39.129867
0
LINE
8
annotation
62
1
39
211
10
97.625799
20
39.129867
11
97.729174
21
39.165621
0
LINE
8
annotation
62
1
39
211
10
97.729174
20
39.165621
11
97.825341
21
39.218312
0
LINE
8
annotation
62
1
39
211
10
97.825341
20
39.218312
11
97.911813
21
39.287126
0
LINE
8
annotation
62
1
39
211
10
97.911813
20
39.287126
11
97.986100
21
39.371251
0
LINE
8
annotation
62
1
39
211
10
97.986100
20
39.371251
11
98.045715
21
39.469875
0
LINE
8
annotation
62
1
39
211
10
98.045715
20
39.469875
11
98.045715
21
39.469875
0
LINE
8
annotation
62
1
39
211
10
98.045715
20
39.469875
11
98.223585
21
39.886222
0
LINE
8
annotation
62
1
39
211
10
98.223585
20
39.886222
11
98.356987
21
40.314620
0
LINE
8
annotation
62
1
39
211
10
98.356987
20
40.314620
11
98.445921
21
40.751652
0
LINE
8
annotation
62
1
39
211
10
98.445921
20
40.751652
11
98.490389
21
41.193905
0
LINE
8
annotation
62
1
39
211
10
98.490389
20
41.193905
11
98.490389
21
41.637962
0
LINE
8
annotation
62
1
39
211
10
98.490389
20
41.637962
11
98.445921
21
42.080407
0
LINE
8
annotation
62
1
39
211
10
98.445921
20
42.080407
11
98.356987
21
42.517826
0
LINE
8
annotation
62
1
39
211
10
98.356987
20
42.517826
11
98.223585
21
42.946803
0
LINE
8
annotation
62
1
39
211
10
98.223585
20
42.946803
11
98.045715
21
43.363922
0
LINE
8
annotation
62
1
39
211
10
98.045715
20
43.363922
11
98.045715
21
43.363922
0
LINE
8
annotation
62
1
39
211
10
98.045715
20
43.363922
11
98.023095
21
43.406018
0
LINE
8
annotation
62
1
39
211
10
98.023095
20
43.406018
11
97.997451
21
43.446265
0
LINE
8
annotation
62
1
39
211
10
97.997451
20
43.446265
11
97.968975
21
43.484465
0
LINE
8
annotation
62
1
39
211
10
97.968975
20
43.484465
11
97.937861
21
43.520419
0
LINE
8
annotation
62
1
39
211
10
97.937861
20
43.520419
11
97.904301
21
43.553930
0
LINE
8
annotation
62
1
39
211
10
97.904301
20
43.553930
11
97.868489
21
43.584800
0
LINE
8
annotation
62
1
39
211
10
97.868489
20
43.584800
11
97.830618
21
43.612832
0
LINE
8
annotation
62
1
39
211
10
97.830618
20
43.612832
11
97.790881
21
43.637827
0
LINE
8
annotation
62
1
39
211
10
97.790881
20
43.637827
11
97.749470
21
43.659588
0
LINE
8
annotation
62
1
39
211
10
97.749470
20
43.659588
11
97.749470
21
43.659588
0
LINE
8
annotation
62
1
39
211
10
97.749470
20
43.659588
11
97.641296
21
43.700577
0
LINE
8
annotation
62
1
39
211
10
97.641296
20
43.700577
11
97.530584
21
43.721191
0
LINE
8
annotation
62
1
39
211
10
97.530584
20
43.721191
11
97.419794
21
43.722246
0
LINE
8
annotation
62
1
39
211
10
97.419794
20
43.722246
11
97.311384
21
43.704560
0
LINE
8
annotation
62
1
39
211
10
97.311384
20
43.704560
11
97.207815
21
43.668951
0
LINE
8
annotation
62
1
39
211
10
97.207815
20
43.668951
11
97.111547
21
43.616236
0
LINE
8
annotation
62
1
39
211
10
97.111547
20
43.616236
11
97.025038
21
43.547233
0
LINE
8
annotation
62
1
39
211
10
97.025038
20
43.547233
11
96.950750
21
43.462760
0
LINE
8
annotation
62
1
39
211
10
96.950750
20
43.462760
11
96.891140
21
43.363633
0
LINE
8
annotation
62
1
39
211
10
96.891140
20
43.363633
11
96.891140
21
43.363633
0
LINE
8
annotation
62
1
39
211
10
96.891140
20
43.363633
11
96.714129
21
42.947371
0
LINE
8
annotation
62
1
39
211
10
96.714129
20
42.947371
11
96.581370
21
42.519038
0
LINE
8
annotation
62
1
39
211
10
96.581370
20
42.519038
11
96.492865
21
42.082048
0
LINE
8
annotation
62
1
39
211
10
96.492865
20
42.082048
11
96.448612
21
41.639817
0
LINE
8
annotation
62
1
39
211
10
96.448612
20
41.639817
11
96.448612
21
41.195760
0
LINE
8
annotation
62
1
39
211
10
96.448612
20
41.195760
11
96.492865
21
40.753293
0
LINE
8
annotation
62
1
39
211
10
96.492865
20
40.753293
11
96.581370
21
40.315832
0
LINE
8
annotation
62
1
39
211
10
96.581370
20
40.315832
11
96.714129
21
39.886791
0
LINE
8
annotation
62
1
39
211
10
96.714129
20
39.886791
11
96.891140
21
39.469585
0
LINE
8
annotation
62
1
39
211
10
96.891140
20
39.469585
11
96.891140
21
39.469585
0
LINE
8
annotation
62
1
39
211
10
96.891140
20
39.469585
11
96.913678
21
39.427573
0
LINE
8
annotation
62
1
39
211
10
96.913678
20
39.427573
11
96.939133
21
39.387527
0
LINE
8
annotation
62
1
39
211
10
96.939133
20
39.387527
11
96.967398
21
39.349569
0
LINE
8
annotation
62
1
39
211
10
96.967398
20
39.349569
11
96.998365
21
39.313820
0
LINE
8
annotation
62
1
39
211
10
96.998365
20
39.313820
11
97.031929
21
39.280402
0
LINE
8
annotation
62
1
39
211
10
97.031929
20
39.280402
11
97.067980
21
39.249437
0
LINE
8
annotation
62
1
39
211
10
97.067980
20
39.249437
11
97.106413
21
39.221045
0
LINE
8
annotation
62
1
39
211
10
97.106413
20
39.221045
11
97.147119
21
39.195350
0
LINE
8
annotation
62
1
39
211
10
97.147119
20
39.195350
11
97.189992
21
39.172471
0
LINE
8
annotation
62
1
39
211
10
88.734457
20
57.942583
11
88.734457
21
62.742583
0
LINE
8
annotation
62
1
39
211
10
88.734457
20
62.742583
11
87.667356
21
61.675180
0
LINE
8
annotation
62
1
39
211
10
91.601559
20
57.942583
11
91.601559
21
62.742583
0
LINE
8
annotation
62
1
39
211
10
91.601559
20
62.742583
11
90.534457
21
61.675180
0
LINE
8
annotation
62
1
39
211
10
81.496922
20
76.960569
11
81.496922
21
81.568918
0
LINE
8
annotation
62
1
39
211
10
81.496922
20
81.568918
11
80.472427
21
80.544134
0
LINE
8
annotation
62
1
39
211
10
85.271935
20
76.960532
11
83.225256
21
76.960532
0
LINE
8
annotation
62
1
39
211
10
83.225256
20
76.960532
11
85.116454
21
80.005117
0
LINE
8
annotation
62
1
39
211
10
85.116454
20
80.005117
11
85.116454
21
80.005117
0
LINE
8
annotation
62
1
39
211
10
85.116454
20
80.005117
11
85.118715
21
80.007915
0
LINE
8
annotation
62
1
39
211
10
85.118715
20
80.007915
11
85.120883
21
80.010736
0
LINE
8
annotation
62
1
39
211
10
85.120883
20
80.010736
11
85.122973
21
80.013605
0
LINE
8
annotation
62
1
39
211
10
85.122973
20
80.013605
11
85.124998
21
80.016545
0
LINE
8
annotation
62
1
39
211
10
85.124998
20
80.016545
11
85.126973
21
80.019581
0
LINE
8
annotation
62
1
39
211
10
85.126973
20
80.019581
11
85.128913
21
80.022735
0
LINE
8
annotation
62
1
39
211
10
85.128913
20
80.022735
11
85.130831
21
80.026032
0
LINE
8
annotation
62
1
39
211
10
85.130831
20
80.026032
11
85.132743
21
80.029496
0
LINE
8
annotation
62
1
39
211
10
85.132743
20
80.029496
11
85.134661
21
80.033150
0
LINE
8
annotation
62
1
39
211
10
85.134661
20
80.033150
11
85.134661
21
80.033150
0
LINE
8
annotation
62
1
39
211
10
85.134661
20
80.033150
11
85.212748
21
80.200809
0
LINE
8
annotation
62
1
39
211
10
85.212748
20
80.200809
11
85.258365
21
80.374603
0
LINE
8
annotation
62
1
39
211
10
85.258365
20
80.374603
11
85.272630
21
80.550605
0
LINE
8
annotation
62
1
39
211
10
85.272630
20
80.550605
11
85.256661
21
80.724886
0
LINE
8
annotation
62
1
39
211
10
85.256661
20
80.724886
11
85.211576
21
80.893521
0
LINE
8
annotation
62
1
39
211
10
85.211576
20
80.893521
11
85.138493
21
81.052582
0
LINE
8
annotation
62
1
39
211
10
85.138493
20
81.052582
11
85.038529
21
81.198142
0
LINE
8
annotation
62
1
39
211
10
85.038529
20
81.198142
11
84.912803
21
81.326275
0
LINE
8
annotation
62
1
39
211
10
84.912803
20
81.326275
11
84.762433
21
81.433052
0
LINE
8
annotation
62
1
39
211
10
84.762433
20
81.433052
11
84.762433
21
81.433052
0
LINE
8
annotation
62
1
39
211
10
84.762433
20
81.433052
11
84.594307
21
81.510030
0
LINE
8
annotation
62
1
39
211
10
84.594307
20
81.510030
11
84.420246
21
81.554944
0
LINE
8
annotation
62
1
39
211
10
84.420246
20
81.554944
11
84.244143
21
81.568806
0
LINE
8
annotation
62
1
39
211
10
84.244143
20
81.568806
11
84.069887
21
81.552626
0
LINE
8
annotation
62
1
39
211
10
84.069887
20
81.552626
11
83.901372
21
81.507416
0
LINE
8
annotation
62
1
39
211
10
83.901372
20
81.507416
11
83.742487
21
81.434187
0
LINE
8
annotation
62
1
39
211
10
83.742487
20
81.434187
11
83.597124
21
81.333948
0
LINE
8
annotation
62
1
39
211
10
83.597124
20
81.333948
11
83.469174
21
81.207712
0
LINE
8
annotation
62
1
39
211
10
83.469174
20
81.207712
11
83.362530
21
81.056489
0
LINE
8
annotation
62
1
39
211
10
83.362530
20
81.056489
11
83.228146
21
80.798703
0
LINE
8
annotation
62
1
39
211
10
74.598875
20
95.882396
11
74.598875
21
100.491413
0
LINE
8
annotation
62
1
39
211
10
74.598875
20
100.491413
11
73.574231
21
99.466481
0
LINE
8
annotation
62
1
39
211
10
76.327112
20
95.882540
11
77.350599
21
95.882540
0
LINE
8
annotation
62
1
39
211
10
77.350599
20
95.882540
11
77.350599
21
95.882540
0
LINE
8
annotation
62
1
39
211
10
77.350599
20
95.882540
11
77.534676
21
95.899053
0
LINE
8
annotation
62
1
39
211
10
77.534676
20
95.899053
11
77.707885
21
95.946644
0
LINE
8
annotation
62
1
39
211
10
77.707885
20
95.946644
11
77.867347
21
96.022392
0
LINE
8
annotation
62
1
39
211
10
77.867347
20
96.022392
11
78.010181
21
96.123376
0
LINE
8
annotation
62
1
39
211
10
78.010181
20
96.123376
11
78.133504
21
96.246674
0
LINE
8
annotation
62
1
39
211
10
78.133504
20
96.246674
11
78.234438
21
96.389365
0
LINE
8
annotation
62
1
39
211
10
78.234438
20
96.389365
11
78.310100
21
96.548528
0
LINE
8
annotation
62
1
39
211
10
78.310100
20
96.548528
11
78.357610
21
96.721241
0
LINE
8
annotation
62
1
39
211
10
78.357610
20
96.721241
11
78.374086
21
96.904583
0
LINE
8
annotation
62
1
39
211
10
78.374086
20
96.904583
11
78.374086
21
97.417049
0
LINE
8
annotation
62
1
39
211
10
78.374086
20
97.417049
11
78.374086
21
97.417049
0
LINE
8
annotation
62
1
39
211
10
78.374086
20
97.417049
11
78.357610
21
97.600315
0
LINE
8
annotation
62
1
39
211
10
78.357610
20
97.600315
11
78.310100
21
97.772987
0
LINE
8
annotation
62
1
39
211
10
78.310100
20
97.772987
11
78.234438
21
97.932138
0
LINE
8
annotation
62
1
39
211
10
78.234438
20
97.932138
11
78.133504
21
98.074838
0
LINE
8
annotation
62
1
39
211
10
78.133504
20
98.074838
11
78.010181
21
98.198160
0
LINE
8
annotation
62
1
39
211
10
78.010181
20
98.198160
11
77.867347
21
98.299175
0
LINE
8
annotation
62
1
39
211
10
77.867347
20
98.299175
11
77.707885
21
98.374954
0
LINE
8
annotation
62
1
39
211
10
77.707885
20
98.374954
11
77.534676
21
98.422569
0
LINE
8
annotation
62
1
39
211
10
77.534676
20
98.422569
11
77.350599
21
98.439091
0
LINE
8
annotation
62
1
39
211
10
77.350599
20
98.439091
11
76.838133
21
98.439091
0
LINE
8
annotation
62
1
39
211
10
76.838133
20
98.439091
11
77.350599
21
98.439091
0
LINE
8
annotation
62
1
39
211
10
77.350599
20
98.439091
11
77.350599
21
98.439091
0
LINE
8
annotation
62
1
39
211
10
77.350599
20
98.439091
11
77.534676
21
98.455618
0
LINE
8
annotation
62
1
39
211
10
77.534676
20
98.455618
11
77.707885
21
98.503260
0
LINE
8
annotation
62
1
39
211
10
77.707885
20
98.503260
11
77.867347
21
98.579115
0
LINE
8
annotation
62
1
39
211
10
77.867347
20
98.579115
11
78.010181
21
98.680276
0
LINE
8
annotation
62
1
39
211
10
78.010181
20
98.680276
11
78.133504
21
98.803839
0
LINE
8
annotation
62
1
39
211
10
78.133504
20
98.803839
11
78.234438
21
98.946901
0
LINE
8
annotation
62
1
39
211
10
78.234438
20
98.946901
11
78.310100
21
99.106555
0
LINE
8
annotation
62
1
39
211
10
78.310100
20
99.106555
11
78.357610
21
99.279898
0
LINE
8
annotation
62
1
39
211
10
78.357610
20
99.279898
11
78.374086
21
99.464024
0
LINE
8
annotation
62
1
39
211
10
78.374086
20
99.464024
11
78.374086
21
99.464024
0
LINE
8
annotation
62
1
39
211
10
78.374086
20
99.464024
11
78.357610
21
99.647290
0
LINE
8
annotation
62
1
39
211
10
78.357610
20
99.647290
11
78.310100
21
99.819962
0
LINE
8
annotation
62
1
39
211
10
78.310100
20
99.819962
11
78.234438
21
99.979113
0
LINE
8
annotation
62
1
39
211
10
78.234438
20
99.979113
11
78.133504
21
100.121813
0
LINE
8
annotation
62
1
39
211
10
78.133504
20
100.121813
11
78.010181
21
100.245135
0
LINE
8
annotation
62
1
39
211
10
78.010181
20
100.245135
11
77.867347
21
100.346150
0
LINE
8
annotation
62
1
39
211
10
77.867347
20
100.346150
11
77.707885
21
100.421929
0
LINE
8
annotation
62
1
39
211
10
77.707885
20
100.421929
11
77.534676
21
100.469544
0
LINE
8
annotation
62
1
39
211
10
77.534676
20
100.469544
11
77.350599
21
100.486066
0
LINE
8
annotation
62
1
39
211
10
77.350599
20
100.486066
11
76.327112
21
100.486066
0
LINE
8
annotation
62
1
39
211
10
67.566225
20
115.026748
11
67.566225
21
119.191383
0
LINE
8
annotation
62
1
39
211
10
67.566225
20
119.191383
11
66.640373
21
118.265270
0
LINE
8
annotation
62
1
39
211
10
71.440242
20
115.952599
11
69.127833
21
115.952599
0
LINE
8
annotation
62
1
39
211
10
69.127833
20
115.952599
11
70.051334
21
119.191383
0
LINE
8
annotation
62
1
39
211
10
70.747094
20
115.026748
11
70.747094
21
116.876362
0
LINE
8
annotation
62
1
39
211
10
60.876264
20
133.799092
11
60.876264
21
138.263361
0
LINE
8
annotation
62
1
39
211
10
60.876264
20
138.263361
11
59.883800
21
137.270617
0
LINE
8
annotation
62
1
39
211
10
62.550225
20
133.799092
11
63.541569
21
133.799092
0
LINE
8
annotation
62
1
39
211
10
63.541569
20
133.799092
11
63.541569
21
133.799092
0
LINE
8
annotation
62
1
39
211
10
63.541569
20
133.799092
11
63.719496
21
133.815090
0
LINE
8
annotation
62
1
39
211
10
63.719496
20
133.815090
11
63.887070
21
133.861211
0
LINE
8
annotation
62
1
39
211
10
63.887070
20
133.861211
11
64.041467
21
133.934645
0
LINE
8
annotation
62
1
39
211
10
64.041467
20
133.934645
11
64.179860
21
134.032586
0
LINE
8
annotation
62
1
39
211
10
64.179860
20
134.032586
11
64.299426
21
134.152222
0
LINE
8
annotation
62
1
39
211
10
64.299426
20
134.152222
11
64.397340
21
134.290746
0
LINE
8
annotation
62
1
39
211
10
64.397340
20
134.290746
11
64.470775
21
134.445349
0
LINE
8
annotation
62
1
39
211
10
64.470775
20
134.445349
11
64.516908
21
134.613222
0
LINE
8
annotation
62
1
39
211
10
64.516908
20
134.613222
11
64.532914
21
134.791556
0
LINE
8
annotation
62
1
39
211
10
64.532914
20
134.791556
11
64.532914
21
135.285409
0
LINE
8
annotation
62
1
39
211
10
64.532914
20
135.285409
11
64.532914
21
135.285409
0
LINE
8
annotation
62
1
39
211
10
64.532914
20
135.285409
11
64.516917
21
135.463656
0
LINE
8
annotation
62
1
39
211
10
64.516917
20
135.463656
11
64.470807
21
135.631298
0
LINE
8
annotation
62
1
39
211
10
64.470807
20
135.631298
11
64.397402
21
135.785565
0
LINE
8
annotation
62
1
39
211
10
64.397402
20
135.785565
11
64.299518
21
135.923692
0
LINE
8
annotation
62
1
39
211
10
64.299518
20
135.923692
11
64.179976
21
136.042910
0
LINE
8
annotation
62
1
39
211
10
64.179976
20
136.042910
11
64.041591
21
136.140453
0
LINE
8
annotation
62
1
39
211
10
64.041591
20
136.140453
11
63.887183
21
136.213552
0
LINE
8
annotation
62
1
39
211
10
63.887183
20
136.213552
11
63.719570
21
136.259442
0
LINE
8
annotation
62
1
39
211
10
63.719570
20
136.259442
11
63.541569
21
136.275353
0
LINE
8
annotation
62
1
39
211
10
63.541569
20
136.275353
11
62.550225
21
136.275353
0
LINE
8
annotation
62
1
39
211
10
62.550225
20
136.275353
11
62.550225
21
138.263361
0
LINE
8
annotation
62
1
39
211
10
62.550225
20
138.263361
11
64.532914
21
138.263361
0
LINE
8
annotation
62
1
39
211
10
53.691599
20
152.708640
11
53.691599
21
157.198134
0
LINE
8
annotation
62
1
39
211
10
53.691599
20
157.198134
11
52.693527
21
156.199781
0
LINE
8
annotation
62
1
39
211
10
56.872548
20
157.198134
11
56.872548
21
157.198134
0
LINE
8
annotation
62
1
39
211
10
56.872548
20
157.198134
11
56.586948
21
157.091051
0
LINE
8
annotation
62
1
39
211
10
56.586948
20
157.091051
11
56.324873
21
156.946770
0
LINE
8
annotation
62
1
39
211
10
56.324873
20
156.946770
11
56.089013
21
156.768905
0
LINE
8
annotation
62
1
39
211
10
56.089013
20
156.768905
11
55.882057
21
156.561072
0
LINE
8
annotation
62
1
39
211
10
55.882057
20
156.561072
11
55.706697
21
156.326884
0
LINE
8
annotation
62
1
39
211
10
55.706697
20
156.326884
11
55.565623
21
156.069958
0
LINE
8
annotation
62
1
39
211
10
55.565623
20
156.069958
11
55.461525
21
155.793907
0
LINE
8
annotation
62
1
39
211
10
55.461525
20
155.793907
11
55.397093
21
155.502347
0
LINE
8
annotation
62
1
39
211
10
55.397093
20
155.502347
11
55.375018
21
155.198893
0
LINE
8
annotation
62
1
39
211
10
55.375018
20
155.198893
11
55.375018
21
153.706712
0
LINE
8
annotation
62
1
39
211
10
55.375018
20
153.706712
11
55.375018
21
153.706712
0
LINE
8
annotation
62
1
39
211
10
55.375018
20
153.706712
11
55.391114
21
153.527371
0
LINE
8
annotation
62
1
39
211
10
55.391114
20
153.527371
11
55.437508
21
153.358549
0
LINE
8
annotation
62
1
39
211
10
55.437508
20
153.358549
11
55.511358
21
153.203073
0
LINE
8
annotation
62
1
39
211
10
55.511358
20
153.203073
11
55.609825
21
153.063766
0
LINE
8
annotation
62
1
39
211
10
55.609825
20
153.063766
11
55.730066
21
152.943453
0
LINE
8
annotation
62
1
39
211
10
55.730066
20
152.943453
11
55.869242
21
152.844960
0
LINE
8
annotation
62
1
39
211
10
55.869242
20
152.844960
11
56.024511
21
152.771110
0
LINE
8
annotation
62
1
39
211
10
56.024511
20
152.771110
11
56.193032
21
152.724729
0
LINE
8
annotation
62
1
39
211
10
56.193032
20
152.724729
11
56.371964
21
152.708640
0
LINE
8
annotation
62
1
39
211
10
56.371964
20
152.708640
11
56.371964
21
152.708640
0
LINE
8
annotation
62
1
39
211
10
56.371964
20
152.708640
11
56.551267
21
152.724729
0
LINE
8
annotation
62
1
39
211
10
56.551267
20
152.724729
11
56.719985
21
152.771110
0
LINE
8
annotation
62
1
39
211
10
56.719985
20
152.771110
11
56.875312
21
152.844960
0
LINE
8
annotation
62
1
39
211
10
56.875312
20
152.844960
11
57.014441
21
152.943453
0
LINE
8
annotation
62
1
39
211
10
57.014441
20
152.943453
11
57.134567
21
153.063766
0
LINE
8
annotation
62
1
39
211
10
57.134567
20
153.063766
11
57.232882
21
153.203073
0
LINE
8
annotation
62
1
39
211
10
57.232882
20
153.203073
11
57.306582
21
153.358549
0
LINE
8
annotation
62
1
39
211
10
57.306582
20
153.358549
11
57.352860
21
153.527371
0
LINE
8
annotation
62
1
39
211
10
57.352860
20
153.527371
11
57.368910
21
153.706712
0
LINE
8
annotation
62
1
39
211
10
57.368910
20
153.706712
11
57.368910
21
154.203355
0
LINE
8
annotation
62
1
39
211
10
57.368910
20
154.203355
11
57.368910
21
154.203355
0
LINE
8
annotation
62
1
39
211
10
57.368910
20
154.203355
11
57.352860
21
154.382610
0
LINE
8
annotation
62
1
39
211
10
57.352860
20
154.382610
11
57.306582
21
154.551199
0
LINE
8
annotation
62
1
39
211
10
57.306582
20
154.551199
11
57.232882
21
154.706338
0
LINE
8
annotation
62
1
39
211
10
57.232882
20
154.706338
11
57.134567
21
154.845245
0
LINE
8
annotation
62
1
39
211
10
57.134567
20
154.845245
11
57.014441
21
154.965137
0
LINE
8
annotation
62
1
39
211
10
57.014441
20
154.965137
11
56.875312
21
155.063231
0
LINE
8
annotation
62
1
39
211
10
56.875312
20
155.063231
11
56.719985
21
155.136744
0
LINE
8
annotation
62
1
39
211
10
56.719985
20
155.136744
11
56.551267
21
155.182892
0
LINE
8
annotation
62
1
39
211
10
56.551267
20
155.182892
11
56.371964
21
155.198893
0
LINE
8
annotation
62
1
39
211
10
56.371964
20
155.198893
11
55.375018
21
155.198893
0
LINE
8
annotation
62
1
39
211
10
55.250154
20
152.147454
11
57.494900
21
152.147454
0
LINE
8
annotation
62
1
39
211
10
46.456889
20
171.572288
11
46.456889
21
176.178809
0
LINE
8
annotation
62
1
39
211
10
46.456889
20
176.178809
11
45.432801
21
175.154431
0
LINE
8
annotation
62
1
39
211
10
49.208423
20
171.572288
11
50.232512
21
176.178809
0
LINE
8
annotation
62
1
39
211
10
50.232512
20
176.178809
11
48.184046
21
176.178809
0
LINE
8
annotation
62
1
39
211
10
50.232512
20
174.127454
11
49.208423
21
174.127454
0
LINE
8
annotation
62
1
39
211
10
39.852266
20
190.493200
11
39.852266
21
195.102218
0
LINE
8
annotation
62
1
39
211
10
39.852266
20
195.102218
11
38.827622
21
194.077285
0
LINE
8
annotation
62
1
39
211
10
41.580503
20
191.515098
11
41.580503
21
191.515098
0
LINE
8
annotation
62
1
39
211
10
41.580503
20
191.515098
11
41.597027
21
191.331071
0
LINE
8
annotation
62
1
39
211
10
41.597027
20
191.331071
11
41.644656
21
191.157994
0
LINE
8
annotation
62
1
39
211
10
41.644656
20
191.157994
11
41.720473
21
190.998724
0
LINE
8
annotation
62
1
39
211
10
41.720473
20
190.998724
11
41.821561
21
190.856119
0
LINE
8
annotation
62
1
39
211
10
41.821561
20
190.856119
11
41.945003
21
190.733035
0
LINE
8
annotation
62
1
39
211
10
41.945003
20
190.733035
11
42.087884
21
190.632330
0
LINE
8
annotation
62
1
39
211
10
42.087884
20
190.632330
11
42.247287
21
190.556860
0
LINE
8
annotation
62
1
39
211
10
42.247287
20
190.556860
11
42.420294
21
190.509483
0
LINE
8
annotation
62
1
39
211
10
42.420294
20
190.509483
11
42.603990
21
190.493056
0
LINE
8
annotation
62
1
39
211
10
42.603990
20
190.493056
11
42.603990
21
190.493056
0
LINE
8
annotation
62
1
39
211
10
42.603990
20
190.493056
11
42.787686
21
190.509483
0
LINE
8
annotation
62
1
39
211
10
42.787686
20
190.509483
11
42.960694
21
190.556860
0
LINE
8
annotation
62
1
39
211
10
42.960694
20
190.556860
11
43.120096
21
190.632330
0
LINE
8
annotation
62
1
39
211
10
43.120096
20
190.632330
11
43.262977
21
190.733035
0
LINE
8
annotation
62
1
39
211
10
43.262977
20
190.733035
11
43.386420
21
190.856119
0
LINE
8
annotation
62
1
39
211
10
43.386420
20
190.856119
11
43.487508
21
190.998724
0
LINE
8
annotation
62
1
39
211
10
43.487508
20
190.998724
11
43.563324
21
191.157994
0
LINE
8
annotation
62
1
39
211
10
43.563324
20
191.157994
11
43.610953
21
191.331071
0
LINE
8
annotation
62
1
39
211
10
43.610953
20
191.331071
11
43.627478
21
191.515098
0
LINE
8
annotation
62
1
39
211
10
43.627478
20
191.515098
11
43.627478
21
192.024963
0
LINE
8
annotation
62
1
39
211
10
43.627478
20
192.024963
11
43.627478
21
192.024963
0
LINE
8
annotation
62
1
39
211
10
43.627478
20
192.024963
11
43.610963
21
192.209079
0
LINE
8
annotation
62
1
39
211
10
43.610963
20
192.209079
11
43.563358
21
192.382395
0
LINE
8
annotation
62
1
39
211
10
43.563358
20
192.382395
11
43.487572
21
192.542011
0
LINE
8
annotation
62
1
39
211
10
43.487572
20
192.542011
11
43.386515
21
192.685027
0
LINE
8
annotation
62
1
39
211
10
43.386515
20
192.685027
11
43.263096
21
192.808542
0
LINE
8
annotation
62
1
39
211
10
43.263096
20
192.808542
11
43.120225
21
192.909658
0
LINE
8
annotation
62
1
39
211
10
43.120225
20
192.909658
11
42.960810
21
192.985474
0
LINE
8
annotation
62
1
39
211
10
42.960810
20
192.985474
11
42.787762
21
193.033090
0
LINE
8
annotation
62
1
39
211
10
42.787762
20
193.033090
11
42.603990
21
193.049607
0
LINE
8
annotation
62
1
39
211
10
42.603990
20
193.049607
11
42.603990
21
193.049607
0
LINE
8
annotation
62
1
39
211
10
42.603990
20
193.049607
11
42.420218
21
193.033081
0
LINE
8
annotation
62
1
39
211
10
42.420218
20
193.033081
11
42.247170
21
192.985441
0
LINE
8
annotation
62
1
39
211
10
42.247170
20
192.985441
11
42.087756
21
192.909594
0
LINE
8
annotation
62
1
39
211
10
42.087756
20
192.909594
11
41.944884
21
192.808447
0
LINE
8
annotation
62
1
39
211
10
41.944884
20
192.808447
11
41.821465
21
192.684908
0
LINE
8
annotation
62
1
39
211
10
41.821465
20
192.684908
11
41.720408
21
192.541883
0
LINE
8
annotation
62
1
39
211
10
41.720408
20
192.541883
11
41.644623
21
192.382279
0
LINE
8
annotation
62
1
39
211
10
41.644623
20
192.382279
11
41.597018
21
192.209003
0
LINE
8
annotation
62
1
39
211
10
41.597018
20
192.209003
11
41.580503
21
192.024963
0
LINE
8
annotation
62
1
39
211
10
41.580503
20
192.024963
11
41.580503
21
191.515098
0
LINE
8
annotation
62
1
39
211
10
43.627478
20
194.074539
11
43.627478
21
194.074539
0
LINE
8
annotation
62
1
39
211
10
43.627478
20
194.074539
11
43.610963
21
194.257805
0
LINE
8
annotation
62
1
39
211
10
43.610963
20
194.257805
11
43.563358
21
194.430478
0
LINE
8
annotation
62
1
39
211
10
43.563358
20
194.430478
11
43.487572
21
194.589628
0
LINE
8
annotation
62
1
39
211
10
43.487572
20
194.589628
11
43.386515
21
194.732329
0
LINE
8
annotation
62
1
39
211
10
43.386515
20
194.732329
11
43.263096
21
194.855651
0
LINE
8
annotation
62
1
39
211
10
43.263096
20
194.855651
11
43.120225
21
194.956665
0
LINE
8
annotation
62
1
39
211
10
43.120225
20
194.956665
11
42.960810
21
195.032444
0
LINE
8
annotation
62
1
39
211
10
42.960810
20
195.032444
11
42.787762
21
195.080059
0
LINE
8
annotation
62
1
39
211
10
42.787762
20
195.080059
11
42.603990
21
195.096582
0
LINE
8
annotation
62
1
39
211
10
42.603990
20
195.096582
11
42.603990
21
195.096582
0
LINE
8
annotation
62
1
39
211
10
42.603990
20
195.096582
11
42.420218
21
195.080059
0
LINE
8
annotation
62
1
39
211
10
42.420218
20
195.080059
11
42.247170
21
195.032444
0
LINE
8
annotation
62
1
39
211
10
42.247170
20
195.032444
11
42.087756
21
194.956665
0
LINE
8
annotation
62
1
39
211
10
42.087756
20
194.956665
11
41.944884
21
194.855651
0
LINE
8
annotation
62
1
39
211
10
41.944884
20
194.855651
11
41.821465
21
194.732329
0
LINE
8
annotation
62
1
39
211
10
41.821465
20
194.732329
11
41.720408
21
194.589628
0
LINE
8
annotation
62
1
39
211
10
41.720408
20
194.589628
11
41.644623
21
194.430478
0
LINE
8
annotation
62
1
39
211
10
41.644623
20
194.430478
11
41.597018
21
194.257805
0
LINE
8
annotation
62
1
39
211
10
41.597018
20
194.257805
11
41.580503
21
194.074539
0
LINE
8
annotation
62
1
39
211
10
41.580503
20
194.074539
11
41.580503
21
194.074539
0
LINE
8
annotation
62
1
39
211
10
41.580503
20
194.074539
11
41.597027
21
193.890413
0
LINE
8
annotation
62
1
39
211
10
41.597027
20
193.890413
11
41.644656
21
193.717070
0
LINE
8
annotation
62
1
39
211
10
41.644656
20
193.717070
11
41.720473
21
193.557416
0
LINE
8
annotation
62
1
39
211
10
41.720473
20
193.557416
11
41.821561
21
193.414355
0
LINE
8
annotation
62
1
39
211
10
41.821561
20
193.414355
11
41.945003
21
193.290791
0
LINE
8
annotation
62
1
39
211
10
41.945003
20
193.290791
11
42.087884
21
193.189630
0
LINE
8
annotation
62
1
39
211
10
42.087884
20
193.189630
11
42.247287
21
193.113776
0
LINE
8
annotation
62
1
39
211
10
42.247287
20
193.113776
11
42.420294
21
193.066133
0
LINE
8
annotation
62
1
39
211
10
42.420294
20
193.066133
11
42.603990
21
193.049607
0
LINE
8
annotation
62
1
39
211
10
42.603990
20
193.049607
11
42.603990
21
193.049607
0
LINE
8
annotation
62
1
39
211
10
42.603990
20
193.049607
11
42.787686
21
193.066133
0
LINE
8
annotation
62
1
39
211
10
42.787686
20
193.066133
11
42.960694
21
193.113776
0
LINE
8
annotation
62
1
39
211
10
42.960694
20
193.113776
11
43.120096
21
193.189630
0
LINE
8
annotation
62
1
39
211
10
43.120096
20
193.189630
11
43.262977
21
193.290791
0
LINE
8
annotation
62
1
39
211
10
43.262977
20
193.290791
11
43.386420
21
193.414355
0
LINE
8
annotation
62
1
39
211
10
43.386420
20
193.414355
11
43.487508
21
193.557416
0
LINE
8
annotation
62
1
39
211
10
43.487508
20
193.557416
11
43.563324
21
193.717070
0
LINE
8
annotation
62
1
39
211
10
43.563324
20
193.717070
11
43.610953
21
193.890413
0
LINE
8
annotation
62
1
39
211
10
43.610953
20
193.890413
11
43.627478
21
194.074539
0
LINE
8
annotation
62
1
39
211
10
33.944822
20
209.415361
11
33.944822
21
214.024379
0
LINE
8
annotation
62
1
39
211
10
33.944822
20
214.024379
11
32.920178
21
212.999446
0
LINE
8
annotation
62
1
39
211
10
36.184080
20
209.415361
11
36.184080
21
209.415361
0
LINE
8
annotation
62
1
39
211
10
36.184080
20
209.415361
11
36.476767
21
209.524431
0
LINE
8
annotation
62
1
39
211
10
36.476767
20
209.524431
11
36.745418
21
209.671858
0
LINE
8
annotation
62
1
39
211
10
36.745418
20
209.671858
11
36.987255
21
209.853887
0
LINE
8
annotation
62
1
39
211
10
36.987255
20
209.853887
11
37.199504
21
210.066761
0
LINE
8
annotation
62
1
39
211
10
37.199504
20
210.066761
11
37.379387
21
210.306724
0
LINE
8
annotation
62
1
39
211
10
37.379387
20
210.306724
11
37.524129
21
210.570019
0
LINE
8
annotation
62
1
39
211
10
37.524129
20
210.570019
11
37.630954
21
210.852890
0
LINE
8
annotation
62
1
39
211
10
37.630954
20
210.852890
11
37.697084
21
211.151581
0
LINE
8
annotation
62
1
39
211
10
37.697084
20
211.151581
11
37.719745
21
211.462336
0
LINE
8
annotation
62
1
39
211
10
37.719745
20
211.462336
11
37.719745
21
212.999446
0
LINE
8
annotation
62
1
39
211
10
37.719745
20
212.999446
11
37.719745
21
212.999446
0
LINE
8
annotation
62
1
39
211
10
37.719745
20
212.999446
11
37.703268
21
213.183572
0
LINE
8
annotation
62
1
39
211
10
37.703268
20
213.183572
11
37.655758
21
213.356915
0
LINE
8
annotation
62
1
39
211
10
37.655758
20
213.356915
11
37.580096
21
213.516569
0
LINE
8
annotation
62
1
39
211
10
37.580096
20
213.516569
11
37.479163
21
213.659630
0
LINE
8
annotation
62
1
39
211
10
37.479163
20
213.659630
11
37.355839
21
213.783194
0
LINE
8
annotation
62
1
39
211
10
37.355839
20
213.783194
11
37.213005
21
213.884355
0
LINE
8
annotation
62
1
39
211
10
37.213005
20
213.884355
11
37.053544
21
213.960210
0
LINE
8
annotation
62
1
39
211
10
37.053544
20
213.960210
11
36.880334
21
214.007852
0
LINE
8
annotation
62
1
39
211
10
36.880334
20
214.007852
11
36.696257
21
214.024379
0
LINE
8
annotation
62
1
39
211
10
36.696257
20
214.024379
11
36.696257
21
214.024379
0
LINE
8
annotation
62
1
39
211
10
36.696257
20
214.024379
11
36.512561
21
214.007852
0
LINE
8
annotation
62
1
39
211
10
36.512561
20
214.007852
11
36.339554
21
213.960210
0
LINE
8
annotation
62
1
39
211
10
36.339554
20
213.960210
11
36.180151
21
213.884355
0
LINE
8
annotation
62
1
39
211
10
36.180151
20
213.884355
11
36.037270
21
213.783194
0
LINE
8
annotation
62
1
39
211
10
36.037270
20
213.783194
11
35.913827
21
213.659630
0
LINE
8
annotation
62
1
39
211
10
35.913827
20
213.659630
11
35.812740
21
213.516569
0
LINE
8
annotation
62
1
39
211
10
35.812740
20
213.516569
11
35.736923
21
213.356915
0
LINE
8
annotation
62
1
39
211
10
35.736923
20
213.356915
11
35.689294
21
213.183572
0
LINE
8
annotation
62
1
39
211
10
35.689294
20
213.183572
11
35.672770
21
212.999446
0
LINE
8
annotation
62
1
39
211
10
35.672770
20
212.999446
11
35.672770
21
212.486980
0
LINE
8
annotation
62
1
39
211
10
35.672770
20
212.486980
11
35.672770
21
212.486980
0
LINE
8
annotation
62
1
39
211
10
35.672770
20
212.486980
11
35.689294
21
212.302863
0
LINE
8
annotation
62
1
39
211
10
35.689294
20
212.302863
11
35.736923
21
212.129547
0
LINE
8
annotation
62
1
39
211
10
35.736923
20
212.129547
11
35.812740
21
211.969932
0
LINE
8
annotation
62
1
39
211
10
35.812740
20
211.969932
11
35.913827
21
211.826916
0
LINE
8
annotation
62
1
39
211
10
35.913827
20
211.826916
11
36.037270
21
211.703400
0
LINE
8
annotation
62
1
39
211
10
36.037270
20
211.703400
11
36.180151
21
211.602285
0
LINE
8
annotation
62
1
39
211
10
36.180151
20
211.602285
11
36.339554
21
211.526469
0
LINE
8
annotation
62
1
39
211
10
36.339554
20
211.526469
11
36.512561
21
211.478853
0
LINE
8
annotation
62
1
39
211
10
36.512561
20
211.478853
11
36.696257
21
211.462336
0
LINE
8
annotation
62
1
39
211
10
36.696257
20
211.462336
11
37.719745
21
211.462336
0
LINE
8
annotation
62
1
39
211
10
35.544870
20
208.839234
11
37.849379
21
208.839234
0
LINE
8
annotation
62
1
39
211
10
29.136313
20
228.739407
11
27.446338
21
228.739407
0
LINE
8
annotation
62
1
39
211
10
27.446338
20
228.739407
11
29.007930
21
231.253369
0
LINE
8
annotation
62
1
39
211
10
29.007930
20
231.253369
11
29.007930
21
231.253369
0
LINE
8
annotation
62
1
39
211
10
29.007930
20
231.253369
11
29.009797
21
231.255679
0
LINE
8
annotation
62
1
39
211
10
29.009797
20
231.255679
11
29.011587
21
231.258009
0
LINE
8
annotation
62
1
39
211
10
29.011587
20
231.258009
11
29.013312
21
231.260377
0
LINE
8
annotation
62
1
39
211
10
29.013312
20
231.260377
11
29.014985
21
231.262805
0
LINE
8
annotation
62
1
39
211
10
29.014985
20
231.262805
11
29.016616
21
231.265312
0
LINE
8
annotation
62
1
39
211
10
29.016616
20
231.265312
11
29.018218
21
231.267916
0
LINE
8
annotation
62
1
39
211
10
29.018218
20
231.267916
11
29.019802
21
231.270639
0
LINE
8
annotation
62
1
39
211
10
29.019802
20
231.270639
11
29.021380
21
231.273499
0
LINE
8
annotation
62
1
39
211
10
29.021380
20
231.273499
11
29.022964
21
231.276516
0
LINE
8
annotation
62
1
39
211
10
29.022964
20
231.276516
11
29.022964
21
231.276516
0
LINE
8
annotation
62
1
39
211
10
29.022964
20
231.276516
11
29.087441
21
231.414955
0
LINE
8
annotation
62
1
39
211
10
29.087441
20
231.414955
11
29.125108
21
231.558459
0
LINE
8
annotation
62
1
39
211
10
29.125108
20
231.558459
11
29.136887
21
231.703786
0
LINE
8
annotation
62
1
39
211
10
29.136887
20
231.703786
11
29.123701
21
231.847694
0
LINE
8
annotation
62
1
39
211
10
29.123701
20
231.847694
11
29.086474
21
231.986938
0
LINE
8
annotation
62
1
39
211
10
29.086474
20
231.986938
11
29.026128
21
232.118277
0
LINE
8
annotation
62
1
39
211
10
29.026128
20
232.118277
11
28.943586
21
232.238469
0
LINE
8
annotation
62
1
39
211
10
28.943586
20
232.238469
11
28.839772
21
232.344269
0
LINE
8
annotation
62
1
39
211
10
28.839772
20
232.344269
11
28.715609
21
232.432437
0
LINE
8
annotation
62
1
39
211
10
28.715609
20
232.432437
11
28.715609
21
232.432437
0
LINE
8
annotation
62
1
39
211
10
28.715609
20
232.432437
11
28.576785
21
232.495999
0
LINE
8
annotation
62
1
39
211
10
28.576785
20
232.495999
11
28.433060
21
232.533085
0
LINE
8
annotation
62
1
39
211
10
28.433060
20
232.533085
11
28.287649
21
232.544531
0
LINE
8
annotation
62
1
39
211
10
28.287649
20
232.544531
11
28.143763
21
232.531172
0
LINE
8
annotation
62
1
39
211
10
28.143763
20
232.531172
11
28.004617
21
232.493841
0
LINE
8
annotation
62
1
39
211
10
28.004617
20
232.493841
11
27.873423
21
232.433374
0
LINE
8
annotation
62
1
39
211
10
27.873423
20
232.433374
11
27.753395
21
232.350606
0
LINE
8
annotation
62
1
39
211
10
27.753395
20
232.350606
11
27.647745
21
232.246370
0
LINE
8
annotation
62
1
39
211
10
27.647745
20
232.246370
11
27.559687
21
232.121503
0
LINE
8
annotation
62
1
39
211
10
27.559687
20
232.121503
11
27.448725
21
231.908646
0
LINE
8
annotation
62
1
39
211
10
31.174759
20
228.789629
11
31.174759
21
228.789629
0
LINE
8
annotation
62
1
39
211
10
31.174759
20
228.789629
11
31.263196
21
228.756569
0
LINE
8
annotation
62
1
39
211
10
31.263196
20
228.756569
11
31.353896
21
228.740144
0
LINE
8
annotation
62
1
39
211
10
31.353896
20
228.740144
11
31.444808
21
228.739685
0
LINE
8
annotation
62
1
39
211
10
31.444808
20
228.739685
11
31.533882
21
228.754522
0
LINE
8
annotation
62
1
39
211
10
31.533882
20
228.754522
11
31.619067
21
228.783984
0
LINE
8
annotation
62
1
39
211
10
31.619067
20
228.783984
11
31.698312
21
228.827404
0
LINE
8
annotation
62
1
39
211
10
31.698312
20
228.827404
11
31.769568
21
228.884109
0
LINE
8
annotation
62
1
39
211
10
31.769568
20
228.884109
11
31.830784
21
228.953432
0
LINE
8
annotation
62
1
39
211
10
31.830784
20
228.953432
11
31.879909
21
229.034702
0
LINE
8
annotation
62
1
39
211
10
31.879909
20
229.034702
11
31.879909
21
229.034702
0
LINE
8
annotation
62
1
39
211
10
31.879909
20
229.034702
11
32.026481
21
229.377789
0
LINE
8
annotation
62
1
39
211
10
32.026481
20
229.377789
11
32.136410
21
229.730806
0
LINE
8
annotation
62
1
39
211
10
32.136410
20
229.730806
11
32.209695
21
230.090938
0
LINE
8
annotation
62
1
39
211
10
32.209695
20
230.090938
11
32.246338
21
230.455372
0
LINE
8
annotation
62
1
39
211
10
32.246338
20
230.455372
11
32.246338
21
230.821292
0
LINE
8
annotation
62
1
39
211
10
32.246338
20
230.821292
11
32.209695
21
231.185885
0
LINE
8
annotation
62
1
39
211
10
32.209695
20
231.185885
11
32.136410
21
231.546336
0
LINE
8
annotation
62
1
39
211
10
32.136410
20
231.546336
11
32.026481
21
231.899830
0
LINE
8
annotation
62
1
39
211
10
32.026481
20
231.899830
11
31.879909
21
232.243553
0
LINE
8
annotation
62
1
39
211
10
31.879909
20
232.243553
11
31.879909
21
232.243553
0
LINE
8
annotation
62
1
39
211
10
31.879909
20
232.243553
11
31.861270
21
232.278242
0
LINE
8
annotation
62
1
39
211
10
31.861270
20
232.278242
11
31.840138
21
232.311407
0
LINE
8
annotation
62
1
39
211
10
31.840138
20
232.311407
11
31.816673
21
232.342885
0
LINE
8
annotation
62
1
39
211
10
31.816673
20
232.342885
11
31.791033
21
232.372513
0
LINE
8
annotation
62
1
39
211
10
31.791033
20
232.372513
11
31.763379
21
232.400127
0
LINE
8
annotation
62
1
39
211
10
31.763379
20
232.400127
11
31.733868
21
232.425566
0
LINE
8
annotation
62
1
39
211
10
31.733868
20
232.425566
11
31.702661
21
232.448665
0
LINE
8
annotation
62
1
39
211
10
31.702661
20
232.448665
11
31.669915
21
232.469262
0
LINE
8
annotation
62
1
39
211
10
31.669915
20
232.469262
11
31.635791
21
232.487194
0
LINE
8
annotation
62
1
39
211
10
31.635791
20
232.487194
11
31.635791
21
232.487194
0
LINE
8
annotation
62
1
39
211
10
31.635791
20
232.487194
11
31.546652
21
232.520971
0
LINE
8
annotation
62
1
39
211
10
31.546652
20
232.520971
11
31.455421
21
232.537957
0
LINE
8
annotation
62
1
39
211
10
31.455421
20
232.537957
11
31.364125
21
232.538826
0
LINE
8
annotation
62
1
39
211
10
31.364125
20
232.538826
11
31.274791
21
232.524253
0
LINE
8
annotation
62
1
39
211
10
31.274791
20
232.524253
11
31.189446
21
232.494909
0
LINE
8
annotation
62
1
39
211
10
31.189446
20
232.494909
11
31.110117
21
232.451470
0
LINE
8
annotation
62
1
39
211
10
31.110117
20
232.451470
11
31.038831
21
232.394609
0
LINE
8
annotation
62
1
39
211
10
31.038831
20
232.394609
11
30.977614
21
232.324999
0
LINE
8
annotation
62
1
39
211
10
30.977614
20
232.324999
11
30.928493
21
232.243315
0
LINE
8
annotation
62
1
39
211
10
30.928493
20
232.243315
11
30.928493
21
232.243315
0
LINE
8
annotation
62
1
39
211
10
30.928493
20
232.243315
11
30.782629
21
231.900299
0
LINE
8
annotation
62
1
39
211
10
30.782629
20
231.900299
11
30.673231
21
231.547335
0
LINE
8
annotation
62
1
39
211
10
30.673231
20
231.547335
11
30.600298
21
231.187238
0
LINE
8
annotation
62
1
39
211
10
30.600298
20
231.187238
11
30.563832
21
230.822821
0
LINE
8
annotation
62
1
39
211
10
30.563832
20
230.822821
11
30.563832
21
230.456901
0
LINE
8
annotation
62
1
39
211
10
30.563832
20
230.456901
11
30.600298
21
230.092290
0
LINE
8
annotation
62
1
39
211
10
30.600298
20
230.092290
11
30.673231
21
229.731804
0
LINE
8
annotation
62
1
39
211
10
30.673231
20
229.731804
11
30.782629
21
229.378257
0
LINE
8
annotation
62
1
39
211
10
30.782629
20
229.378257
11
30.928493
21
229.034463
0
LINE
8
annotation
62
1
39
211
10
30.928493
20
229.034463
11
30.928493
21
229.034463
0
LINE
8
annotation
62
1
39
211
10
30.928493
20
229.034463
11
30.947065
21
228.999843
0
LINE
8
annotation
62
1
39
211
10
30.947065
20
228.999843
11
30.968041
21
228.966844
0
LINE
8
annotation
62
1
39
211
10
30.968041
20
228.966844
11
30.991333
21
228.935565
0
LINE
8
annotation
62
1
39
211
10
30.991333
20
228.935565
11
31.016851
21
228.906106
0
LINE
8
annotation
62
1
39
211
10
31.016851
20
228.906106
11
31.044509
21
228.878568
0
LINE
8
annotation
62
1
39
211
10
31.044509
20
228.878568
11
31.074217
21
228.853052
0
LINE
8
annotation
62
1
39
211
10
31.074217
20
228.853052
11
31.105887
21
228.829656
0
LINE
8
annotation
62
1
39
211
10
31.105887
20
228.829656
11
31.139430
21
228.808482
0
LINE
8
annotation
62
1
39
211
10
31.139430
20
228.808482
11
31.174759
21
228.789629
0
LINE
8
annotation
62
1
39
211
10
24.328497
20
247.259980
11
22.281819
21
247.259980
0
LINE
8
annotation
62
1
39
211
10
22.281819
20
247.259980
11
24.173017
21
250.304565
0
LINE
8
annotation
62
1
39
211
10
24.173017
20
250.304565
11
24.173017
21
250.304565
0
LINE
8
annotation
62
1
39
211
10
24.173017
20
250.304565
11
24.175278
21
250.307363
0
LINE
8
annotation
62
1
39
211
10
24.175278
20
250.307363
11
24.177446
21
250.310184
0
LINE
8
annotation
62
1
39
211
10
24.177446
20
250.310184
11
24.179535
21
250.313053
0
LINE
8
annotation
62
1
39
211
10
24.179535
20
250.313053
11
24.181561
21
250.315993
0
LINE
8
annotation
62
1
39
211
10
24.181561
20
250.315993
11
24.183536
21
250.319029
0
LINE
8
annotation
62
1
39
211
10
24.183536
20
250.319029
11
24.185476
21
250.322183
0
LINE
8
annotation
62
1
39
211
10
24.185476
20
250.322183
11
24.187394
21
250.325480
0
LINE
8
annotation
62
1
39
211
10
24.187394
20
250.325480
11
24.189305
21
250.328944
0
LINE
8
annotation
62
1
39
211
10
24.189305
20
250.328944
11
24.191224
21
250.332598
0
LINE
8
annotation
62
1
39
211
10
24.191224
20
250.332598
11
24.191224
21
250.332598
0
LINE
8
annotation
62
1
39
211
10
24.191224
20
250.332598
11
24.269311
21
250.500257
0
LINE
8
annotation
62
1
39
211
10
24.269311
20
250.500257
11
24.314928
21
250.674051
0
LINE
8
annotation
62
1
39
211
10
24.314928
20
250.674051
11
24.329193
21
250.850053
0
LINE
8
annotation
62
1
39
211
10
24.329193
20
250.850053
11
24.313224
21
251.024334
0
LINE
8
annotation
62
1
39
211
10
24.313224
20
251.024334
11
24.268139
21
251.192969
0
LINE
8
annotation
62
1
39
211
10
24.268139
20
251.192969
11
24.195055
21
251.352030
0
LINE
8
annotation
62
1
39
211
10
24.195055
20
251.352030
11
24.095092
21
251.497590
0
LINE
8
annotation
62
1
39
211
10
24.095092
20
251.497590
11
23.969366
21
251.625723
0
LINE
8
annotation
62
1
39
211
10
23.969366
20
251.625723
11
23.818995
21
251.732500
0
LINE
8
annotation
62
1
39
211
10
23.818995
20
251.732500
11
23.818995
21
251.732500
0
LINE
8
annotation
62
1
39
211
10
23.818995
20
251.732500
11
23.650869
21
251.809478
0
LINE
8
annotation
62
1
39
211
10
23.650869
20
251.809478
11
23.476809
21
251.854392
0
LINE
8
annotation
62
1
39
211
10
23.476809
20
251.854392
11
23.300705
21
251.868254
0
LINE
8
annotation
62
1
39
211
10
23.300705
20
251.868254
11
23.126450
21
251.852075
0
LINE
8
annotation
62
1
39
211
10
23.126450
20
251.852075
11
22.957934
21
251.806865
0
LINE
8
annotation
62
1
39
211
10
22.957934
20
251.806865
11
22.799049
21
251.733635
0
LINE
8
annotation
62
1
39
211
10
22.799049
20
251.733635
11
22.653686
21
251.633396
0
LINE
8
annotation
62
1
39
211
10
22.653686
20
251.633396
11
22.525737
21
251.507160
0
LINE
8
annotation
62
1
39
211
10
22.525737
20
251.507160
11
22.419093
21
251.355937
0
LINE
8
annotation
62
1
39
211
10
22.419093
20
251.355937
11
22.284709
21
251.098151
0
LINE
8
annotation
62
1
39
211
10
27.081616
20
247.260017
11
27.081616
21
251.868366
0
LINE
8
annotation
62
1
39
211
10
27.081616
20
251.868366
11
26.057121
21
250.843582
0
LINE
8
annotation
62
1
39
211
10
19.269937
20
266.586911
11
17.582790
21
266.586911
0
LINE
8
annotation
62
1
39
211
10
17.582790
20
266.586911
11
19.141769
21
269.096668
0
LINE
8
annotation
62
1
39
211
10
19.141769
20
269.096668
11
19.141769
21
269.096668
0
LINE
8
annotation
62
1
39
211
10
19.141769
20
269.096668
11
19.143633
21
269.098974
0
LINE
8
annotation
62
1
39
211
10
19.143633
20
269.098974
11
19.145420
21
269.101300
0
LINE
8
annotation
62
1
39
211
10
19.145420
20
269.101300
11
19.147142
21
269.103665
0
LINE
8
annotation
62
1
39
211
10
19.147142
20
269.103665
11
19.148812
21
269.106089
0
LINE
8
annotation
62
1
39
211
10
19.148812
20
269.106089
11
19.150440
21
269.108591
0
LINE
8
annotation
62
1
39
211
10
19.150440
20
269.108591
11
19.152039
21
269.111191
0
LINE
8
annotation
62
1
39
211
10
19.152039
20
269.111191
11
19.153621
21
269.113909
0
LINE
8
annotation
62
1
39
211
10
19.153621
20
269.113909
11
19.155196
21
269.116764
0
LINE
8
annotation
62
1
39
211
10
19.155196
20
269.116764
11
19.156778
21
269.119776
0
LINE
8
annotation
62
1
39
211
10
19.156778
20
269.119776
11
19.156778
21
269.119776
0
LINE
8
annotation
62
1
39
211
10
19.156778
20
269.119776
11
19.221147
21
269.257984
0
LINE
8
annotation
62
1
39
211
10
19.221147
20
269.257984
11
19.258751
21
269.401248
0
LINE
8
annotation
62
1
39
211
10
19.258751
20
269.401248
11
19.270510
21
269.546332
0
LINE
8
annotation
62
1
39
211
10
19.270510
20
269.546332
11
19.257347
21
269.689999
0
LINE
8
annotation
62
1
39
211
10
19.257347
20
269.689999
11
19.220181
21
269.829010
0
LINE
8
annotation
62
1
39
211
10
19.220181
20
269.829010
11
19.159936
21
269.960130
0
LINE
8
annotation
62
1
39
211
10
19.159936
20
269.960130
11
19.077533
21
270.080120
0
LINE
8
annotation
62
1
39
211
10
19.077533
20
270.080120
11
18.973892
21
270.185744
0
LINE
8
annotation
62
1
39
211
10
18.973892
20
270.185744
11
18.849937
21
270.273764
0
LINE
8
annotation
62
1
39
211
10
18.849937
20
270.273764
11
18.849937
21
270.273764
0
LINE
8
annotation
62
1
39
211
10
18.849937
20
270.273764
11
18.711345
21
270.337219
0
LINE
8
annotation
62
1
39
211
10
18.711345
20
270.337219
11
18.567861
21
270.374244
0
LINE
8
annotation
62
1
39
211
10
18.567861
20
270.374244
11
18.422693
21
270.385671
0
LINE
8
annotation
62
1
39
211
10
18.422693
20
270.385671
11
18.279048
21
270.372333
0
LINE
8
annotation
62
1
39
211
10
18.279048
20
270.372333
11
18.140135
21
270.335065
0
LINE
8
annotation
62
1
39
211
10
18.140135
20
270.335065
11
18.009160
21
270.274700
0
LINE
8
annotation
62
1
39
211
10
18.009160
20
270.274700
11
17.889333
21
270.192070
0
LINE
8
annotation
62
1
39
211
10
17.889333
20
270.192070
11
17.783860
21
270.088009
0
LINE
8
annotation
62
1
39
211
10
17.783860
20
270.088009
11
17.695949
21
269.963350
0
LINE
8
annotation
62
1
39
211
10
17.695949
20
269.963350
11
17.585172
21
269.750849
0
LINE
8
annotation
62
1
39
211
10
22.382216
20
266.586911
11
20.695069
21
266.586911
0
LINE
8
annotation
62
1
39
211
10
20.695069
20
266.586911
11
22.254048
21
269.096668
0
LINE
8
annotation
62
1
39
211
10
22.254048
20
269.096668
11
22.254048
21
269.096668
0
LINE
8
annotation
62
1
39
211
10
22.254048
20
269.096668
11
22.255912
21
269.098974
0
LINE
8
annotation
62
1
39
211
10
22.255912
20
269.098974
11
22.257699
21
269.101300
0
LINE
8
annotation
62
1
39
211
10
22.257699
20
269.101300
11
22.259421
21
269.103665
0
LINE
8
annotation
62
1
39
211
10
22.259421
20
269.103665
11
22.261091
21
269.106089
0
LINE
8
annotation
62
1
39
211
10
22.261091
20
269.106089
11
22.262719
21
269.108591
0
LINE
8
annotation
62
1
39
211
10
22.262719
20
269.108591
11
22.264318
21
269.111191
0
LINE
8
annotation
62
1
39
211
10
22.264318
20
269.111191
11
22.265900
21
269.113909
0
LINE
8
annotation
62
1
39
211
10
22.265900
20
269.113909
11
22.267475
21
269.116764
0
LINE
8
annotation
62
1
39
211
10
22.267475
20
269.116764
11
22.269057
21
269.119776
0
LINE
8
annotation
62
1
39
211
10
22.269057
20
269.119776
11
22.269057
21
269.119776
0
LINE
8
annotation
62
1
39
211
10
22.269057
20
269.119776
11
22.333426
21
269.257984
0
LINE
8
annotation
62
1
39
211
10
22.333426
20
269.257984
11
22.371030
21
269.401248
0
LINE
8
annotation
62
1
39
211
10
22.371030
20
269.401248
11
22.382790
21
269.546332
0
LINE
8
annotation
62
1
39
211
10
22.382790
20
269.546332
11
22.369626
21
269.689999
0
LINE
8
annotation
62
1
39
211
10
22.369626
20
269.689999
11
22.332460
21
269.829010
0
LINE
8
annotation
62
1
39
211
10
22.332460
20
269.829010
11
22.272215
21
269.960130
0
LINE
8
annotation
62
1
39
211
10
22.272215
20
269.960130
11
22.189812
21
270.080120
0
LINE
8
annotation
62
1
39
211
10
22.189812
20
270.080120
11
22.086171
21
270.185744
0
LINE
8
annotation
62
1
39
211
10
22.086171
20
270.185744
11
21.962216
21
270.273764
0
LINE
8
annotation
62
1
39
211
10
21.962216
20
270.273764
11
21.962216
21
270.273764
0
LINE
8
annotation
62
1
39
211
10
21.962216
20
270.273764
11
21.823624
21
270.337219
0
LINE
8
annotation
62
1
39
211
10
21.823624
20
270.337219
11
21.680140
21
270.374244
0
LINE
8
annotation
62
1
39
211
10
21.680140
20
270.374244
11
21.534972
21
270.385671
0
LINE
8
annotation
62
1
39
211
10
21.534972
20
270.385671
11
21.391327
21
270.372333
0
LINE
8
annotation
62
1
39
211
10
21.391327
20
270.372333
11
21.252414
21
270.335065
0
LINE
8
annotation
62
1
39
211
10
21.252414
20
270.335065
11
21.121439
21
270.274700
0
LINE
8
annotation
62
1
39
211
10
21.121439
20
270.274700
11
21.001612
21
270.192070
0
LINE
8
annotation
62
1
39
211
10
21.001612
20
270.192070
11
20.896139
21
270.088009
0
LINE
8
annotation
62
1
39
211
10
20.896139
20
270.088009
11
20.808228
21
269.963350
0
LINE
8
annotation
62
1
39
211
10
20.808228
20
269.963350
11
20.697451
21
269.750849
0
LINE
8
annotation
62
1
39
211
10
14.969446
20
285.508845
11
13.282097
21
285.508845
0
LINE
8
annotation
62
1
39
211
10
13.282097
20
285.508845
11
14.841262
21
288.018902
0
LINE
8
annotation
62
1
39
211
10
14.841262
20
288.018902
11
14.841262
21
288.018902
0
LINE
8
annotation
62
1
39
211
10
14.841262
20
288.018902
11
14.843126
21
288.021208
0
LINE
8
annotation
62
1
39
211
10
14.843126
20
288.021208
11
14.844914
21
288.023534
0
LINE
8
annotation
62
1
39
211
10
14.844914
20
288.023534
11
14.846636
21
288.025900
0
LINE
8
annotation
62
1
39
211
10
14.846636
20
288.025900
11
14.848306
21
288.028324
0
LINE
8
annotation
62
1
39
211
10
14.848306
20
288.028324
11
14.849935
21
288.030826
0
LINE
8
annotation
62
1
39
211
10
14.849935
20
288.030826
11
14.851534
21
288.033427
0
LINE
8
annotation
62
1
39
211
10
14.851534
20
288.033427
11
14.853116
21
288.036145
0
LINE
8
annotation
62
1
39
211
10
14.853116
20
288.036145
11
14.854691
21
288.039001
0
LINE
8
annotation
62
1
39
211
10
14.854691
20
288.039001
11
14.856273
21
288.042013
0
LINE
8
annotation
62
1
39
211
10
14.856273
20
288.042013
11
14.856273
21
288.042013
0
LINE
8
annotation
62
1
39
211
10
14.856273
20
288.042013
11
14.920650
21
288.180237
0
LINE
8
annotation
62
1
39
211
10
14.920650
20
288.180237
11
14.958259
21
288.323519
0
LINE
8
annotation
62
1
39
211
10
14.958259
20
288.323519
11
14.970019
21
288.468620
0
LINE
8
annotation
62
1
39
211
10
14.970019
20
288.468620
11
14.956854
21
288.612303
0
LINE
8
annotation
62
1
39
211
10
14.956854
20
288.612303
11
14.919684
21
288.751331
0
LINE
8
annotation
62
1
39
211
10
14.919684
20
288.751331
11
14.859432
21
288.882467
0
LINE
8
annotation
62
1
39
211
10
14.859432
20
288.882467
11
14.777018
21
289.002471
0
LINE
8
annotation
62
1
39
211
10
14.777018
20
289.002471
11
14.673366
21
289.108108
0
LINE
8
annotation
62
1
39
211
10
14.673366
20
289.108108
11
14.549395
21
289.196139
0
LINE
8
annotation
62
1
39
211
10
14.549395
20
289.196139
11
14.549395
21
289.196139
0
LINE
8
annotation
62
1
39
211
10
14.549395
20
289.196139
11
14.410787
21
289.259602
0
LINE
8
annotation
62
1
39
211
10
14.410787
20
289.259602
11
14.267286
21
289.296630
0
LINE
8
annotation
62
1
39
211
10
14.267286
20
289.296630
11
14.122100
21
289.308059
0
LINE
8
annotation
62
1
39
211
10
14.122100
20
289.308059
11
13.978438
21
289.294720
0
LINE
8
annotation
62
1
39
211
10
13.978438
20
289.294720
11
13.839508
21
289.257447
0
LINE
8
annotation
62
1
39
211
10
13.839508
20
289.257447
11
13.708518
21
289.197074
0
LINE
8
annotation
62
1
39
211
10
13.708518
20
289.197074
11
13.588676
21
289.114434
0
LINE
8
annotation
62
1
39
211
10
13.588676
20
289.114434
11
13.483191
21
289.010361
0
LINE
8
annotation
62
1
39
211
10
13.483191
20
289.010361
11
13.395270
21
288.885687
0
LINE
8
annotation
62
1
39
211
10
13.395270
20
288.885687
11
13.284479
21
288.673161
0
LINE
8
annotation
62
1
39
211
10
16.394461
20
285.508995
11
17.238135
21
285.508995
0
LINE
8
annotation
62
1
39
211
10
17.238135
20
285.508995
11
17.238135
21
285.508995
0
LINE
8
annotation
62
1
39
211
10
17.238135
20
285.508995
11
17.389872
21
285.522607
0
LINE
8
annotation
62
1
39
211
10
17.389872
20
285.522607
11
17.532651
21
285.561837
0
LINE
8
annotation
62
1
39
211
10
17.532651
20
285.561837
11
17.664098
21
285.624277
0
LINE
8
annotation
62
1
39
211
10
17.664098
20
285.624277
11
17.781837
21
285.707519
0
LINE
8
annotation
62
1
39
211
10
17.781837
20
285.707519
11
17.883495
21
285.809155
0
LINE
8
annotation
62
1
39
211
10
17.883495
20
285.809155
11
17.966695
21
285.926777
0
LINE
8
annotation
62
1
39
211
10
17.966695
20
285.926777
11
18.029065
21
286.057977
0
LINE
8
annotation
62
1
39
211
10
18.029065
20
286.057977
11
18.068228
21
286.200347
0
LINE
8
annotation
62
1
39
211
10
18.068228
20
286.200347
11
18.081810
21
286.351478
0
LINE
8
annotation
62
1
39
211
10
18.081810
20
286.351478
11
18.081810
21
286.773911
0
LINE
8
annotation
62
1
39
211
10
18.081810
20
286.773911
11
18.081810
21
286.773911
0
LINE
8
annotation
62
1
39
211
10
18.081810
20
286.773911
11
18.068228
21
286.924980
0
LINE
8
annotation
62
1
39
211
10
18.068228
20
286.924980
11
18.029065
21
287.067316
0
LINE
8
annotation
62
1
39
211
10
18.029065
20
287.067316
11
17.966695
21
287.198506
0
LINE
8
annotation
62
1
39
211
10
17.966695
20
287.198506
11
17.883495
21
287.316136
0
LINE
8
annotation
62
1
39
211
10
17.883495
20
287.316136
11
17.781837
21
287.417792
0
LINE
8
annotation
62
1
39
211
10
17.781837
20
287.417792
11
17.664098
21
287.501060
0
LINE
8
annotation
62
1
39
211
10
17.664098
20
287.501060
11
17.532651
21
287.563525
0
LINE
8
annotation
62
1
39
211
10
17.532651
20
287.563525
11
17.389872
21
287.602775
0
LINE
8
annotation
62
1
39
211
10
17.389872
20
287.602775
11
17.238135
21
287.616394
0
LINE
8
annotation
62
1
39
211
10
17.238135
20
287.616394
11
16.815702
21
287.616394
0
LINE
8
annotation
62
1
39
211
10
16.815702
20
287.616394
11
17.238135
21
287.616394
0
LINE
8
annotation
62
1
39
211
10
17.238135
20
287.616394
11
17.238135
21
287.616394
0
LINE
8
annotation
62
1
39
211
10
17.238135
20
287.616394
11
17.389872
21
287.630017
0
LINE
8
annotation
62
1
39
211
10
17.389872
20
287.630017
11
17.532651
21
287.669290
0
LINE
8
annotation
62
1
39
211
10
17.532651
20
287.669290
11
17.664098
21
287.731818
0
LINE
8
annotation
62
1
39
211
10
17.664098
20
287.731818
11
17.781837
21
287.815206
0
LINE
8
annotation
62
1
39
211
10
17.781837
20
287.815206
11
17.883495
21
287.917061
0
LINE
8
annotation
62
1
39
211
10
17.883495
20
287.917061
11
17.966695
21
288.034989
0
LINE
8
annotation
62
1
39
211
10
17.966695
20
288.034989
11
18.029065
21
288.166594
0
LINE
8
annotation
62
1
39
211
10
18.029065
20
288.166594
11
18.068228
21
288.309483
0
LINE
8
annotation
62
1
39
211
10
18.068228
20
288.309483
11
18.081810
21
288.461260
0
LINE
8
annotation
62
1
39
211
10
18.081810
20
288.461260
11
18.081810
21
288.461260
0
LINE
8
annotation
62
1
39
211
10
18.081810
20
288.461260
11
18.068228
21
288.612329
0
LINE
8
annotation
62
1
39
211
10
18.068228
20
288.612329
11
18.029065
21
288.754665
0
LINE
8
annotation
62
1
39
211
10
18.029065
20
288.754665
11
17.966695
21
288.885855
0
LINE
8
annotation
62
1
39
211
10
17.966695
20
288.885855
11
17.883495
21
289.003485
0
LINE
8
annotation
62
1
39
211
10
17.883495
20
289.003485
11
17.781837
21
289.105141
0
LINE
8
annotation
62
1
39
211
10
17.781837
20
289.105141
11
17.664098
21
289.188409
0
LINE
8
annotation
62
1
39
211
10
17.664098
20
289.188409
11
17.532651
21
289.250874
0
LINE
8
annotation
62
1
39
211
10
17.532651
20
289.250874
11
17.389872
21
289.290124
0
LINE
8
annotation
62
1
39
211
10
17.389872
20
289.290124
11
17.238135
21
289.303744
0
LINE
8
annotation
62
1
39
211
10
17.238135
20
289.303744
11
16.394461
21
289.303744
0
LINE
8
annotation
62
1
39
211
10
10.946851
20
304.584587
11
9.395917
21
304.584587
0
LINE
8
annotation
62
1
39
211
10
9.395917
20
304.584587
11
10.829030
21
306.891715
0
LINE
8
annotation
62
1
39
211
10
10.829030
20
306.891715
11
10.829030
21
306.891715
0
LINE
8
annotation
62
1
39
211
10
10.829030
20
306.891715
11
10.830744
21
306.893835
0
LINE
8
annotation
62
1
39
211
10
10.830744
20
306.893835
11
10.832387
21
306.895973
0
LINE
8
annotation
62
1
39
211
10
10.832387
20
306.895973
11
10.833970
21
306.898147
0
LINE
8
annotation
62
1
39
211
10
10.833970
20
306.898147
11
10.835505
21
306.900375
0
LINE
8
annotation
62
1
39
211
10
10.835505
20
306.900375
11
10.837002
21
306.902676
0
LINE
8
annotation
62
1
39
211
10
10.837002
20
306.902676
11
10.838472
21
306.905066
0
LINE
8
annotation
62
1
39
211
10
10.838472
20
306.905066
11
10.839925
21
306.907564
0
LINE
8
annotation
62
1
39
211
10
10.839925
20
306.907564
11
10.841374
21
306.910189
0
LINE
8
annotation
62
1
39
211
10
10.841374
20
306.910189
11
10.842827
21
306.912958
0
LINE
8
annotation
62
1
39
211
10
10.842827
20
306.912958
11
10.842827
21
306.912958
0
LINE
8
annotation
62
1
39
211
10
10.842827
20
306.912958
11
10.902000
21
307.040007
0
LINE
8
annotation
62
1
39
211
10
10.902000
20
307.040007
11
10.936568
21
307.171705
0
LINE
8
annotation
62
1
39
211
10
10.936568
20
307.171705
11
10.947378
21
307.305075
0
LINE
8
annotation
62
1
39
211
10
10.947378
20
307.305075
11
10.935277
21
307.437142
0
LINE
8
annotation
62
1
39
211
10
10.935277
20
307.437142
11
10.901112
21
307.564931
0
LINE
8
annotation
62
1
39
211
10
10.901112
20
307.564931
11
10.845731
21
307.685464
0
LINE
8
annotation
62
1
39
211
10
10.845731
20
307.685464
11
10.769980
21
307.795767
0
LINE
8
annotation
62
1
39
211
10
10.769980
20
307.795767
11
10.674708
21
307.892863
0
LINE
8
annotation
62
1
39
211
10
10.674708
20
307.892863
11
10.560760
21
307.973777
0
LINE
8
annotation
62
1
39
211
10
10.560760
20
307.973777
11
10.560760
21
307.973777
0
LINE
8
annotation
62
1
39
211
10
10.560760
20
307.973777
11
10.433357
21
308.032109
0
LINE
8
annotation
62
1
39
211
10
10.433357
20
308.032109
11
10.301458
21
308.066144
0
LINE
8
annotation
62
1
39
211
10
10.301458
20
308.066144
11
10.168010
21
308.076649
0
LINE
8
annotation
62
1
39
211
10
10.168010
20
308.076649
11
10.035962
21
308.064388
0
LINE
8
annotation
62
1
39
211
10
10.035962
20
308.064388
11
9.908264
21
308.030129
0
LINE
8
annotation
62
1
39
211
10
9.908264
20
308.030129
11
9.787864
21
307.974637
0
LINE
8
annotation
62
1
39
211
10
9.787864
20
307.974637
11
9.677711
21
307.898678
0
LINE
8
annotation
62
1
39
211
10
9.677711
20
307.898678
11
9.580754
21
307.803019
0
LINE
8
annotation
62
1
39
211
10
9.580754
20
307.803019
11
9.499941
21
307.688424
0
LINE
8
annotation
62
1
39
211
10
9.499941
20
307.688424
11
9.398107
21
307.493080
0
LINE
8
annotation
62
1
39
211
10
14.195654
20
305.360958
11
12.256659
21
305.360958
0
LINE
8
annotation
62
1
39
211
10
12.256659
20
305.360958
11
13.031030
21
308.076734
0
LINE
8
annotation
62
1
39
211
10
13.614437
20
304.584615
11
13.614437
21
306.135549
0
LINE
8
annotation
62
1
39
211
10
12.928064
20
324.948206
11
12.657482
21
324.948206
0
LINE
8
annotation
62
1
39
211
10
12.657482
20
324.948206
11
12.907508
21
325.350717
0
LINE
8
annotation
62
1
39
211
10
12.907508
20
325.350717
11
12.907508
21
325.350717
0
LINE
8
annotation
62
1
39
211
10
12.907508
20
325.350717
11
12.907807
21
325.351087
0
LINE
8
annotation
62
1
39
211
10
12.907807
20
325.351087
11
12.908094
21
325.351460
0
LINE
8
annotation
62
1
39
211
10
12.908094
20
325.351460
11
12.908370
21
325.351839
0
LINE
8
annotation
62
1
39
211
10
12.908370
20
325.351839
11
12.908638
21
325.352228
0
LINE
8
annotation
62
1
39
211
10
12.908638
20
325.352228
11
12.908899
21
325.352629
0
LINE
8
annotation
62
1
39
211
10
12.908899
20
325.352629
11
12.909156
21
325.353046
0
LINE
8
annotation
62
1
39
211
10
12.909156
20
325.353046
11
12.909409
21
325.353482
0
LINE
8
annotation
62
1
39
211
10
12.909409
20
325.353482
11
12.909662
21
325.353940
0
LINE
8
annotation
62
1
39
211
10
12.909662
20
325.353940
11
12.909915
21
325.354423
0
LINE
8
annotation
62
1
39
211
10
12.909915
20
325.354423
11
12.909915
21
325.354423
0
LINE
8
annotation
62
1
39
211
10
12.909915
20
325.354423
11
12.920239
21
325.376588
0
LINE
8
annotation
62
1
39
211
10
12.920239
20
325.376588
11
12.926270
21
325.399565
0
LINE
8
annotation
62
1
39
211
10
12.926270
20
325.399565
11
12.928156
21
325.422833
0
LINE
8
annotation
62
1
39
211
10
12.928156
20
325.422833
11
12.926045
21
325.445874
0
LINE
8
annotation
62
1
39
211
10
12.926045
20
325.445874
11
12.920084
21
325.468169
0
LINE
8
annotation
62
1
39
211
10
12.920084
20
325.468169
11
12.910422
21
325.489197
0
LINE
8
annotation
62
1
39
211
10
12.910422
20
325.489197
11
12.897206
21
325.508441
0
LINE
8
annotation
62
1
39
211
10
12.897206
20
325.508441
11
12.880585
21
325.525381
0
LINE
8
annotation
62
1
39
211
10
12.880585
20
325.525381
11
12.860705
21
325.539498
0
LINE
8
annotation
62
1
39
211
10
12.860705
20
325.539498
11
12.860705
21
325.539498
0
LINE
8
annotation
62
1
39
211
10
12.860705
20
325.539498
11
12.838478
21
325.549674
0
LINE
8
annotation
62
1
39
211
10
12.838478
20
325.549674
11
12.815466
21
325.555612
0
LINE
8
annotation
62
1
39
211
10
12.815466
20
325.555612
11
12.792184
21
325.557445
0
LINE
8
annotation
62
1
39
211
10
12.792184
20
325.557445
11
12.769147
21
325.555306
0
LINE
8
annotation
62
1
39
211
10
12.769147
20
325.555306
11
12.746868
21
325.549329
0
LINE
8
annotation
62
1
39
211
10
12.746868
20
325.549329
11
12.725862
21
325.539648
0
LINE
8
annotation
62
1
39
211
10
12.725862
20
325.539648
11
12.706645
21
325.526395
0
LINE
8
annotation
62
1
39
211
10
12.706645
20
325.526395
11
12.689729
21
325.509706
0
LINE
8
annotation
62
1
39
211
10
12.689729
20
325.509706
11
12.675630
21
325.489714
0
LINE
8
annotation
62
1
39
211
10
12.675630
20
325.489714
11
12.657864
21
325.455633
0
LINE
8
annotation
62
1
39
211
10
13.156578
20
324.948211
11
13.291869
21
324.948211
0
LINE
8
annotation
62
1
39
211
10
13.291869
20
324.948211
11
13.291869
21
324.948211
0
LINE
8
annotation
62
1
39
211
10
13.291869
20
324.948211
11
13.316151
21
324.950394
0
LINE
8
annotation
62
1
39
211
10
13.316151
20
324.950394
11
13.339020
21
324.956688
0
LINE
8
annotation
62
1
39
211
10
13.339020
20
324.956688
11
13.360091
21
324.966710
0
LINE
8
annotation
62
1
39
211
10
13.360091
20
324.966710
11
13.378978
21
324.980076
0
LINE
8
annotation
62
1
39
211
10
13.378978
20
324.980076
11
13.395295
21
324.996403
0
LINE
8
annotation
62
1
39
211
10
13.395295
20
324.996403
11
13.408658
21
325.015308
0
LINE
8
annotation
62
1
39
211
10
13.408658
20
325.015308
11
13.418680
21
325.036407
0
LINE
8
annotation
62
1
39
211
10
13.418680
20
325.036407
11
13.424976
21
325.059317
0
LINE
8
annotation
62
1
39
211
10
13.424976
20
325.059317
11
13.427160
21
325.083655
0
LINE
8
annotation
62
1
39
211
10
13.427160
20
325.083655
11
13.427160
21
325.151052
0
LINE
8
annotation
62
1
39
211
10
13.427160
20
325.151052
11
13.427160
21
325.151052
0
LINE
8
annotation
62
1
39
211
10
13.427160
20
325.151052
11
13.424977
21
325.175378
0
LINE
8
annotation
62
1
39
211
10
13.424977
20
325.175378
11
13.418684
21
325.198256
0
LINE
8
annotation
62
1
39
211
10
13.418684
20
325.198256
11
13.408666
21
325.219309
0
LINE
8
annotation
62
1
39
211
10
13.408666
20
325.219309
11
13.395308
21
325.238160
0
LINE
8
annotation
62
1
39
211
10
13.395308
20
325.238160
11
13.378994
21
325.254430
0
LINE
8
annotation
62
1
39
211
10
13.378994
20
325.254430
11
13.360108
21
325.267742
0
LINE
8
annotation
62
1
39
211
10
13.360108
20
325.267742
11
13.339036
21
325.277718
0
LINE
8
annotation
62
1
39
211
10
13.339036
20
325.277718
11
13.316161
21
325.283980
0
LINE
8
annotation
62
1
39
211
10
13.316161
20
325.283980
11
13.291869
21
325.286152
0
LINE
8
annotation
62
1
39
211
10
13.291869
20
325.286152
11
13.156578
21
325.286152
0
LINE
8
annotation
62
1
39
211
10
13.156578
20
325.286152
11
13.156578
21
325.557460
0
LINE
8
annotation
62
1
39
211
10
13.156578
20
325.557460
11
13.427160
21
325.557460
0
LINE
8
annotation
62
1
39
211
10
25.174389
20
255.877221
11
21.981207
21
255.877221
0
LINE
8
annotation
62
1
39
211
10
21.981207
20
255.877221
11
25.174389
21
261.628122
0
LINE
8
annotation
62
1
39
211
10
25.174389
20
261.628122
11
21.981207
21
261.628122
0
LINE
8
annotation
62
1
39
211
10
30.476012
20
258.752671
11
27.331518
21
258.752671
0
LINE
8
annotation
62
1
39
211
10
32.632059
20
257.152294
11
32.632059
21
257.152294
0
LINE
8
annotation
62
1
39
211
10
32.632059
20
257.152294
11
32.652678
21
256.922674
0
LINE
8
annotation
62
1
39
211
10
32.652678
20
256.922674
11
32.712106
21
256.706717
0
LINE
8
annotation
62
1
39
211
10
32.712106
20
256.706717
11
32.806707
21
256.507988
0
LINE
8
annotation
62
1
39
211
10
32.806707
20
256.507988
11
32.932839
21
256.330053
0
LINE
8
annotation
62
1
39
211
10
32.932839
20
256.330053
11
33.086865
21
256.176475
0
LINE
8
annotation
62
1
39
211
10
33.086865
20
256.176475
11
33.265144
21
256.050820
0
LINE
8
annotation
62
1
39
211
10
33.265144
20
256.050820
11
33.464039
21
255.956652
0
LINE
8
annotation
62
1
39
211
10
33.464039
20
255.956652
11
33.679909
21
255.897538
0
LINE
8
annotation
62
1
39
211
10
33.679909
20
255.897538
11
33.909116
21
255.877040
0
LINE
8
annotation
62
1
39
211
10
33.909116
20
255.877040
11
33.909116
21
255.877040
0
LINE
8
annotation
62
1
39
211
10
33.909116
20
255.877040
11
34.138322
21
255.897538
0
LINE
8
annotation
62
1
39
211
10
34.138322
20
255.897538
11
34.354193
21
255.956652
0
LINE
8
annotation
62
1
39
211
10
34.354193
20
255.956652
11
34.553087
21
256.050820
0
LINE
8
annotation
62
1
39
211
10
34.553087
20
256.050820
11
34.731367
21
256.176475
0
LINE
8
annotation
62
1
39
211
10
34.731367
20
256.176475
11
34.885392
21
256.330053
0
LINE
8
annotation
62
1
39
211
10
34.885392
20
256.330053
11
35.011525
21
256.507988
0
LINE
8
annotation
62
1
39
211
10
35.011525
20
256.507988
11
35.106125
21
256.706717
0
LINE
8
annotation
62
1
39
211
10
35.106125
20
256.706717
11
35.165554
21
256.922674
0
LINE
8
annotation
62
1
39
211
10
35.165554
20
256.922674
11
35.186172
21
257.152294
0
LINE
8
annotation
62
1
39
211
10
35.186172
20
257.152294
11
35.186172
21
257.788478
0
LINE
8
annotation
62
1
39
211
10
35.186172
20
257.788478
11
35.186172
21
257.788478
0
LINE
8
annotation
62
1
39
211
10
35.186172
20
257.788478
11
35.165566
21
258.018209
0
LINE
8
annotation
62
1
39
211
10
35.165566
20
258.018209
11
35.106166
21
258.234464
0
LINE
8
annotation
62
1
39
211
10
35.106166
20
258.234464
11
35.011605
21
258.433624
0
LINE
8
annotation
62
1
39
211
10
35.011605
20
258.433624
11
34.885511
21
258.612072
0
LINE
8
annotation
62
1
39
211
10
34.885511
20
258.612072
11
34.731515
21
258.766189
0
LINE
8
annotation
62
1
39
211
10
34.731515
20
258.766189
11
34.553247
21
258.892356
0
LINE
8
annotation
62
1
39
211
10
34.553247
20
258.892356
11
34.354338
21
258.986955
0
LINE
8
annotation
62
1
39
211
10
34.354338
20
258.986955
11
34.138417
21
259.046368
0
LINE
8
annotation
62
1
39
211
10
34.138417
20
259.046368
11
33.909116
21
259.066977
0
LINE
8
annotation
62
1
39
211
10
33.909116
20
259.066977
11
33.909116
21
259.066977
0
LINE
8
annotation
62
1
39
211
10
33.909116
20
259.066977
11
33.679814
21
259.046356
0
LINE
8
annotation
62
1
39
211
10
33.679814
20
259.046356
11
33.463893
21
258.986914
0
LINE
8
annotation
62
1
39
211
10
33.463893
20
258.986914
11
33.264984
21
258.892276
0
LINE
8
annotation
62
1
39
211
10
33.264984
20
258.892276
11
33.086716
21
258.766070
0
LINE
8
annotation
62
1
39
211
10
33.086716
20
258.766070
11
32.932720
21
258.611924
0
LINE
8
annotation
62
1
39
211
10
32.932720
20
258.611924
11
32.806626
21
258.433464
0
LINE
8
annotation
62
1
39
211
10
32.806626
20
258.433464
11
32.712065
21
258.234318
0
LINE
8
annotation
62
1
39
211
10
32.712065
20
258.234318
11
32.652666
21
258.018114
0
LINE
8
annotation
62
1
39
211
10
32.652666
20
258.018114
11
32.632059
21
257.788478
0
LINE
8
annotation
62
1
39
211
10
32.632059
20
257.788478
11
32.632059
21
257.152294
0
LINE
8
annotation
62
1
39
211
10
35.186172
20
260.345836
11
35.186172
21
260.345836
0
LINE
8
annotation
62
1
39
211
10
35.186172
20
260.345836
11
35.165566
21
260.574506
0
LINE
8
annotation
62
1
39
211
10
35.165566
20
260.574506
11
35.106166
21
260.789958
0
LINE
8
annotation
62
1
39
211
10
35.106166
20
260.789958
11
35.011605
21
260.988539
0
LINE
8
annotation
62
1
39
211
10
35.011605
20
260.988539
11
34.885511
21
261.166593
0
LINE
8
annotation
62
1
39
211
10
34.885511
20
261.166593
11
34.731515
21
261.320468
0
LINE
8
annotation
62
1
39
211
10
34.731515
20
261.320468
11
34.553247
21
261.446509
0
LINE
8
annotation
62
1
39
211
10
34.553247
20
261.446509
11
34.354338
21
261.541062
0
LINE
8
annotation
62
1
39
211
10
34.354338
20
261.541062
11
34.138417
21
261.600474
0
LINE
8
annotation
62
1
39
211
10
34.138417
20
261.600474
11
33.909116
21
261.621089
0
LINE
8
annotation
62
1
39
211
10
33.909116
20
261.621089
11
33.909116
21
261.621089
0
LINE
8
annotation
62
1
39
211
10
33.909116
20
261.621089
11
33.679814
21
261.600474
0
LINE
8
annotation
62
1
39
211
10
33.679814
20
261.600474
11
33.463893
21
261.541062
0
LINE
8
annotation
62
1
39
211
10
33.463893
20
261.541062
11
33.264984
21
261.446509
0
LINE
8
annotation
62
1
39
211
10
33.264984
20
261.446509
11
33.086716
21
261.320468
0
LINE
8
annotation
62
1
39
211
10
33.086716
20
261.320468
11
32.932720
21
261.166593
0
LINE
8
annotation
62
1
39
211
10
32.932720
20
261.166593
11
32.806626
21
260.988539
0
LINE
8
annotation
62
1
39
211
10
32.806626
20
260.988539
11
32.712065
21
260.789958
0
LINE
8
annotation
62
1
39
211
10
32.712065
20
260.789958
11
32.652666
21
260.574506
0
LINE
8
annotation
62
1
39
211
10
32.652666
20
260.574506
11
32.632059
21
260.345836
0
LINE
8
annotation
62
1
39
211
10
32.632059
20
260.345836
11
32.632059
21
260.345836
0
LINE
8
annotation
62
1
39
211
10
32.632059
20
260.345836
11
32.652678
21
260.116093
0
LINE
8
annotation
62
1
39
211
10
32.652678
20
260.116093
11
32.712106
21
259.899805
0
LINE
8
annotation
62
1
39
211
10
32.712106
20
259.899805
11
32.806707
21
259.700596
0
LINE
8
annotation
62
1
39
211
10
32.806707
20
259.700596
11
32.932839
21
259.522091
0
LINE
8
annotation
62
1
39
211
10
32.932839
20
259.522091
11
33.086865
21
259.367915
0
LINE
8
annotation
62
1
39
211
10
33.086865
20
259.367915
11
33.265144
21
259.241691
0
LINE
8
annotation
62
1
39
211
10
33.265144
20
259.241691
11
33.464039
21
259.147044
0
LINE
8
annotation
62
1
39
211
10
33.464039
20
259.147044
11
33.679909
21
259.087597
0
LINE
8
annotation
62
1
39
211
10
33.679909
20
259.087597
11
33.909116
21
259.066977
0
LINE
8
annotation
62
1
39
211
10
33.909116
20
259.066977
11
33.909116
21
259.066977
0
LINE
8
annotation
62
1
39
211
10
33.909116
20
259.066977
11
34.138322
21
259.087597
0
LINE
8
annotation
62
1
39
211
10
34.138322
20
259.087597
11
34.354193
21
259.147044
0
LINE
8
annotation
62
1
39
211
10
34.354193
20
259.147044
11
34.553087
21
259.241691
0
LINE
8
annotation
62
1
39
211
10
34.553087
20
259.241691
11
34.731367
21
259.367915
0
LINE
8
annotation
62
1
39
211
10
34.731367
20
259.367915
11
34.885392
21
259.522091
0
LINE
8
annotation
62
1
39
211
10
34.885392
20
259.522091
11
35.011525
21
259.700596
0
LINE
8
annotation
62
1
39
211
10
35.011525
20
259.700596
11
35.106125
21
259.899805
0
LINE
8
annotation
62
1
39
211
10
35.106125
20
259.899805
11
35.165554
21
260.116093
0
LINE
8
annotation
62
1
39
211
10
35.165554
20
260.116093
11
35.186172
21
260.345836
0
LINE
8
boundary
62
5
39
2
10
15.660550
20
329.726150
11
16.502618
21
330.068361
0
LINE
8
boundary
62
5
39
2
10
16.502618
20
330.068361
11
17.369749
21
330.509887
0
LINE
8
boundary
62
5
39
2
10
17.369749
20
330.509887
11
18.258403
21
331.050321
0
LINE
8
boundary
62
5
39
2
10
18.258403
20
331.050321
11
19.164817
21
331.688841
0
LINE
8
boundary
62
5
39
2
10
19.164817
20
331.688841
11
20.085154
21
332.424584
0
LINE
8
boundary
62
5
39
2
10
20.085154
20
332.424584
11
21.015436
21
333.256369
0
LINE
8
boundary
62
5
39
2
10
21.015436
20
333.256369
11
21.951607
21
334.182792
0
LINE
8
boundary
62
5
39
2
10
21.951607
20
334.182792
11
22.889562
21
335.202282
0
LINE
8
boundary
62
5
39
2
10
22.889562
20
335.202282
11
23.825052
21
336.313035
0
LINE
8
boundary
62
5
39
2
10
23.825052
20
336.313035
11
24.753804
21
337.512988
0
LINE
8
boundary
62
5
39
2
10
24.753804
20
337.512988
11
25.671631
21
338.799889
0
LINE
8
boundary
62
5
39
2
10
25.671631
20
338.799889
11
26.574409
21
340.171323
0
LINE
8
boundary
62
5
39
2
10
26.574409
20
340.171323
11
26.849669
21
340.599943
0
LINE
8
boundary
62
5
39
2
10
26.849669
20
340.599943
11
27.458067
21
341.624741
0
LINE
8
boundary
62
5
39
2
10
27.458067
20
341.624741
11
27.718349
21
342.062896
0
LINE
8
boundary
62
5
39
2
10
27.718349
20
342.062896
11
28.132127
21
342.810639
0
LINE
8
boundary
62
5
39
2
10
28.132127
20
342.810639
11
28.562807
21
343.598823
0
LINE
8
boundary
62
5
39
2
10
28.562807
20
343.598823
11
28.885606
21
344.227439
0
LINE
8
boundary
62
5
39
2
10
28.885606
20
344.227439
11
29.177754
21
344.804116
0
LINE
8
boundary
62
5
39
2
10
29.177754
20
344.804116
11
29.777744
21
346.048576
0
LINE
8
boundary
62
5
39
2
10
29.777744
20
346.048576
11
30.362786
21
347.335359
0
LINE
8
boundary
62
5
39
2
10
30.362786
20
347.335359
11
30.933240
21
348.664995
0
LINE
8
boundary
62
5
39
2
10
30.933240
20
348.664995
11
31.489459
21
350.037944
0
LINE
8
boundary
62
5
39
2
10
31.489459
20
350.037944
11
32.031789
21
351.454689
0
LINE
8
boundary
62
5
39
2
10
32.031789
20
351.454689
11
32.560573
21
352.915702
0
LINE
8
boundary
62
5
39
2
10
32.560573
20
352.915702
11
33.076165
21
354.421508
0
LINE
8
boundary
62
5
39
2
10
33.076165
20
354.421508
11
33.578887
21
355.972398
0
LINE
8
boundary
62
5
39
2
10
33.578887
20
355.972398
11
34.069063
21
357.568637
0
LINE
8
boundary
62
5
39
2
10
34.069063
20
357.568637
11
34.547044
21
359.210651
0
LINE
8
boundary
62
5
39
2
10
34.547044
20
359.210651
11
35.013157
21
360.898820
0
LINE
8
boundary
62
5
39
2
10
35.013157
20
360.898820
11
35.467746
21
362.633535
0
LINE
8
boundary
62
5
39
2
10
35.467746
20
362.633535
11
35.911129
21
364.415178
0
LINE
8
boundary
62
5
39
2
10
35.911129
20
364.415178
11
36.343644
21
366.244150
0
LINE
8
boundary
62
5
39
2
10
36.343644
20
366.244150
11
36.765615
21
368.120812
0
LINE
8
boundary
62
5
39
2
10
36.765615
20
368.120812
11
37.379458
21
371.026281
0
LINE
8
boundary
62
5
39
2
10
37.379458
20
371.026281
11
37.488149
21
371.579904
0
LINE
8
boundary
62
5
39
2
10
37.488149
20
371.579904
11
37.949304
21
373.940191
0
LINE
8
boundary
62
5
39
2
10
37.949304
20
373.940191
11
38.491970
21
376.921126
0
LINE
8
boundary
62
5
39
2
10
38.491970
20
376.921126
11
39.013571
21
379.990474
0
LINE
8
boundary
62
5
39
2
10
39.013571
20
379.990474
11
39.515037
21
383.147436
0
LINE
8
boundary
62
5
39
2
10
39.515037
20
383.147436
11
39.612616
21
383.777581
0
LINE
8
boundary
62
5
39
2
10
39.612616
20
383.777581
11
39.997219
21
386.391020
0
LINE
8
boundary
62
5
39
2
10
39.997219
20
386.391020
11
40.121264
21
387.250833
0
LINE
8
boundary
62
5
39
2
10
40.121264
20
387.250833
11
40.460940
21
389.720193
0
LINE
8
boundary
62
5
39
2
10
40.460940
20
389.720193
11
40.611673
21
390.840521
0
LINE
8
boundary
62
5
39
2
10
40.611673
20
390.840521
11
40.906950
21
393.133846
0
LINE
8
boundary
62
5
39
2
10
40.906950
20
393.133846
11
41.084534
21
394.547705
0
LINE
8
boundary
62
5
39
2
10
41.084534
20
394.547705
11
41.335913
21
396.630697
0
LINE
8
boundary
62
5
39
2
10
41.335913
20
396.630697
11
41.540440
21
398.373364
0
LINE
8
boundary
62
5
39
2
10
41.540440
20
398.373364
11
41.748413
21
400.209428
0
LINE
8
boundary
62
5
39
2
10
41.748413
20
400.209428
11
41.979904
21
402.318371
0
LINE
8
boundary
62
5
39
2
10
41.979904
20
402.318371
11
42.144940
21
403.868511
0
LINE
8
boundary
62
5
39
2
10
42.144940
20
403.868511
11
42.403373
21
406.383453
0
LINE
8
boundary
62
5
39
2
10
42.403373
20
406.383453
11
42.526267
21
407.605508
0
LINE
8
boundary
62
5
39
2
10
42.526267
20
407.605508
11
42.812476
21
410.566795
0
LINE
8
boundary
62
5
39
2
10
42.812476
20
410.566795
11
42.893965
21
411.415655
0
LINE
8
boundary
62
5
39
2
10
42.893965
20
411.415655
11
43.210822
21
414.862793
0
LINE
8
boundary
62
5
39
2
10
43.210822
20
414.862793
11
43.570501
21
418.907276
0
LINE
8
boundary
62
5
39
2
10
43.570501
20
418.907276
11
43.935627
21
423.229537
0
LINE
8
boundary
62
5
39
2
10
43.935627
20
423.229537
11
43.979618
21
423.780265
0
LINE
8
boundary
62
5
39
2
10
43.979618
20
423.780265
11
44.269719
21
427.274051
0
LINE
8
boundary
62
5
39
2
10
44.269719
20
427.274051
11
44.357313
21
428.388942
0
LINE
8
boundary
62
5
39
2
10
44.357313
20
428.388942
11
44.602721
21
431.354861
0
LINE
8
boundary
62
5
39
2
10
44.602721
20
431.354861
11
44.738244
21
433.085988
0
LINE
8
boundary
62
5
39
2
10
44.738244
20
433.085988
11
44.936663
21
435.465352
0
LINE
8
boundary
62
5
39
2
10
44.936663
20
435.465352
11
45.126167
21
437.865014
0
LINE
8
boundary
62
5
39
2
10
45.126167
20
437.865014
11
45.273447
21
439.599195
0
LINE
8
boundary
62
5
39
2
10
45.273447
20
439.599195
11
45.524859
21
442.719571
0
LINE
8
boundary
62
5
39
2
10
45.524859
20
442.719571
11
45.614854
21
443.750306
0
LINE
8
boundary
62
5
39
2
10
45.614854
20
443.750306
11
45.938149
21
447.643128
0
LINE
8
boundary
62
5
39
2
10
45.938149
20
447.643128
11
46.081401
21
449.288712
0
LINE
8
boundary
62
5
39
2
10
46.081401
20
449.288712
11
46.298804
21
451.872444
0
LINE
8
boundary
62
5
39
2
10
46.298804
20
451.872444
11
46.360710
21
452.635173
0
LINE
8
boundary
62
5
39
2
10
46.360710
20
452.635173
11
46.632012
21
455.713490
0
LINE
8
boundary
62
5
39
2
10
46.632012
20
455.713490
11
46.800117
21
457.685420
0
LINE
8
boundary
62
5
39
2
10
46.800117
20
457.685420
11
46.972179
21
459.537176
0
LINE
8
boundary
62
5
39
2
10
46.972179
20
459.537176
11
47.264911
21
462.783717
0
LINE
8
boundary
62
5
39
2
10
47.264911
20
462.783717
11
47.319817
21
463.341083
0
LINE
8
boundary
62
5
39
2
10
47.319817
20
463.341083
11
47.467595
21
464.881869
0
LINE
8
boundary
62
5
39
2
10
47.467595
20
464.881869
11
47.677068
21
467.115554
0
LINE
8
boundary
62
5
39
2
10
47.677068
20
467.115554
11
47.751040
21
467.926639
0
LINE
8
boundary
62
5
39
2
10
47.751040
20
467.926639
11
48.044526
21
470.856706
0
LINE
8
boundary
62
5
39
2
10
48.044526
20
470.856706
11
48.264359
21
473.105269
0
LINE
8
boundary
62
5
39
2
10
48.264359
20
473.105269
11
48.421400
21
474.567727
0
LINE
8
boundary
62
5
39
2
10
48.421400
20
474.567727
11
48.792599
21
478.096611
0
LINE
8
boundary
62
5
39
2
10
48.792599
20
478.096611
11
49.208494
21
481.870955
0
LINE
8
boundary
62
5
39
2
10
49.208494
20
481.870955
11
49.389636
21
483.536515
0
LINE
8
boundary
62
5
39
2
10
49.389636
20
483.536515
11
49.523893
21
484.682647
0
LINE
8
boundary
62
5
39
2
10
49.523893
20
484.682647
11
49.694094
21
486.153918
0
LINE
8
boundary
62
5
39
2
10
49.694094
20
486.153918
11
49.773185
21
486.802975
0
LINE
8
boundary
62
5
39
2
10
49.773185
20
486.802975
11
50.010588
21
488.772745
0
LINE
8
boundary
62
5
39
2
10
50.010588
20
488.772745
11
50.100685
21
489.488699
0
LINE
8
boundary
62
5
39
2
10
50.100685
20
489.488699
11
50.286781
21
491.013868
0
LINE
8
boundary
62
5
39
2
10
50.286781
20
491.013868
11
50.549992
21
493.101911
0
LINE
8
boundary
62
5
39
2
10
50.549992
20
493.101911
11
50.664976
21
494.013180
0
LINE
8
boundary
62
5
39
2
10
50.664976
20
494.013180
11
50.819698
21
495.179382
0
LINE
8
boundary
62
5
39
2
10
50.819698
20
495.179382
11
51.011027
21
496.631371
0
LINE
8
boundary
62
5
39
2
10
51.011027
20
496.631371
11
51.096069
21
497.245965
0
LINE
8
boundary
62
5
39
2
10
51.096069
20
497.245965
11
51.371428
21
499.246784
0
LINE
8
boundary
62
5
39
2
10
51.371428
20
499.246784
11
51.647926
21
501.214011
0
LINE
8
boundary
62
5
39
2
10
51.647926
20
501.214011
11
51.737968
21
501.859019
0
LINE
8
boundary
62
5
39
2
10
51.737968
20
501.859019
11
51.919641
21
503.100489
0
LINE
8
boundary
62
5
39
2
10
51.919641
20
503.100489
11
52.119038
21
504.466254
0
LINE
8
boundary
62
5
39
2
10
52.119038
20
504.466254
11
52.196823
21
504.975010
0
LINE
8
boundary
62
5
39
2
10
52.196823
20
504.975010
11
52.392007
21
506.253371
0
LINE
8
boundary
62
5
39
2
10
52.392007
20
506.253371
11
52.478719
21
506.834542
0
LINE
8
boundary
62
5
39
2
10
52.478719
20
506.834542
11
52.764284
21
508.674885
0
LINE
8
boundary
62
5
39
2
10
52.764284
20
508.674885
11
52.918230
21
509.661796
0
LINE
8
boundary
62
5
39
2
10
52.918230
20
509.661796
11
53.066082
21
510.565977
0
LINE
8
boundary
62
5
39
2
10
53.066082
20
510.565977
11
53.379902
21
512.484172
0
LINE
8
boundary
62
5
39
2
10
53.379902
20
512.484172
11
53.707310
21
514.441891
0
LINE
8
boundary
62
5
39
2
10
53.707310
20
514.441891
11
53.867243
21
515.395782
0
LINE
8
boundary
62
5
39
2
10
53.867243
20
515.395782
11
54.034431
21
516.351722
0
LINE
8
boundary
62
5
39
2
10
54.034431
20
516.351722
11
54.366092
21
518.243962
0
LINE
8
boundary
62
5
39
2
10
54.366092
20
518.243962
11
54.699555
21
520.115269
0
LINE
8
boundary
62
5
39
2
10
54.699555
20
520.115269
11
54.871453
21
521.077349
0
LINE
8
boundary
62
5
39
2
10
54.871453
20
521.077349
11
55.036627
21
521.969496
0
LINE
8
boundary
62
5
39
2
10
55.036627
20
521.969496
11
55.349079
21
523.651174
0
LINE
8
boundary
62
5
39
2
10
55.349079
20
523.651174
11
55.717387
21
525.621556
0
LINE
8
boundary
62
5
39
2
10
55.717387
20
525.621556
11
55.919791
21
526.695459
0
LINE
8
boundary
62
5
39
2
10
55.919791
20
526.695459
11
56.060837
21
527.421634
0
LINE
8
boundary
62
5
39
2
10
56.060837
20
527.421634
11
56.314766
21
528.723042
0
LINE
8
boundary
62
5
39
2
10
56.314766
20
528.723042
11
56.458220
21
529.477682
0
LINE
8
boundary
62
5
39
2
10
56.458220
20
529.477682
11
56.749388
21
530.962911
0
LINE
8
boundary
62
5
39
2
10
56.749388
20
530.962911
11
57.001026
21
532.240244
0
LINE
8
boundary
62
5
39
2
10
57.001026
20
532.240244
11
57.259441
21
533.514732
0
LINE
8
boundary
62
5
39
2
10
57.259441
20
533.514732
11
57.441122
21
534.435779
0
LINE
8
boundary
62
5
39
2
10
57.441122
20
534.435779
11
57.549489
21
534.982359
0
LINE
8
boundary
62
5
39
2
10
57.549489
20
534.982359
11
57.784786
21
536.141305
0
LINE
8
boundary
62
5
39
2
10
57.784786
20
536.141305
11
58.103614
21
537.703147
0
LINE
8
boundary
62
5
39
2
10
58.103614
20
537.703147
11
58.471735
21
539.503744
0
LINE
8
boundary
62
5
39
2
10
58.471735
20
539.503744
11
58.655202
21
540.401417
0
LINE
8
boundary
62
5
39
2
10
58.655202
20
540.401417
11
58.813032
21
541.158334
0
LINE
8
boundary
62
5
39
2
10
58.813032
20
541.158334
11
59.065568
21
542.362420
0
LINE
8
boundary
62
5
39
2
10
59.065568
20
542.362420
11
59.210676
21
543.076932
0
LINE
8
boundary
62
5
39
2
10
59.210676
20
543.076932
11
59.487512
21
544.410368
0
LINE
8
boundary
62
5
39
2
10
59.487512
20
544.410368
11
59.762783
21
545.728713
0
LINE
8
boundary
62
5
39
2
10
59.762783
20
545.728713
11
59.917241
21
546.453476
0
LINE
8
boundary
62
5
39
2
10
59.917241
20
546.453476
11
60.151695
21
547.593198
0
LINE
8
boundary
62
5
39
2
10
60.151695
20
547.593198
11
60.309564
21
548.356409
0
LINE
8
boundary
62
5
39
2
10
60.309564
20
548.356409
11
60.549743
21
549.489780
0
LINE
8
boundary
62
5
39
2
10
60.549743
20
549.489780
11
60.728373
21
550.325654
0
LINE
8
boundary
62
5
39
2
10
60.728373
20
550.325654
11
61.002996
21
551.668820
0
LINE
8
boundary
62
5
39
2
10
61.002996
20
551.668820
11
61.388039
21
553.538098
0
LINE
8
boundary
62
5
39
2
10
61.388039
20
553.538098
11
61.873333
21
555.901628
0
LINE
8
boundary
62
5
39
2
10
61.873333
20
555.901628
11
62.206303
21
557.527296
0
LINE
8
boundary
62
5
39
2
10
62.206303
20
557.527296
11
62.418828
21
558.620458
0
LINE
8
boundary
62
5
39
2
10
62.418828
20
558.620458
11
62.686024
21
559.959184
0
LINE
8
boundary
62
5
39
2
10
62.686024
20
559.959184
11
62.863179
21
560.841079
0
LINE
8
boundary
62
5
39
2
10
62.863179
20
560.841079
11
63.064994
21
561.913041
0
LINE
8
boundary
62
5
39
2
10
63.064994
20
561.913041
11
63.384840
21
563.603942
0
LINE
8
boundary
62
5
39
2
10
63.384840
20
563.603942
11
63.762695
21
565.682571
0
LINE
8
boundary
62
5
39
2
10
63.762695
20
565.682571
11
63.988048
21
566.935878
0
LINE
8
boundary
62
5
39
2
10
63.988048
20
566.935878
11
64.075479
21
567.468467
0
LINE
8
boundary
62
5
39
2
10
64.075479
20
567.468467
11
64.177507
21
568.094224
0
LINE
8
boundary
62
5
39
2
10
64.177507
20
568.094224
11
64.328008
21
568.999462
0
LINE
8
boundary
62
5
39
2
10
64.328008
20
568.999462
11
64.445654
21
569.711407
0
LINE
8
boundary
62
5
39
2
10
64.445654
20
569.711407
11
64.556697
21
570.450700
0
LINE
8
boundary
62
5
39
2
10
64.556697
20
570.450700
11
64.708658
21
571.458119
0
LINE
8
boundary
62
5
39
2
10
64.708658
20
571.458119
11
64.939573
21
573.141102
0
LINE
8
boundary
62
5
39
2
10
64.939573
20
573.141102
11
65.089776
21
574.363503
0
LINE
8
boundary
62
5
39
2
10
65.089776
20
574.363503
11
65.219283
21
575.520691
0
LINE
8
boundary
62
5
39
2
10
65.219283
20
575.520691
11
65.295225
21
576.236991
0
LINE
8
boundary
62
5
39
2
10
65.295225
20
576.236991
11
65.425548
21
577.690167
0
LINE
8
boundary
62
5
39
2
10
65.425548
20
577.690167
11
65.504147
21
578.816343
0
LINE
8
boundary
62
5
39
2
10
65.504147
20
578.816343
11
65.558619
21
579.835474
0
LINE
8
boundary
62
5
39
2
10
65.558619
20
579.835474
11
65.582414
21
580.345825
0
LINE
8
boundary
62
5
39
2
10
65.582414
20
580.345825
11
65.614776
21
581.578448
0
LINE
8
boundary
62
5
39
2
10
65.614776
20
581.578448
11
65.617306
21
582.637595
0
LINE
8
boundary
62
5
39
2
10
65.617306
20
582.637595
11
65.592145
21
583.599542
0
LINE
8
boundary
62
5
39
2
10
65.592145
20
583.599542
11
65.549247
21
584.443823
0
LINE
8
boundary
62
5
39
2
10
65.549247
20
584.443823
11
65.487976
21
585.257441
0
LINE
8
boundary
62
5
39
2
10
65.487976
20
585.257441
11
65.435571
21
585.813711
0
LINE
8
boundary
62
5
39
2
10
65.435571
20
585.813711
11
65.238523
21
587.164252
0
LINE
8
boundary
62
5
39
2
10
65.238523
20
587.164252
11
64.928559
21
588.562433
0
LINE
8
boundary
62
5
39
2
10
64.928559
20
588.562433
11
64.700041
21
589.357269
0
LINE
8
boundary
62
5
39
2
10
64.700041
20
589.357269
11
64.499506
21
589.907632
0
LINE
8
boundary
62
5
39
2
10
64.499506
20
589.907632
11
64.279896
21
590.420979
0
LINE
8
boundary
62
5
39
2
10
64.279896
20
590.420979
11
64.041214
21
590.896415
0
LINE
8
boundary
62
5
39
2
10
64.041214
20
590.896415
11
63.659257
21
591.510257
0
LINE
8
boundary
62
5
39
2
10
63.659257
20
591.510257
11
63.233440
21
592.036317
0
LINE
8
boundary
62
5
39
2
10
63.233440
20
592.036317
11
62.817116
21
592.435957
0
LINE
8
boundary
62
5
39
2
10
62.817116
20
592.435957
11
62.285069
21
592.804803
0
LINE
8
boundary
62
5
39
2
10
62.285069
20
592.804803
11
61.682946
21
593.092362
0
LINE
8
boundary
62
5
39
2
10
61.682946
20
593.092362
11
61.066000
21
593.252925
0
LINE
8
boundary
62
5
39
2
10
61.066000
20
593.252925
11
60.420113
21
593.304225
0
LINE
8
boundary
62
5
39
2
10
60.420113
20
593.304225
11
59.912540
21
593.268878
0
LINE
8
boundary
62
5
39
2
10
59.912540
20
593.268878
11
59.054551
21
593.086436
0
LINE
8
boundary
62
5
39
2
10
59.054551
20
593.086436
11
58.496954
21
592.883961
0
LINE
8
boundary
62
5
39
2
10
58.496954
20
592.883961
11
57.869339
21
592.578421
0
LINE
8
boundary
62
5
39
2
10
57.869339
20
592.578421
11
57.119059
21
592.152521
0
LINE
8
boundary
62
5
39
2
10
57.119059
20
592.152521
11
56.119438
21
591.418868
0
LINE
8
boundary
62
5
39
2
10
56.119438
20
591.418868
11
55.467315
21
590.832867
0
LINE
8
boundary
62
5
39
2
10
55.467315
20
590.832867
11
54.096663
21
589.439377
0
LINE
8
boundary
62
5
39
2
10
54.096663
20
589.439377
11
53.079606
21
588.165785
0
LINE
8
boundary
62
5
39
2
10
53.079606
20
588.165785
11
52.245929
21
586.970260
0
LINE
8
boundary
62
5
39
2
10
52.245929
20
586.970260
11
58.172229
21
586.820260
0
LINE
8
boundary
62
5
39
2
10
58.172229
20
586.820260
11
58.172229
21
584.074260
0
LINE
8
boundary
62
5
39
2
10
58.172229
20
584.074260
11
50.516769
21
584.074260
0
LINE
8
boundary
62
5
39
2
10
50.516769
20
584.074260
11
50.179750
21
583.456222
0
LINE
8
boundary
62
5
39
2
10
50.179750
20
583.456222
11
49.176429
21
581.376840
0
LINE
8
boundary
62
5
39
2
10
49.176429
20
581.376840
11
48.786904
21
580.466693
0
LINE
8
boundary
62
5
39
2
10
48.786904
20
580.466693
11
48.251141
21
579.232794
0
LINE
8
boundary
62
5
39
2
10
48.251141
20
579.232794
11
47.351348
21
576.944484
0
LINE
8
boundary
62
5
39
2
10
47.351348
20
576.944484
11
46.457257
21
574.409619
0
LINE
8
boundary
62
5
39
2
10
46.457257
20
574.409619
11
45.777182
21
572.314427
0
LINE
8
boundary
62
5
39
2
10
45.777182
20
572.314427
11
45.586452
21
571.733790
0
LINE
8
boundary
62
5
39
2
10
45.586452
20
571.733790
11
45.376812
21
571.045033
0
LINE
8
boundary
62
5
39
2
10
45.376812
20
571.045033
11
44.726055
21
568.839267
0
LINE
8
boundary
62
5
39
2
10
44.726055
20
568.839267
11
44.520491
21
568.093506
0
LINE
8
boundary
62
5
39
2
10
44.520491
20
568.093506
11
53.763704
21
567.943506
0
LINE
8
boundary
62
5
39
2
10
53.763704
20
567.943506
11
53.763704
21
565.197506
0
LINE
8
boundary
62
5
39
2
10
53.763704
20
565.197506
11
43.730698
21
565.197506
0
LINE
8
boundary
62
5
39
2
10
43.730698
20
565.197506
11
43.036751
21
562.463666
0
LINE
8
boundary
62
5
39
2
10
43.036751
20
562.463666
11
42.436531
21
559.968040
0
LINE
8
boundary
62
5
39
2
10
42.436531
20
559.968040
11
42.200651
21
558.959765
0
LINE
8
boundary
62
5
39
2
10
42.200651
20
558.959765
11
41.634728
21
556.427358
0
LINE
8
boundary
62
5
39
2
10
41.634728
20
556.427358
11
41.363388
21
555.218692
0
LINE
8
boundary
62
5
39
2
10
41.363388
20
555.218692
11
40.518160
21
551.213468
0
LINE
8
boundary
62
5
39
2
10
40.518160
20
551.213468
11
40.210605
21
549.702706
0
LINE
8
boundary
62
5
39
2
10
40.210605
20
549.702706
11
40.124002
21
549.066752
0
LINE
8
boundary
62
5
39
2
10
40.124002
20
549.066752
11
49.770582
21
549.066752
0
LINE
8
boundary
62
5
39
2
10
49.770582
20
549.066752
11
49.770582
21
546.320753
0
LINE
8
boundary
62
5
39
2
10
49.770582
20
546.320753
11
39.539458
21
546.320753
0
LINE
8
boundary
62
5
39
2
10
39.539458
20
546.320753
11
39.247176
21
544.816537
0
LINE
8
boundary
62
5
39
2
10
39.247176
20
544.816537
11
38.791286
21
542.429901
0
LINE
8
boundary
62
5
39
2
10
38.791286
20
542.429901
11
38.348836
21
540.068612
0
LINE
8
boundary
62
5
39
2
10
38.348836
20
540.068612
11
37.897178
21
537.626118
0
LINE
8
boundary
62
5
39
2
10
37.897178
20
537.626118
11
37.498808
21
535.443068
0
LINE
8
boundary
62
5
39
2
10
37.498808
20
535.443068
11
36.975800
21
532.550228
0
LINE
8
boundary
62
5
39
2
10
36.975800
20
532.550228
11
36.684527
21
530.926459
0
LINE
8
boundary
62
5
39
2
10
36.684527
20
530.926459
11
36.579889
21
530.339999
0
LINE
8
boundary
62
5
39
2
10
36.579889
20
530.339999
11
46.139661
21
530.189998
0
LINE
8
boundary
62
5
39
2
10
46.139661
20
530.189998
11
46.139661
21
527.443999
0
LINE
8
boundary
62
5
39
2
10
46.139661
20
527.443999
11
36.063177
21
527.443999
0
LINE
8
boundary
62
5
39
2
10
36.063177
20
527.443999
11
35.896515
21
526.507681
0
LINE
8
boundary
62
5
39
2
10
35.896515
20
526.507681
11
35.437024
21
523.920525
0
LINE
8
boundary
62
5
39
2
10
35.437024
20
523.920525
11
35.127342
21
522.178489
0
LINE
8
boundary
62
5
39
2
10
35.127342
20
522.178489
11
34.369183
21
517.932606
0
LINE
8
boundary
62
5
39
2
10
34.369183
20
517.932606
11
33.727134
21
514.352224
0
LINE
8
boundary
62
5
39
2
10
33.727134
20
514.352224
11
33.620937
21
513.760814
0
LINE
8
boundary
62
5
39
2
10
33.620937
20
513.760814
11
33.510549
21
513.150234
0
LINE
8
boundary
62
5
39
2
10
33.510549
20
513.150234
11
33.201817
21
511.463243
0
LINE
8
boundary
62
5
39
2
10
33.201817
20
511.463243
11
42.801151
21
511.313245
0
LINE
8
boundary
62
5
39
2
10
42.801151
20
511.313245
11
42.801151
21
508.567245
0
LINE
8
boundary
62
5
39
2
10
42.801151
20
508.567245
11
32.669715
21
508.567245
0
LINE
8
boundary
62
5
39
2
10
32.669715
20
508.567245
11
32.399111
21
507.104021
0
LINE
8
boundary
62
5
39
2
10
32.399111
20
507.104021
11
32.200719
21
506.030803
0
LINE
8
boundary
62
5
39
2
10
32.200719
20
506.030803
11
31.935538
21
504.611681
0
LINE
8
boundary
62
5
39
2
10
31.935538
20
504.611681
11
31.524209
21
502.451847
0
LINE
8
boundary
62
5
39
2
10
31.524209
20
502.451847
11
31.228181
21
500.916658
0
LINE
8
boundary
62
5
39
2
10
31.228181
20
500.916658
11
30.844345
21
498.921901
0
LINE
8
boundary
62
5
39
2
10
30.844345
20
498.921901
11
30.305697
21
496.158079
0
LINE
8
boundary
62
5
39
2
10
30.305697
20
496.158079
11
30.162021
21
495.438981
0
LINE
8
boundary
62
5
39
2
10
30.162021
20
495.438981
11
29.708504
21
493.186385
0
LINE
8
boundary
62
5
39
2
10
29.708504
20
493.186385
11
29.586043
21
492.586491
0
LINE
8
boundary
62
5
39
2
10
29.586043
20
492.586491
11
39.616876
21
492.436491
0
LINE
8
boundary
62
5
39
2
10
39.616876
20
492.436491
11
39.616876
21
489.690491
0
LINE
8
boundary
62
5
39
2
10
39.616876
20
489.690491
11
28.994858
21
489.690491
0
LINE
8
boundary
62
5
39
2
10
28.994858
20
489.690491
11
28.770086
21
488.588069
0
LINE
8
boundary
62
5
39
2
10
28.770086
20
488.588069
11
28.567149
21
487.607955
0
LINE
8
boundary
62
5
39
2
10
28.567149
20
487.607955
11
27.756635
21
483.792745
0
LINE
8
boundary
62
5
39
2
10
27.756635
20
483.792745
11
27.436159
21
482.306212
0
LINE
8
boundary
62
5
39
2
10
27.436159
20
482.306212
11
26.719196
21
478.997458
0
LINE
8
boundary
62
5
39
2
10
26.719196
20
478.997458
11
26.096697
21
476.194585
0
LINE
8
boundary
62
5
39
2
10
26.096697
20
476.194585
11
25.877239
21
475.222003
0
LINE
8
boundary
62
5
39
2
10
25.877239
20
475.222003
11
25.539266
21
473.709737
0
LINE
8
boundary
62
5
39
2
10
25.539266
20
473.709737
11
36.494817
21
473.559737
0
LINE
8
boundary
62
5
39
2
10
36.494817
20
473.559737
11
36.494817
21
470.813737
0
LINE
8
boundary
62
5
39
2
10
36.494817
20
470.813737
11
24.885215
21
470.813737
0
LINE
8
boundary
62
5
39
2
10
24.885215
20
470.813737
11
24.429359
21
468.809010
0
LINE
8
boundary
62
5
39
2
10
24.429359
20
468.809010
11
24.277282
21
468.148731
0
LINE
8
boundary
62
5
39
2
10
24.277282
20
468.148731
11
23.642365
21
465.392590
0
LINE
8
boundary
62
5
39
2
10
23.642365
20
465.392590
11
23.382732
21
464.279720
0
LINE
8
boundary
62
5
39
2
10
23.382732
20
464.279720
11
22.999218
21
462.607593
0
LINE
8
boundary
62
5
39
2
10
22.999218
20
462.607593
11
22.544053
21
460.651647
0
LINE
8
boundary
62
5
39
2
10
22.544053
20
460.651647
11
22.347322
21
459.789014
0
LINE
8
boundary
62
5
39
2
10
22.347322
20
459.789014
11
21.709331
21
457.033685
0
LINE
8
boundary
62
5
39
2
10
21.709331
20
457.033685
11
21.586159
21
456.496024
0
LINE
8
boundary
62
5
39
2
10
21.586159
20
456.496024
11
21.201652
21
454.832983
0
LINE
8
boundary
62
5
39
2
10
21.201652
20
454.832983
11
33.421331
21
454.682983
0
LINE
8
boundary
62
5
39
2
10
33.421331
20
454.682983
11
33.421331
21
451.936984
0
LINE
8
boundary
62
5
39
2
10
33.421331
20
451.936984
11
20.534376
21
451.936983
0
LINE
8
boundary
62
5
39
2
10
20.534376
20
451.936983
11
20.316627
21
450.983830
0
LINE
8
boundary
62
5
39
2
10
20.316627
20
450.983830
11
20.037860
21
449.779852
0
LINE
8
boundary
62
5
39
2
10
20.037860
20
449.779852
11
19.691754
21
448.244763
0
LINE
8
boundary
62
5
39
2
10
19.691754
20
448.244763
11
19.379823
21
446.879768
0
LINE
8
boundary
62
5
39
2
10
19.379823
20
446.879768
11
19.109923
21
445.665639
0
LINE
8
boundary
62
5
39
2
10
19.109923
20
445.665639
11
18.729702
21
443.978853
0
LINE
8
boundary
62
5
39
2
10
18.729702
20
443.978853
11
18.523435
21
443.035605
0
LINE
8
boundary
62
5
39
2
10
18.523435
20
443.035605
11
18.088633
21
441.075613
0
LINE
8
boundary
62
5
39
2
10
18.088633
20
441.075613
11
17.932287
21
440.347029
0
LINE
8
boundary
62
5
39
2
10
17.932287
20
440.347029
11
17.457802
21
438.168504
0
LINE
8
boundary
62
5
39
2
10
17.457802
20
438.168504
11
17.336512
21
437.591161
0
LINE
8
boundary
62
5
39
2
10
17.336512
20
437.591161
11
16.987736
21
435.956230
0
LINE
8
boundary
62
5
39
2
10
16.987736
20
435.956230
11
30.545648
21
435.806229
0
LINE
8
boundary
62
5
39
2
10
30.545648
20
435.806229
11
30.545648
21
433.060229
0
LINE
8
boundary
62
5
39
2
10
30.545648
20
433.060229
11
16.381714
21
433.060229
0
LINE
8
boundary
62
5
39
2
10
16.381714
20
433.060229
11
16.232207
21
432.343876
0
LINE
8
boundary
62
5
39
2
10
16.232207
20
432.343876
11
15.640201
21
429.433775
0
LINE
8
boundary
62
5
39
2
10
15.640201
20
429.433775
11
15.533515
21
428.889086
0
LINE
8
boundary
62
5
39
2
10
15.533515
20
428.889086
11
15.063934
21
426.531126
0
LINE
8
boundary
62
5
39
2
10
15.063934
20
426.531126
11
14.935653
21
425.859244
0
LINE
8
boundary
62
5
39
2
10
14.935653
20
425.859244
11
14.504805
21
423.640843
0
LINE
8
boundary
62
5
39
2
10
14.504805
20
423.640843
11
14.344538
21
422.778624
0
LINE
8
boundary
62
5
39
2
10
14.344538
20
422.778624
11
13.964240
21
420.768282
0
LINE
8
boundary
62
5
39
2
10
13.964240
20
420.768282
11
13.515742
21
418.252694
0
LINE
8
boundary
62
5
39
2
10
13.515742
20
418.252694
11
13.303125
21
417.079475
0
LINE
8
boundary
62
5
39
2
10
13.303125
20
417.079475
11
27.966193
21
416.929476
0
LINE
8
boundary
62
5
39
2
10
27.966193
20
416.929476
11
27.966193
21
414.183476
0
LINE
8
boundary
62
5
39
2
10
27.966193
20
414.183476
11
12.790890
21
414.183476
0
LINE
8
boundary
62
5
39
2
10
12.790890
20
414.183476
11
12.267993
21
411.061436
0
LINE
8
boundary
62
5
39
2
10
12.267993
20
411.061436
11
12.015344
21
409.578608
0
LINE
8
boundary
62
5
39
2
10
12.015344
20
409.578608
11
11.380060
21
405.508467
0
LINE
8
boundary
62
5
39
2
10
11.380060
20
405.508467
11
11.185687
21
404.255593
0
LINE
8
boundary
62
5
39
2
10
11.185687
20
404.255593
11
10.900393
21
402.315285
0
LINE
8
boundary
62
5
39
2
10
10.900393
20
402.315285
11
10.629901
21
400.414715
0
LINE
8
boundary
62
5
39
2
10
10.629901
20
400.414715
11
10.553256
21
399.847977
0
LINE
8
boundary
62
5
39
2
10
10.553256
20
399.847977
11
10.374069
21
398.556470
0
LINE
8
boundary
62
5
39
2
10
10.374069
20
398.556470
11
25.598845
21
398.052722
0
LINE
8
boundary
62
5
39
2
10
25.598845
20
398.052722
11
25.598845
21
395.306722
0
LINE
8
boundary
62
5
39
2
10
25.598845
20
395.306722
11
9.948882
21
395.306722
0
LINE
8
boundary
62
5
39
2
10
9.948882
20
395.306722
11
9.772619
21
393.888753
0
LINE
8
boundary
62
5
39
2
10
9.772619
20
393.888753
11
9.693868
21
393.262244
0
LINE
8
boundary
62
5
39
2
10
9.693868
20
393.262244
11
9.549409
21
392.038099
0
LINE
8
boundary
62
5
39
2
10
9.549409
20
392.038099
11
9.344737
21
390.261664
0
LINE
8
boundary
62
5
39
2
10
9.344737
20
390.261664
11
9.158470
21
388.562886
0
LINE
8
boundary
62
5
39
2
10
9.158470
20
388.562886
11
9.015307
21
387.189802
0
LINE
8
boundary
62
5
39
2
10
9.015307
20
387.189802
11
8.849557
21
385.524794
0
LINE
8
boundary
62
5
39
2
10
8.849557
20
385.524794
11
8.718066
21
384.135663
0
LINE
8
boundary
62
5
39
2
10
8.718066
20
384.135663
11
8.594865
21
382.782457
0
LINE
8
boundary
62
5
39
2
10
8.594865
20
382.782457
11
8.477593
21
381.453504
0
LINE
8
boundary
62
5
39
2
10
8.477593
20
381.453504
11
8.363732
21
380.135792
0
LINE
8
boundary
62
5
39
2
10
8.363732
20
380.135792
11
8.294880
21
379.325968
0
LINE
8
boundary
62
5
39
2
10
8.294880
20
379.325968
11
23.333811
21
379.175968
0
LINE
8
boundary
62
5
39
2
10
23.333811
20
379.175968
11
23.333811
21
376.429968
0
LINE
8
boundary
62
5
39
2
10
23.333811
20
376.429968
11
8.045800
21
376.429968
0
LINE
8
boundary
62
5
39
2
10
8.045800
20
376.429968
11
7.983828
21
375.704241
0
LINE
8
boundary
62
5
39
2
10
7.983828
20
375.704241
11
7.935828
21
375.129496
0
LINE
8
boundary
62
5
39
2
10
7.935828
20
375.129496
11
7.890367
21
374.593947
0
LINE
8
boundary
62
5
39
2
10
7.890367
20
374.593947
11
7.835138
21
373.920833
0
LINE
8
boundary
62
5
39
2
10
7.835138
20
373.920833
11
7.766755
21
373.073895
0
LINE
8
boundary
62
5
39
2
10
7.766755
20
373.073895
11
7.686889
21
372.051940
0
LINE
8
boundary
62
5
39
2
10
7.686889
20
372.051940
11
7.643815
21
371.496168
0
LINE
8
boundary
62
5
39
2
10
7.643815
20
371.496168
11
7.568340
21
370.462554
0
LINE
8
boundary
62
5
39
2
10
7.568340
20
370.462554
11
7.523481
21
369.861842
0
LINE
8
boundary
62
5
39
2
10
7.523481
20
369.861842
11
7.472767
21
369.133552
0
LINE
8
boundary
62
5
39
2
10
7.472767
20
369.133552
11
7.406887
21
368.180965
0
LINE
8
boundary
62
5
39
2
10
7.406887
20
368.180965
11
7.338602
21
367.135830
0
LINE
8
boundary
62
5
39
2
10
7.338602
20
367.135830
11
7.294977
21
366.469965
0
LINE
8
boundary
62
5
39
2
10
7.294977
20
366.469965
11
7.246059
21
365.638379
0
LINE
8
boundary
62
5
39
2
10
7.246059
20
365.638379
11
7.201146
21
364.895030
0
LINE
8
boundary
62
5
39
2
10
7.201146
20
364.895030
11
7.156005
21
364.149794
0
LINE
8
boundary
62
5
39
2
10
7.156005
20
364.149794
11
7.108476
21
363.245714
0
LINE
8
boundary
62
5
39
2
10
7.108476
20
363.245714
11
7.069859
21
362.533480
0
LINE
8
boundary
62
5
39
2
10
7.069859
20
362.533480
11
7.030425
21
361.809803
0
LINE
8
boundary
62
5
39
2
10
7.030425
20
361.809803
11
6.987601
21
360.875640
0
LINE
8
boundary
62
5
39
2
10
6.987601
20
360.875640
11
6.977629
21
360.299214
0
LINE
8
boundary
62
5
39
2
10
6.977629
20
360.299214
11
20.635783
21
360.299214
0
LINE
8
boundary
62
5
39
2
10
20.635783
20
360.299214
11
20.635783
21
357.553215
0
LINE
8
boundary
62
5
39
2
10
20.635783
20
357.553215
11
6.848781
21
357.553214
0
LINE
8
boundary
62
5
39
2
10
6.848781
20
357.553214
11
6.813435
21
356.672127
0
LINE
8
boundary
62
5
39
2
10
6.813435
20
356.672127
11
6.776606
21
355.517500
0
LINE
8
boundary
62
5
39
2
10
6.776606
20
355.517500
11
6.753955
21
354.836274
0
LINE
8
boundary
62
5
39
2
10
6.753955
20
354.836274
11
6.732393
21
353.861342
0
LINE
8
boundary
62
5
39
2
10
6.732393
20
353.861342
11
6.716907
21
353.215657
0
LINE
8
boundary
62
5
39
2
10
6.716907
20
353.215657
11
6.701043
21
352.573983
0
LINE
8
boundary
62
5
39
2
10
6.701043
20
352.573983
11
6.688232
21
351.532414
0
LINE
8
boundary
62
5
39
2
10
6.688232
20
351.532414
11
6.679819
21
350.938687
0
LINE
8
boundary
62
5
39
2
10
6.679819
20
350.938687
11
6.671333
21
350.364991
0
LINE
8
boundary
62
5
39
2
10
6.671333
20
350.364991
11
6.671013
21
349.812352
0
LINE
8
boundary
62
5
39
2
10
6.671013
20
349.812352
11
6.670445
21
349.198888
0
LINE
8
boundary
62
5
39
2
10
6.670445
20
349.198888
11
6.668829
21
348.625828
0
LINE
8
boundary
62
5
39
2
10
6.668829
20
348.625828
11
6.678254
21
347.381042
0
LINE
8
boundary
62
5
39
2
10
6.678254
20
347.381042
11
6.693741
21
346.158948
0
LINE
8
boundary
62
5
39
2
10
6.693741
20
346.158948
11
6.729274
21
344.927766
0
LINE
8
boundary
62
5
39
2
10
6.729274
20
344.927766
11
6.750705
21
344.192593
0
LINE
8
boundary
62
5
39
2
10
6.750705
20
344.192593
11
6.813949
21
342.936356
0
LINE
8
boundary
62
5
39
2
10
6.813949
20
342.936356
11
6.843526
21
342.322807
0
LINE
8
boundary
62
5
39
2
10
6.843526
20
342.322807
11
6.898343
21
341.572444
0
LINE
8
boundary
62
5
39
2
10
6.898343
20
341.572444
11
16.697376
21
341.422461
0
LINE
8
boundary
62
5
39
2
10
16.697376
20
341.422461
11
16.697376
21
338.676460
0
LINE
8
boundary
62
5
39
2
10
16.697376
20
338.676460
11
7.212060
21
338.676460
0
LINE
8
boundary
62
5
39
2
10
7.212060
20
338.676460
11
7.368800
21
337.377042
0
LINE
8
boundary
62
5
39
2
10
7.368800
20
337.377042
11
7.507989
21
336.641194
0
LINE
8
boundary
62
5
39
2
10
7.507989
20
336.641194
11
7.606310
21
336.123017
0
LINE
8
boundary
62
5
39
2
10
7.606310
20
336.123017
11
7.846979
21
335.116895
0
LINE
8
boundary
62
5
39
2
10
7.846979
20
335.116895
11
8.124204
21
334.167373
0
LINE
8
boundary
62
5
39
2
10
8.124204
20
334.167373
11
8.329890
21
333.554044
0
LINE
8
boundary
62
5
39
2
10
8.329890
20
333.554044
11
8.761657
21
332.544497
0
LINE
8
boundary
62
5
39
2
10
8.761657
20
332.544497
11
9.208714
21
331.751713
0
LINE
8
boundary
62
5
39
2
10
9.208714
20
331.751713
11
9.661554
21
331.131746
0
LINE
8
boundary
62
5
39
2
10
9.661554
20
331.131746
11
10.160222
21
330.596215
0
LINE
8
boundary
62
5
39
2
10
10.160222
20
330.596215
11
10.704395
21
330.149176
0
LINE
8
boundary
62
5
39
2
10
10.704395
20
330.149176
11
11.293277
21
329.794035
0
LINE
8
boundary
62
5
39
2
10
11.293277
20
329.794035
11
11.925604
21
329.533606
0
LINE
8
boundary
62
5
39
2
10
11.925604
20
329.533606
11
12.474854
21
329.388703
0
LINE
8
boundary
62
5
39
2
10
12.474854
20
329.388703
11
13.250236
21
329.305074
0
LINE
8
boundary
62
5
39
2
10
13.250236
20
329.305074
11
14.060114
21
329.339512
0
LINE
8
boundary
62
5
39
2
10
14.060114
20
329.339512
11
14.846868
21
329.483260
0
LINE
8
boundary
62
5
39
2
10
14.846868
20
329.483260
11
15.660550
21
329.726150
0
LINE
8
annotation
62
1
39
211
10
20.704055
20
338.116212
11
20.704055
21
341.982709
0
LINE
8
annotation
62
1
39
211
10
20.704055
20
341.982709
11
19.844483
21
341.122895
0
LINE
8
annotation
62
1
39
211
10
23.871365
20
338.116181
11
22.154162
21
338.116181
0
LINE
8
annotation
62
1
39
211
10
22.154162
20
338.116181
11
23.740914
21
340.670649
0
LINE
8
annotation
62
1
39
211
10
23.740914
20
340.670649
11
23.740914
21
340.670649
0
LINE
8
annotation
62
1
39
211
10
23.740914
20
340.670649
11
23.742811
21
340.672996
0
LINE
8
annotation
62
1
39
211
10
23.742811
20
340.672996
11
23.744630
21
340.675363
0
LINE
8
annotation
62
1
39
211
10
23.744630
20
340.675363
11
23.746383
21
340.677770
0
LINE
8
annotation
62
1
39
211
10
23.746383
20
340.677770
11
23.748083
21
340.680237
0
LINE
8
annotation
62
1
39
211
10
23.748083
20
340.680237
11
23.749740
21
340.682784
0
LINE
8
annotation
62
1
39
211
10
23.749740
20
340.682784
11
23.751367
21
340.685430
0
LINE
8
annotation
62
1
39
211
10
23.751367
20
340.685430
11
23.752977
21
340.688197
0
LINE
8
annotation
62
1
39
211
10
23.752977
20
340.688197
11
23.754581
21
340.691103
0
LINE
8
annotation
62
1
39
211
10
23.754581
20
340.691103
11
23.756190
21
340.694169
0
LINE
8
annotation
62
1
39
211
10
23.756190
20
340.694169
11
23.756190
21
340.694169
0
LINE
8
annotation
62
1
39
211
10
23.756190
20
340.694169
11
23.821707
21
340.834838
0
LINE
8
annotation
62
1
39
211
10
23.821707
20
340.834838
11
23.859980
21
340.980655
0
LINE
8
annotation
62
1
39
211
10
23.859980
20
340.980655
11
23.871949
21
341.128323
0
LINE
8
annotation
62
1
39
211
10
23.871949
20
341.128323
11
23.858551
21
341.274549
0
LINE
8
annotation
62
1
39
211
10
23.858551
20
341.274549
11
23.820723
21
341.416037
0
LINE
8
annotation
62
1
39
211
10
23.820723
20
341.416037
11
23.759405
21
341.549492
0
LINE
8
annotation
62
1
39
211
10
23.759405
20
341.549492
11
23.675534
21
341.671620
0
LINE
8
annotation
62
1
39
211
10
23.675534
20
341.671620
11
23.570047
21
341.779126
0
LINE
8
annotation
62
1
39
211
10
23.570047
20
341.779126
11
23.443883
21
341.868714
0
LINE
8
annotation
62
1
39
211
10
23.443883
20
341.868714
11
23.443883
21
341.868714
0
LINE
8
annotation
62
1
39
211
10
23.443883
20
341.868714
11
23.302822
21
341.933300
0
LINE
8
annotation
62
1
39
211
10
23.302822
20
341.933300
11
23.156782
21
341.970984
0
LINE
8
annotation
62
1
39
211
10
23.156782
20
341.970984
11
23.009028
21
341.982615
0
LINE
8
annotation
62
1
39
211
10
23.009028
20
341.982615
11
22.862824
21
341.969040
0
LINE
8
annotation
62
1
39
211
10
22.862824
20
341.969040
11
22.721436
21
341.931108
0
LINE
8
annotation
62
1
39
211
10
22.721436
20
341.931108
11
22.588128
21
341.869666
0
LINE
8
annotation
62
1
39
211
10
22.588128
20
341.869666
11
22.466166
21
341.785564
0
LINE
8
annotation
62
1
39
211
10
22.466166
20
341.785564
11
22.358814
21
341.679650
0
LINE
8
annotation
62
1
39
211
10
22.358814
20
341.679650
11
22.269337
21
341.552770
0
LINE
8
annotation
62
1
39
211
10
22.269337
20
341.552770
11
22.156587
21
341.336483
0
LINE
8
annotation
62
1
39
211
10
25.386993
20
356.621706
11
25.386993
21
361.230723
0
LINE
8
annotation
62
1
39
211
10
25.386993
20
361.230723
11
24.362349
21
360.205790
0
LINE
8
annotation
62
1
39
211
10
27.115230
20
356.621850
11
28.138717
21
356.621850
0
LINE
8
annotation
62
1
39
211
10
28.138717
20
356.621850
11
28.138717
21
356.621850
0
LINE
8
annotation
62
1
39
211
10
28.138717
20
356.621850
11
28.322794
21
356.638363
0
LINE
8
annotation
62
1
39
211
10
28.322794
20
356.638363
11
28.496004
21
356.685954
0
LINE
8
annotation
62
1
39
211
10
28.496004
20
356.685954
11
28.655466
21
356.761702
0
LINE
8
annotation
62
1
39
211
10
28.655466
20
356.761702
11
28.798299
21
356.862686
0
LINE
8
annotation
62
1
39
211
10
28.798299
20
356.862686
11
28.921623
21
356.985984
0
LINE
8
annotation
62
1
39
211
10
28.921623
20
356.985984
11
29.022556
21
357.128675
0
LINE
8
annotation
62
1
39
211
10
29.022556
20
357.128675
11
29.098218
21
357.287838
0
LINE
8
annotation
62
1
39
211
10
29.098218
20
357.287838
11
29.145728
21
357.460550
0
LINE
8
annotation
62
1
39
211
10
29.145728
20
357.460550
11
29.162205
21
357.643892
0
LINE
8
annotation
62
1
39
211
10
29.162205
20
357.643892
11
29.162205
21
358.156359
0
LINE
8
annotation
62
1
39
211
10
29.162205
20
358.156359
11
29.162205
21
358.156359
0
LINE
8
annotation
62
1
39
211
10
29.162205
20
358.156359
11
29.145728
21
358.339625
0
LINE
8
annotation
62
1
39
211
10
29.145728
20
358.339625
11
29.098218
21
358.512297
0
LINE
8
annotation
62
1
39
211
10
29.098218
20
358.512297
11
29.022556
21
358.671448
0
LINE
8
annotation
62
1
39
211
10
29.022556
20
358.671448
11
28.921623
21
358.814148
0
LINE
8
annotation
62
1
39
211
10
28.921623
20
358.814148
11
28.798299
21
358.937470
0
LINE
8
annotation
62
1
39
211
10
28.798299
20
358.937470
11
28.655466
21
359.038485
0
LINE
8
annotation
62
1
39
211
10
28.655466
20
359.038485
11
28.496004
21
359.114264
0
LINE
8
annotation
62
1
39
211
10
28.496004
20
359.114264
11
28.322794
21
359.161879
0
LINE
8
annotation
62
1
39
211
10
28.322794
20
359.161879
11
28.138717
21
359.178401
0
LINE
8
annotation
62
1
39
211
10
28.138717
20
359.178401
11
27.626251
21
359.178401
0
LINE
8
annotation
62
1
39
211
10
27.626251
20
359.178401
11
28.138717
21
359.178401
0
LINE
8
annotation
62
1
39
211
10
28.138717
20
359.178401
11
28.138717
21
359.178401
0
LINE
8
annotation
62
1
39
211
10
28.138717
20
359.178401
11
28.322794
21
359.194927
0
LINE
8
annotation
62
1
39
211
10
28.322794
20
359.194927
11
28.496004
21
359.242570
0
LINE
8
annotation
62
1
39
211
10
28.496004
20
359.242570
11
28.655466
21
359.318424
0
LINE
8
annotation
62
1
39
211
10
28.655466
20
359.318424
11
28.798299
21
359.419586
0
LINE
8
annotation
62
1
39
211
10
28.798299
20
359.419586
11
28.921623
21
359.543149
0
LINE
8
annotation
62
1
39
211
10
28.921623
20
359.543149
11
29.022556
21
359.686211
0
LINE
8
annotation
62
1
39
211
10
29.022556
20
359.686211
11
29.098218
21
359.845865
0
LINE
8
annotation
62
1
39
211
10
29.098218
20
359.845865
11
29.145728
21
360.019207
0
LINE
8
annotation
62
1
39
211
10
29.145728
20
360.019207
11
29.162205
21
360.203334
0
LINE
8
annotation
62
1
39
211
10
29.162205
20
360.203334
11
29.162205
21
360.203334
0
LINE
8
annotation
62
1
39
211
10
29.162205
20
360.203334
11
29.145728
21
360.386599
0
LINE
8
annotation
62
1
39
211
10
29.145728
20
360.386599
11
29.098218
21
360.559272
0
LINE
8
annotation
62
1
39
211
10
29.098218
20
360.559272
11
29.022556
21
360.718423
0
LINE
8
annotation
62
1
39
211
10
29.022556
20
360.718423
11
28.921623
21
360.861123
0
LINE
8
annotation
62
1
39
211
10
28.921623
20
360.861123
11
28.798299
21
360.984445
0
LINE
8
annotation
62
1
39
211
10
28.798299
20
360.984445
11
28.655466
21
361.085460
0
LINE
8
annotation
62
1
39
211
10
28.655466
20
361.085460
11
28.496004
21
361.161239
0
LINE
8
annotation
62
1
39
211
10
28.496004
20
361.161239
11
28.322794
21
361.208853
0
LINE
8
annotation
62
1
39
211
10
28.322794
20
361.208853
11
28.138717
21
361.225376
0
LINE
8
annotation
62
1
39
211
10
28.138717
20
361.225376
11
27.115230
21
361.225376
0
LINE
8
annotation
62
1
39
211
10
27.986271
20
375.720650
11
27.986271
21
379.885286
0
LINE
8
annotation
62
1
39
211
10
27.986271
20
379.885286
11
27.060419
21
378.959173
0
LINE
8
annotation
62
1
39
211
10
31.860288
20
376.646502
11
29.547879
21
376.646502
0
LINE
8
annotation
62
1
39
211
10
29.547879
20
376.646502
11
30.471380
21
379.885286
0
LINE
8
annotation
62
1
39
211
10
31.167140
20
375.720650
11
31.167140
21
377.570265
0
LINE
8
annotation
62
1
39
211
10
30.350055
20
394.375213
11
30.350055
21
398.984231
0
LINE
8
annotation
62
1
39
211
10
30.350055
20
398.984231
11
29.325412
21
397.959298
0
LINE
8
annotation
62
1
39
211
10
32.078292
20
394.375213
11
33.101780
21
394.375213
0
LINE
8
annotation
62
1
39
211
10
33.101780
20
394.375213
11
33.101780
21
394.375213
0
LINE
8
annotation
62
1
39
211
10
33.101780
20
394.375213
11
33.285476
21
394.391730
0
LINE
8
annotation
62
1
39
211
10
33.285476
20
394.391730
11
33.458483
21
394.439346
0
LINE
8
annotation
62
1
39
211
10
33.458483
20
394.439346
11
33.617886
21
394.515162
0
LINE
8
annotation
62
1
39
211
10
33.617886
20
394.515162
11
33.760767
21
394.616277
0
LINE
8
annotation
62
1
39
211
10
33.760767
20
394.616277
11
33.884209
21
394.739793
0
LINE
8
annotation
62
1
39
211
10
33.884209
20
394.739793
11
33.985297
21
394.882809
0
LINE
8
annotation
62
1
39
211
10
33.985297
20
394.882809
11
34.061114
21
395.042425
0
LINE
8
annotation
62
1
39
211
10
34.061114
20
395.042425
11
34.108743
21
395.215741
0
LINE
8
annotation
62
1
39
211
10
34.108743
20
395.215741
11
34.125267
21
395.399857
0
LINE
8
annotation
62
1
39
211
10
34.125267
20
395.399857
11
34.125267
21
395.909722
0
LINE
8
annotation
62
1
39
211
10
34.125267
20
395.909722
11
34.125267
21
395.909722
0
LINE
8
annotation
62
1
39
211
10
34.125267
20
395.909722
11
34.108752
21
396.093749
0
LINE
8
annotation
62
1
39
211
10
34.108752
20
396.093749
11
34.061147
21
396.266826
0
LINE
8
annotation
62
1
39
211
10
34.061147
20
396.266826
11
33.985361
21
396.426096
0
LINE
8
annotation
62
1
39
211
10
33.985361
20
396.426096
11
33.884304
21
396.568701
0
LINE
8
annotation
62
1
39
211
10
33.884304
20
396.568701
11
33.760885
21
396.691785
0
LINE
8
annotation
62
1
39
211
10
33.760885
20
396.691785
11
33.618014
21
396.792490
0
LINE
8
annotation
62
1
39
211
10
33.618014
20
396.792490
11
33.458600
21
396.867960
0
LINE
8
annotation
62
1
39
211
10
33.458600
20
396.867960
11
33.285552
21
396.915337
0
LINE
8
annotation
62
1
39
211
10
33.285552
20
396.915337
11
33.101780
21
396.931764
0
LINE
8
annotation
62
1
39
211
10
33.101780
20
396.931764
11
32.078292
21
396.931764
0
LINE
8
annotation
62
1
39
211
10
32.078292
20
396.931764
11
32.078292
21
398.984231
0
LINE
8
annotation
62
1
39
211
10
32.078292
20
398.984231
11
34.125267
21
398.984231
0
LINE
8
annotation
62
1
39
211
10
32.717403
20
413.251967
11
32.717403
21
417.860984
0
LINE
8
annotation
62
1
39
211
10
32.717403
20
417.860984
11
31.692760
21
416.836052
0
LINE
8
annotation
62
1
39
211
10
35.983039
20
417.860984
11
35.983039
21
417.860984
0
LINE
8
annotation
62
1
39
211
10
35.983039
20
417.860984
11
35.689836
21
417.751051
0
LINE
8
annotation
62
1
39
211
10
35.689836
20
417.751051
11
35.420783
21
417.602928
0
LINE
8
annotation
62
1
39
211
10
35.420783
20
417.602928
11
35.178643
21
417.420328
0
LINE
8
annotation
62
1
39
211
10
35.178643
20
417.420328
11
34.966178
21
417.206962
0
LINE
8
annotation
62
1
39
211
10
34.966178
20
417.206962
11
34.786150
21
416.966539
0
LINE
8
annotation
62
1
39
211
10
34.786150
20
416.966539
11
34.641320
21
416.702773
0
LINE
8
annotation
62
1
39
211
10
34.641320
20
416.702773
11
34.534450
21
416.419373
0
LINE
8
annotation
62
1
39
211
10
34.534450
20
416.419373
11
34.468303
21
416.120051
0
LINE
8
annotation
62
1
39
211
10
34.468303
20
416.120051
11
34.445640
21
415.808518
0
LINE
8
annotation
62
1
39
211
10
34.445640
20
415.808518
11
34.445640
21
414.276611
0
LINE
8
annotation
62
1
39
211
10
34.445640
20
414.276611
11
34.445640
21
414.276611
0
LINE
8
annotation
62
1
39
211
10
34.445640
20
414.276611
11
34.462165
21
414.092494
0
LINE
8
annotation
62
1
39
211
10
34.462165
20
414.092494
11
34.509793
21
413.919178
0
LINE
8
annotation
62
1
39
211
10
34.509793
20
413.919178
11
34.585610
21
413.759563
0
LINE
8
annotation
62
1
39
211
10
34.585610
20
413.759563
11
34.686698
21
413.616547
0
LINE
8
annotation
62
1
39
211
10
34.686698
20
413.616547
11
34.810141
21
413.493031
0
LINE
8
annotation
62
1
39
211
10
34.810141
20
413.493031
11
34.953021
21
413.391916
0
LINE
8
annotation
62
1
39
211
10
34.953021
20
413.391916
11
35.112424
21
413.316100
0
LINE
8
annotation
62
1
39
211
10
35.112424
20
413.316100
11
35.285432
21
413.268484
0
LINE
8
annotation
62
1
39
211
10
35.285432
20
413.268484
11
35.469128
21
413.251967
0
LINE
8
annotation
62
1
39
211
10
35.469128
20
413.251967
11
35.469128
21
413.251967
0
LINE
8
annotation
62
1
39
211
10
35.469128
20
413.251967
11
35.653204
21
413.268484
0
LINE
8
annotation
62
1
39
211
10
35.653204
20
413.268484
11
35.826414
21
413.316100
0
LINE
8
annotation
62
1
39
211
10
35.826414
20
413.316100
11
35.985876
21
413.391916
0
LINE
8
annotation
62
1
39
211
10
35.985876
20
413.391916
11
36.128709
21
413.493031
0
LINE
8
annotation
62
1
39
211
10
36.128709
20
413.493031
11
36.252033
21
413.616547
0
LINE
8
annotation
62
1
39
211
10
36.252033
20
413.616547
11
36.352966
21
413.759563
0
LINE
8
annotation
62
1
39
211
10
36.352966
20
413.759563
11
36.428628
21
413.919178
0
LINE
8
annotation
62
1
39
211
10
36.428628
20
413.919178
11
36.476138
21
414.092494
0
LINE
8
annotation
62
1
39
211
10
36.476138
20
414.092494
11
36.492615
21
414.276611
0
LINE
8
annotation
62
1
39
211
10
36.492615
20
414.276611
11
36.492615
21
414.786476
0
LINE
8
annotation
62
1
39
211
10
36.492615
20
414.786476
11
36.492615
21
414.786476
0
LINE
8
annotation
62
1
39
211
10
36.492615
20
414.786476
11
36.476138
21
414.970503
0
LINE
8
annotation
62
1
39
211
10
36.476138
20
414.970503
11
36.428628
21
415.143580
0
LINE
8
annotation
62
1
39
211
10
36.428628
20
415.143580
11
36.352966
21
415.302849
0
LINE
8
annotation
62
1
39
211
10
36.352966
20
415.302849
11
36.252033
21
415.445455
0
LINE
8
annotation
62
1
39
211
10
36.252033
20
415.445455
11
36.128709
21
415.568538
0
LINE
8
annotation
62
1
39
211
10
36.128709
20
415.568538
11
35.985876
21
415.669244
0
LINE
8
annotation
62
1
39
211
10
35.985876
20
415.669244
11
35.826414
21
415.744714
0
LINE
8
annotation
62
1
39
211
10
35.826414
20
415.744714
11
35.653204
21
415.792091
0
LINE
8
annotation
62
1
39
211
10
35.653204
20
415.792091
11
35.469128
21
415.808518
0
LINE
8
annotation
62
1
39
211
10
35.469128
20
415.808518
11
34.445640
21
415.808518
0
LINE
8
annotation
62
1
39
211
10
34.317451
20
412.675840
11
36.621960
21
412.675840
0
LINE
8
annotation
62
1
39
211
10
35.296303
20
432.129969
11
35.296303
21
436.736490
0
LINE
8
annotation
62
1
39
211
10
35.296303
20
436.736490
11
34.272215
21
435.712113
0
LINE
8
annotation
62
1
39
211
10
38.047837
20
432.129969
11
39.071926
21
436.736490
0
LINE
8
annotation
62
1
39
211
10
39.071926
20
436.736490
11
37.023460
21
436.736490
0
LINE
8
annotation
62
1
39
211
10
39.071926
20
434.685135
11
38.047837
21
434.685135
0
LINE
8
annotation
62
1
39
211
10
38.172541
20
451.005475
11
38.172541
21
455.614492
0
LINE
8
annotation
62
1
39
211
10
38.172541
20
455.614492
11
37.147898
21
454.589559
0
LINE
8
annotation
62
1
39
211
10
39.900778
20
452.027372
11
39.900778
21
452.027372
0
LINE
8
annotation
62
1
39
211
10
39.900778
20
452.027372
11
39.917303
21
451.843345
0
LINE
8
annotation
62
1
39
211
10
39.917303
20
451.843345
11
39.964931
21
451.670268
0
LINE
8
annotation
62
1
39
211
10
39.964931
20
451.670268
11
40.040748
21
451.510999
0
LINE
8
annotation
62
1
39
211
10
40.040748
20
451.510999
11
40.141836
21
451.368393
0
LINE
8
annotation
62
1
39
211
10
40.141836
20
451.368393
11
40.265279
21
451.245309
0
LINE
8
annotation
62
1
39
211
10
40.265279
20
451.245309
11
40.408160
21
451.144604
0
LINE
8
annotation
62
1
39
211
10
40.408160
20
451.144604
11
40.567562
21
451.069134
0
LINE
8
annotation
62
1
39
211
10
40.567562
20
451.069134
11
40.740570
21
451.021757
0
LINE
8
annotation
62
1
39
211
10
40.740570
20
451.021757
11
40.924266
21
451.005330
0
LINE
8
annotation
62
1
39
211
10
40.924266
20
451.005330
11
40.924266
21
451.005330
0
LINE
8
annotation
62
1
39
211
10
40.924266
20
451.005330
11
41.107962
21
451.021757
0
LINE
8
annotation
62
1
39
211
10
41.107962
20
451.021757
11
41.280969
21
451.069134
0
LINE
8
annotation
62
1
39
211
10
41.280969
20
451.069134
11
41.440372
21
451.144604
0
LINE
8
annotation
62
1
39
211
10
41.440372
20
451.144604
11
41.583253
21
451.245309
0
LINE
8
annotation
62
1
39
211
10
41.583253
20
451.245309
11
41.706695
21
451.368393
0
LINE
8
annotation
62
1
39
211
10
41.706695
20
451.368393
11
41.807783
21
451.510999
0
LINE
8
annotation
62
1
39
211
10
41.807783
20
451.510999
11
41.883600
21
451.670268
0
LINE
8
annotation
62
1
39
211
10
41.883600
20
451.670268
11
41.931229
21
451.843345
0
LINE
8
annotation
62
1
39
211
10
41.931229
20
451.843345
11
41.947753
21
452.027372
0
LINE
8
annotation
62
1
39
211
10
41.947753
20
452.027372
11
41.947753
21
452.537237
0
LINE
8
annotation
62
1
39
211
10
41.947753
20
452.537237
11
41.947753
21
452.537237
0
LINE
8
annotation
62
1
39
211
10
41.947753
20
452.537237
11
41.931238
21
452.721354
0
LINE
8
annotation
62
1
39
211
10
41.931238
20
452.721354
11
41.883633
21
452.894670
0
LINE
8
annotation
62
1
39
211
10
41.883633
20
452.894670
11
41.807847
21
453.054285
0
LINE
8
annotation
62
1
39
211
10
41.807847
20
453.054285
11
41.706790
21
453.197301
0
LINE
8
annotation
62
1
39
211
10
41.706790
20
453.197301
11
41.583371
21
453.320817
0
LINE
8
annotation
62
1
39
211
10
41.583371
20
453.320817
11
41.440500
21
453.421932
0
LINE
8
annotation
62
1
39
211
10
41.440500
20
453.421932
11
41.281086
21
453.497748
0
LINE
8
annotation
62
1
39
211
10
41.281086
20
453.497748
11
41.108038
21
453.545364
0
LINE
8
annotation
62
1
39
211
10
41.108038
20
453.545364
11
40.924266
21
453.561881
0
LINE
8
annotation
62
1
39
211
10
40.924266
20
453.561881
11
40.924266
21
453.561881
0
LINE
8
annotation
62
1
39
211
10
40.924266
20
453.561881
11
40.740493
21
453.545355
0
LINE
8
annotation
62
1
39
211
10
40.740493
20
453.545355
11
40.567445
21
453.497715
0
LINE
8
annotation
62
1
39
211
10
40.567445
20
453.497715
11
40.408031
21
453.421868
0
LINE
8
annotation
62
1
39
211
10
40.408031
20
453.421868
11
40.265160
21
453.320722
0
LINE
8
annotation
62
1
39
211
10
40.265160
20
453.320722
11
40.141741
21
453.197182
0
LINE
8
annotation
62
1
39
211
10
40.141741
20
453.197182
11
40.040684
21
453.054157
0
LINE
8
annotation
62
1
39
211
10
40.040684
20
453.054157
11
39.964898
21
452.894553
0
LINE
8
annotation
62
1
39
211
10
39.964898
20
452.894553
11
39.917293
21
452.721278
0
LINE
8
annotation
62
1
39
211
10
39.917293
20
452.721278
11
39.900778
21
452.537237
0
LINE
8
annotation
62
1
39
211
10
39.900778
20
452.537237
11
39.900778
21
452.027372
0
LINE
8
annotation
62
1
39
211
10
41.947753
20
454.586814
11
41.947753
21
454.586814
0
LINE
8
annotation
62
1
39
211
10
41.947753
20
454.586814
11
41.931238
21
454.770079
0
LINE
8
annotation
62
1
39
211
10
41.931238
20
454.770079
11
41.883633
21
454.942752
0
LINE
8
annotation
62
1
39
211
10
41.883633
20
454.942752
11
41.807847
21
455.101903
0
LINE
8
annotation
62
1
39
211
10
41.807847
20
455.101903
11
41.706790
21
455.244603
0
LINE
8
annotation
62
1
39
211
10
41.706790
20
455.244603
11
41.583371
21
455.367925
0
LINE
8
annotation
62
1
39
211
10
41.583371
20
455.367925
11
41.440500
21
455.468939
0
LINE
8
annotation
62
1
39
211
10
41.440500
20
455.468939
11
41.281086
21
455.544718
0
LINE
8
annotation
62
1
39
211
10
41.281086
20
455.544718
11
41.108038
21
455.592333
0
LINE
8
annotation
62
1
39
211
10
41.108038
20
455.592333
11
40.924266
21
455.608856
0
LINE
8
annotation
62
1
39
211
10
40.924266
20
455.608856
11
40.924266
21
455.608856
0
LINE
8
annotation
62
1
39
211
10
40.924266
20
455.608856
11
40.740493
21
455.592333
0
LINE
8
annotation
62
1
39
211
10
40.740493
20
455.592333
11
40.567445
21
455.544718
0
LINE
8
annotation
62
1
39
211
10
40.567445
20
455.544718
11
40.408031
21
455.468939
0
LINE
8
annotation
62
1
39
211
10
40.408031
20
455.468939
11
40.265160
21
455.367925
0
LINE
8
annotation
62
1
39
211
10
40.265160
20
455.367925
11
40.141741
21
455.244603
0
LINE
8
annotation
62
1
39
211
10
40.141741
20
455.244603
11
40.040684
21
455.101903
0
LINE
8
annotation
62
1
39
211
10
40.040684
20
455.101903
11
39.964898
21
454.942752
0
LINE
8
annotation
62
1
39
211
10
39.964898
20
454.942752
11
39.917293
21
454.770079
0
LINE
8
annotation
62
1
39
211
10
39.917293
20
454.770079
11
39.900778
21
454.586814
0
LINE
8
annotation
62
1
39
211
10
39.900778
20
454.586814
11
39.900778
21
454.586814
0
LINE
8
annotation
62
1
39
211
10
39.900778
20
454.586814
11
39.917303
21
454.402687
0
LINE
8
annotation
62
1
39
211
10
39.917303
20
454.402687
11
39.964931
21
454.229345
0
LINE
8
annotation
62
1
39
211
10
39.964931
20
454.229345
11
40.040748
21
454.069691
0
LINE
8
annotation
62
1
39
211
10
40.040748
20
454.069691
11
40.141836
21
453.926629
0
LINE
8
annotation
62
1
39
211
10
40.141836
20
453.926629
11
40.265279
21
453.803066
0
LINE
8
annotation
62
1
39
211
10
40.265279
20
453.803066
11
40.408160
21
453.701904
0
LINE
8
annotation
62
1
39
211
10
40.408160
20
453.701904
11
40.567562
21
453.626050
0
LINE
8
annotation
62
1
39
211
10
40.567562
20
453.626050
11
40.740570
21
453.578407
0
LINE
8
annotation
62
1
39
211
10
40.740570
20
453.578407
11
40.924266
21
453.561881
0
LINE
8
annotation
62
1
39
211
10
40.924266
20
453.561881
11
40.924266
21
453.561881
0
LINE
8
annotation
62
1
39
211
10
40.924266
20
453.561881
11
41.107962
21
453.578407
0
LINE
8
annotation
62
1
39
211
10
41.107962
20
453.578407
11
41.280969
21
453.626050
0
LINE
8
annotation
62
1
39
211
10
41.280969
20
453.626050
11
41.440372
21
453.701904
0
LINE
8
annotation
62
1
39
211
10
41.440372
20
453.701904
11
41.583253
21
453.803066
0
LINE
8
annotation
62
1
39
211
10
41.583253
20
453.803066
11
41.706695
21
453.926629
0
LINE
8
annotation
62
1
39
211
10
41.706695
20
453.926629
11
41.807783
21
454.069691
0
LINE
8
annotation
62
1
39
211
10
41.807783
20
454.069691
11
41.883600
21
454.229345
0
LINE
8
annotation
62
1
39
211
10
41.883600
20
454.229345
11
41.931229
21
454.402687
0
LINE
8
annotation
62
1
39
211
10
41.931229
20
454.402687
11
41.947753
21
454.586814
0
LINE
8
annotation
62
1
39
211
10
41.246027
20
469.882228
11
41.246027
21
474.491246
0
LINE
8
annotation
62
1
39
211
10
41.246027
20
474.491246
11
40.221384
21
473.466313
0
LINE
8
annotation
62
1
39
211
10
43.485285
20
469.882228
11
43.485285
21
469.882228
0
LINE
8
annotation
62
1
39
211
10
43.485285
20
469.882228
11
43.777973
21
469.991298
0
LINE
8
annotation
62
1
39
211
10
43.777973
20
469.991298
11
44.046623
21
470.138725
0
LINE
8
annotation
62
1
39
211
10
44.046623
20
470.138725
11
44.288461
21
470.320754
0
LINE
8
annotation
62
1
39
211
10
44.288461
20
470.320754
11
44.500709
21
470.533628
0
LINE
8
annotation
62
1
39
211
10
44.500709
20
470.533628
11
44.680593
21
470.773591
0
LINE
8
annotation
62
1
39
211
10
44.680593
20
470.773591
11
44.825335
21
471.036886
0
LINE
8
annotation
62
1
39
211
10
44.825335
20
471.036886
11
44.932159
21
471.319757
0
LINE
8
annotation
62
1
39
211
10
44.932159
20
471.319757
11
44.998290
21
471.618449
0
LINE
8
annotation
62
1
39
211
10
44.998290
20
471.618449
11
45.020950
21
471.929203
0
LINE
8
annotation
62
1
39
211
10
45.020950
20
471.929203
11
45.020950
21
473.466313
0
LINE
8
annotation
62
1
39
211
10
45.020950
20
473.466313
11
45.020950
21
473.466313
0
LINE
8
annotation
62
1
39
211
10
45.020950
20
473.466313
11
45.004473
21
473.650439
0
LINE
8
annotation
62
1
39
211
10
45.004473
20
473.650439
11
44.956963
21
473.823782
0
LINE
8
annotation
62
1
39
211
10
44.956963
20
473.823782
11
44.881301
21
473.983436
0
LINE
8
annotation
62
1
39
211
10
44.881301
20
473.983436
11
44.780368
21
474.126498
0
LINE
8
annotation
62
1
39
211
10
44.780368
20
474.126498
11
44.657044
21
474.250061
0
LINE
8
annotation
62
1
39
211
10
44.657044
20
474.250061
11
44.514211
21
474.351222
0
LINE
8
annotation
62
1
39
211
10
44.514211
20
474.351222
11
44.354749
21
474.427077
0
LINE
8
annotation
62
1
39
211
10
44.354749
20
474.427077
11
44.181539
21
474.474719
0
LINE
8
annotation
62
1
39
211
10
44.181539
20
474.474719
11
43.997463
21
474.491246
0
LINE
8
annotation
62
1
39
211
10
43.997463
20
474.491246
11
43.997463
21
474.491246
0
LINE
8
annotation
62
1
39
211
10
43.997463
20
474.491246
11
43.813767
21
474.474719
0
LINE
8
annotation
62
1
39
211
10
43.813767
20
474.474719
11
43.640759
21
474.427077
0
LINE
8
annotation
62
1
39
211
10
43.640759
20
474.427077
11
43.481357
21
474.351222
0
LINE
8
annotation
62
1
39
211
10
43.481357
20
474.351222
11
43.338476
21
474.250061
0
LINE
8
annotation
62
1
39
211
10
43.338476
20
474.250061
11
43.215033
21
474.126498
0
LINE
8
annotation
62
1
39
211
10
43.215033
20
474.126498
11
43.113945
21
473.983436
0
LINE
8
annotation
62
1
39
211
10
43.113945
20
473.983436
11
43.038128
21
473.823782
0
LINE
8
annotation
62
1
39
211
10
43.038128
20
473.823782
11
42.990500
21
473.650439
0
LINE
8
annotation
62
1
39
211
10
42.990500
20
473.650439
11
42.973975
21
473.466313
0
LINE
8
annotation
62
1
39
211
10
42.973975
20
473.466313
11
42.973975
21
472.953847
0
LINE
8
annotation
62
1
39
211
10
42.973975
20
472.953847
11
42.973975
21
472.953847
0
LINE
8
annotation
62
1
39
211
10
42.973975
20
472.953847
11
42.990500
21
472.769731
0
LINE
8
annotation
62
1
39
211
10
42.990500
20
472.769731
11
43.038128
21
472.596415
0
LINE
8
annotation
62
1
39
211
10
43.038128
20
472.596415
11
43.113945
21
472.436799
0
LINE
8
annotation
62
1
39
211
10
43.113945
20
472.436799
11
43.215033
21
472.293783
0
LINE
8
annotation
62
1
39
211
10
43.215033
20
472.293783
11
43.338476
21
472.170267
0
LINE
8
annotation
62
1
39
211
10
43.338476
20
472.170267
11
43.481357
21
472.069152
0
LINE
8
annotation
62
1
39
211
10
43.481357
20
472.069152
11
43.640759
21
471.993336
0
LINE
8
annotation
62
1
39
211
10
43.640759
20
471.993336
11
43.813767
21
471.945720
0
LINE
8
annotation
62
1
39
211
10
43.813767
20
471.945720
11
43.997463
21
471.929203
0
LINE
8
annotation
62
1
39
211
10
43.997463
20
471.929203
11
45.020950
21
471.929203
0
LINE
8
annotation
62
1
39
211
10
42.846075
20
469.306101
11
45.150584
21
469.306101
0
LINE
8
annotation
62
1
39
211
10
45.033660
20
489.160867
11
43.343686
21
489.160867
0
LINE
8
annotation
62
1
39
211
10
43.343686
20
489.160867
11
44.905278
21
491.674829
0
LINE
8
annotation
62
1
39
211
10
44.905278
20
491.674829
11
44.905278
21
491.674829
0
LINE
8
annotation
62
1
39
211
10
44.905278
20
491.674829
11
44.907145
21
491.677139
0
LINE
8
annotation
62
1
39
211
10
44.907145
20
491.677139
11
44.908935
21
491.679469
0
LINE
8
annotation
62
1
39
211
10
44.908935
20
491.679469
11
44.910660
21
491.681838
0
LINE
8
annotation
62
1
39
211
10
44.910660
20
491.681838
11
44.912333
21
491.684265
0
LINE
8
annotation
62
1
39
211
10
44.912333
20
491.684265
11
44.913964
21
491.686772
0
LINE
8
annotation
62
1
39
211
10
44.913964
20
491.686772
11
44.915565
21
491.689376
0
LINE
8
annotation
62
1
39
211
10
44.915565
20
491.689376
11
44.917149
21
491.692099
0
LINE
8
annotation
62
1
39
211
10
44.917149
20
491.692099
11
44.918727
21
491.694959
0
LINE
8
annotation
62
1
39
211
10
44.918727
20
491.694959
11
44.920311
21
491.697976
0
LINE
8
annotation
62
1
39
211
10
44.920311
20
491.697976
11
44.920311
21
491.697976
0
LINE
8
annotation
62
1
39
211
10
44.920311
20
491.697976
11
44.984789
21
491.836415
0
LINE
8
annotation
62
1
39
211
10
44.984789
20
491.836415
11
45.022456
21
491.979920
0
LINE
8
annotation
62
1
39
211
10
45.022456
20
491.979920
11
45.034235
21
492.125247
0
LINE
8
annotation
62
1
39
211
10
45.034235
20
492.125247
11
45.021049
21
492.269154
0
LINE
8
annotation
62
1
39
211
10
45.021049
20
492.269154
11
44.983822
21
492.408398
0
LINE
8
annotation
62
1
39
211
10
44.983822
20
492.408398
11
44.923475
21
492.539737
0
LINE
8
annotation
62
1
39
211
10
44.923475
20
492.539737
11
44.840934
21
492.659929
0
LINE
8
annotation
62
1
39
211
10
44.840934
20
492.659929
11
44.737120
21
492.765730
0
LINE
8
annotation
62
1
39
211
10
44.737120
20
492.765730
11
44.612957
21
492.853897
0
LINE
8
annotation
62
1
39
211
10
44.612957
20
492.853897
11
44.612957
21
492.853897
0
LINE
8
annotation
62
1
39
211
10
44.612957
20
492.853897
11
44.474132
21
492.917459
0
LINE
8
annotation
62
1
39
211
10
44.474132
20
492.917459
11
44.330408
21
492.954545
0
LINE
8
annotation
62
1
39
211
10
44.330408
20
492.954545
11
44.184997
21
492.965991
0
LINE
8
annotation
62
1
39
211
10
44.184997
20
492.965991
11
44.041111
21
492.952632
0
LINE
8
annotation
62
1
39
211
10
44.041111
20
492.952632
11
43.901965
21
492.915301
0
LINE
8
annotation
62
1
39
211
10
43.901965
20
492.915301
11
43.770771
21
492.854834
0
LINE
8
annotation
62
1
39
211
10
43.770771
20
492.854834
11
43.650743
21
492.772066
0
LINE
8
annotation
62
1
39
211
10
43.650743
20
492.772066
11
43.545093
21
492.667831
0
LINE
8
annotation
62
1
39
211
10
43.545093
20
492.667831
11
43.457035
21
492.542963
0
LINE
8
annotation
62
1
39
211
10
43.457035
20
492.542963
11
43.346072
21
492.330106
0
LINE
8
annotation
62
1
39
211
10
47.072107
20
489.211089
11
47.072107
21
489.211089
0
LINE
8
annotation
62
1
39
211
10
47.072107
20
489.211089
11
47.160544
21
489.178029
0
LINE
8
annotation
62
1
39
211
10
47.160544
20
489.178029
11
47.251244
21
489.161604
0
LINE
8
annotation
62
1
39
211
10
47.251244
20
489.161604
11
47.342156
21
489.161145
0
LINE
8
annotation
62
1
39
211
10
47.342156
20
489.161145
11
47.431230
21
489.175982
0
LINE
8
annotation
62
1
39
211
10
47.431230
20
489.175982
11
47.516414
21
489.205444
0
LINE
8
annotation
62
1
39
211
10
47.516414
20
489.205444
11
47.595660
21
489.248864
0
LINE
8
annotation
62
1
39
211
10
47.595660
20
489.248864
11
47.666916
21
489.305569
0
LINE
8
annotation
62
1
39
211
10
47.666916
20
489.305569
11
47.728132
21
489.374892
0
LINE
8
annotation
62
1
39
211
10
47.728132
20
489.374892
11
47.777257
21
489.456162
0
LINE
8
annotation
62
1
39
211
10
47.777257
20
489.456162
11
47.777257
21
489.456162
0
LINE
8
annotation
62
1
39
211
10
47.777257
20
489.456162
11
47.923829
21
489.799249
0
LINE
8
annotation
62
1
39
211
10
47.923829
20
489.799249
11
48.033757
21
490.152266
0
LINE
8
annotation
62
1
39
211
10
48.033757
20
490.152266
11
48.107043
21
490.512398
0
LINE
8
annotation
62
1
39
211
10
48.107043
20
490.512398
11
48.143686
21
490.876832
0
LINE
8
annotation
62
1
39
211
10
48.143686
20
490.876832
11
48.143686
21
491.242752
0
LINE
8
annotation
62
1
39
211
10
48.143686
20
491.242752
11
48.107043
21
491.607345
0
LINE
8
annotation
62
1
39
211
10
48.107043
20
491.607345
11
48.033757
21
491.967796
0
LINE
8
annotation
62
1
39
211
10
48.033757
20
491.967796
11
47.923829
21
492.321290
0
LINE
8
annotation
62
1
39
211
10
47.923829
20
492.321290
11
47.777257
21
492.665013
0
LINE
8
annotation
62
1
39
211
10
47.777257
20
492.665013
11
47.777257
21
492.665013
0
LINE
8
annotation
62
1
39
211
10
47.777257
20
492.665013
11
47.758617
21
492.699702
0
LINE
8
annotation
62
1
39
211
10
47.758617
20
492.699702
11
47.737486
21
492.732867
0
LINE
8
annotation
62
1
39
211
10
47.737486
20
492.732867
11
47.714020
21
492.764345
0
LINE
8
annotation
62
1
39
211
10
47.714020
20
492.764345
11
47.688381
21
492.793973
0
LINE
8
annotation
62
1
39
211
10
47.688381
20
492.793973
11
47.660726
21
492.821587
0
LINE
8
annotation
62
1
39
211
10
47.660726
20
492.821587
11
47.631216
21
492.847026
0
LINE
8
annotation
62
1
39
211
10
47.631216
20
492.847026
11
47.600008
21
492.870125
0
LINE
8
annotation
62
1
39
211
10
47.600008
20
492.870125
11
47.567263
21
492.890722
0
LINE
8
annotation
62
1
39
211
10
47.567263
20
492.890722
11
47.533139
21
492.908654
0
LINE
8
annotation
62
1
39
211
10
47.533139
20
492.908654
11
47.533139
21
492.908654
0
LINE
8
annotation
62
1
39
211
10
47.533139
20
492.908654
11
47.444000
21
492.942431
0
LINE
8
annotation
62
1
39
211
10
47.444000
20
492.942431
11
47.352769
21
492.959417
0
LINE
8
annotation
62
1
39
211
10
47.352769
20
492.959417
11
47.261473
21
492.960286
0
LINE
8
annotation
62
1
39
211
10
47.261473
20
492.960286
11
47.172139
21
492.945713
0
LINE
8
annotation
62
1
39
211
10
47.172139
20
492.945713
11
47.086794
21
492.916369
0
LINE
8
annotation
62
1
39
211
10
47.086794
20
492.916369
11
47.007465
21
492.872930
0
LINE
8
annotation
62
1
39
211
10
47.007465
20
492.872930
11
46.936178
21
492.816069
0
LINE
8
annotation
62
1
39
211
10
46.936178
20
492.816069
11
46.874962
21
492.746459
0
LINE
8
annotation
62
1
39
211
10
46.874962
20
492.746459
11
46.825841
21
492.664775
0
LINE
8
annotation
62
1
39
211
10
46.825841
20
492.664775
11
46.825841
21
492.664775
0
LINE
8
annotation
62
1
39
211
10
46.825841
20
492.664775
11
46.679977
21
492.321759
0
LINE
8
annotation
62
1
39
211
10
46.679977
20
492.321759
11
46.570578
21
491.968795
0
LINE
8
annotation
62
1
39
211
10
46.570578
20
491.968795
11
46.497646
21
491.608698
0
LINE
8
annotation
62
1
39
211
10
46.497646
20
491.608698
11
46.461180
21
491.244281
0
LINE
8
annotation
62
1
39
211
10
46.461180
20
491.244281
11
46.461180
21
490.878361
0
LINE
8
annotation
62
1
39
211
10
46.461180
20
490.878361
11
46.497646
21
490.513750
0
LINE
8
annotation
62
1
39
211
10
46.497646
20
490.513750
11
46.570578
21
490.153264
0
LINE
8
annotation
62
1
39
211
10
46.570578
20
490.153264
11
46.679977
21
489.799717
0
LINE
8
annotation
62
1
39
211
10
46.679977
20
489.799717
11
46.825841
21
489.455923
0
LINE
8
annotation
62
1
39
211
10
46.825841
20
489.455923
11
46.825841
21
489.455923
0
LINE
8
annotation
62
1
39
211
10
46.825841
20
489.455923
11
46.844413
21
489.421303
0
LINE
8
annotation
62
1
39
211
10
46.844413
20
489.421303
11
46.865389
21
489.388304
0
LINE
8
annotation
62
1
39
211
10
46.865389
20
489.388304
11
46.888680
21
489.357025
0
LINE
8
annotation
62
1
39
211
10
46.888680
20
489.357025
11
46.914199
21
489.327566
0
LINE
8
annotation
62
1
39
211
10
46.914199
20
489.327566
11
46.941856
21
489.300028
0
LINE
8
annotation
62
1
39
211
10
46.941856
20
489.300028
11
46.971564
21
489.274512
0
LINE
8
annotation
62
1
39
211
10
46.971564
20
489.274512
11
47.003234
21
489.251116
0
LINE
8
annotation
62
1
39
211
10
47.003234
20
489.251116
11
47.036778
21
489.229942
0
LINE
8
annotation
62
1
39
211
10
47.036778
20
489.229942
11
47.072107
21
489.211089
0
LINE
8
annotation
62
1
39
211
10
48.574599
20
507.636033
11
46.527921
21
507.636033
0
LINE
8
annotation
62
1
39
211
10
46.527921
20
507.636033
11
48.419118
21
510.680618
0
LINE
8
annotation
62
1
39
211
10
48.419118
20
510.680618
11
48.419118
21
510.680618
0
LINE
8
annotation
62
1
39
211
10
48.419118
20
510.680618
11
48.421379
21
510.683416
0
LINE
8
annotation
62
1
39
211
10
48.421379
20
510.683416
11
48.423547
21
510.686237
0
LINE
8
annotation
62
1
39
211
10
48.423547
20
510.686237
11
48.425637
21
510.689106
0
LINE
8
annotation
62
1
39
211
10
48.425637
20
510.689106
11
48.427662
21
510.692046
0
LINE
8
annotation
62
1
39
211
10
48.427662
20
510.692046
11
48.429638
21
510.695082
0
LINE
8
annotation
62
1
39
211
10
48.429638
20
510.695082
11
48.431577
21
510.698236
0
LINE
8
annotation
62
1
39
211
10
48.431577
20
510.698236
11
48.433496
21
510.701533
0
LINE
8
annotation
62
1
39
211
10
48.433496
20
510.701533
11
48.435407
21
510.704997
0
LINE
8
annotation
62
1
39
211
10
48.435407
20
510.704997
11
48.437325
21
510.708651
0
LINE
8
annotation
62
1
39
211
10
48.437325
20
510.708651
11
48.437325
21
510.708651
0
LINE
8
annotation
62
1
39
211
10
48.437325
20
510.708651
11
48.515412
21
510.876310
0
LINE
8
annotation
62
1
39
211
10
48.515412
20
510.876310
11
48.561030
21
511.050104
0
LINE
8
annotation
62
1
39
211
10
48.561030
20
511.050104
11
48.575295
21
511.226106
0
LINE
8
annotation
62
1
39
211
10
48.575295
20
511.226106
11
48.559326
21
511.400387
0
LINE
8
annotation
62
1
39
211
10
48.559326
20
511.400387
11
48.514241
21
511.569022
0
LINE
8
annotation
62
1
39
211
10
48.514241
20
511.569022
11
48.441157
21
511.728083
0
LINE
8
annotation
62
1
39
211
10
48.441157
20
511.728083
11
48.341194
21
511.873643
0
LINE
8
annotation
62
1
39
211
10
48.341194
20
511.873643
11
48.215467
21
512.001776
0
LINE
8
annotation
62
1
39
211
10
48.215467
20
512.001776
11
48.065097
21
512.108553
0
LINE
8
annotation
62
1
39
211
10
48.065097
20
512.108553
11
48.065097
21
512.108553
0
LINE
8
annotation
62
1
39
211
10
48.065097
20
512.108553
11
47.896971
21
512.185531
0
LINE
8
annotation
62
1
39
211
10
47.896971
20
512.185531
11
47.722911
21
512.230445
0
LINE
8
annotation
62
1
39
211
10
47.722911
20
512.230445
11
47.546807
21
512.244307
0
LINE
8
annotation
62
1
39
211
10
47.546807
20
512.244307
11
47.372552
21
512.228128
0
LINE
8
annotation
62
1
39
211
10
47.372552
20
512.228128
11
47.204036
21
512.182918
0
LINE
8
annotation
62
1
39
211
10
47.204036
20
512.182918
11
47.045151
21
512.109688
0
LINE
8
annotation
62
1
39
211
10
47.045151
20
512.109688
11
46.899788
21
512.009449
0
LINE
8
annotation
62
1
39
211
10
46.899788
20
512.009449
11
46.771839
21
511.883213
0
LINE
8
annotation
62
1
39
211
10
46.771839
20
511.883213
11
46.665194
21
511.731990
0
LINE
8
annotation
62
1
39
211
10
46.665194
20
511.731990
11
46.530811
21
511.474204
0
LINE
8
annotation
62
1
39
211
10
51.327717
20
507.636070
11
51.327717
21
512.244419
0
LINE
8
annotation
62
1
39
211
10
51.327717
20
512.244419
11
50.303222
21
511.219635
0
LINE
8
annotation
62
1
39
211
10
51.553619
20
526.917557
11
49.866471
21
526.917557
0
LINE
8
annotation
62
1
39
211
10
49.866471
20
526.917557
11
51.425451
21
529.427314
0
LINE
8
annotation
62
1
39
211
10
51.425451
20
529.427314
11
51.425451
21
529.427314
0
LINE
8
annotation
62
1
39
211
10
51.425451
20
529.427314
11
51.427315
21
529.429620
0
LINE
8
annotation
62
1
39
211
10
51.427315
20
529.429620
11
51.429102
21
529.431946
0
LINE
8
annotation
62
1
39
211
10
51.429102
20
529.431946
11
51.430824
21
529.434311
0
LINE
8
annotation
62
1
39
211
10
51.430824
20
529.434311
11
51.432494
21
529.436735
0
LINE
8
annotation
62
1
39
211
10
51.432494
20
529.436735
11
51.434122
21
529.439237
0
LINE
8
annotation
62
1
39
211
10
51.434122
20
529.439237
11
51.435721
21
529.441837
0
LINE
8
annotation
62
1
39
211
10
51.435721
20
529.441837
11
51.437303
21
529.444555
0
LINE
8
annotation
62
1
39
211
10
51.437303
20
529.444555
11
51.438878
21
529.447410
0
LINE
8
annotation
62
1
39
211
10
51.438878
20
529.447410
11
51.440459
21
529.450422
0
LINE
8
annotation
62
1
39
211
10
51.440459
20
529.450422
11
51.440459
21
529.450422
0
LINE
8
annotation
62
1
39
211
10
51.440459
20
529.450422
11
51.504829
21
529.588630
0
LINE
8
annotation
62
1
39
211
10
51.504829
20
529.588630
11
51.542433
21
529.731894
0
LINE
8
annotation
62
1
39
211
10
51.542433
20
529.731894
11
51.554192
21
529.876978
0
LINE
8
annotation
62
1
39
211
10
51.554192
20
529.876978
11
51.541029
21
530.020644
0
LINE
8
annotation
62
1
39
211
10
51.541029
20
530.020644
11
51.503863
21
530.159656
0
LINE
8
annotation
62
1
39
211
10
51.503863
20
530.159656
11
51.443618
21
530.290775
0
LINE
8
annotation
62
1
39
211
10
51.443618
20
530.290775
11
51.361215
21
530.410766
0
LINE
8
annotation
62
1
39
211
10
51.361215
20
530.410766
11
51.257574
21
530.516390
0
LINE
8
annotation
62
1
39
211
10
51.257574
20
530.516390
11
51.133619
21
530.604410
0
LINE
8
annotation
62
1
39
211
10
51.133619
20
530.604410
11
51.133619
21
530.604410
0
LINE
8
annotation
62
1
39
211
10
51.133619
20
530.604410
11
50.995027
21
530.667865
0
LINE
8
annotation
62
1
39
211
10
50.995027
20
530.667865
11
50.851543
21
530.704890
0
LINE
8
annotation
62
1
39
211
10
50.851543
20
530.704890
11
50.706375
21
530.716317
0
LINE
8
annotation
62
1
39
211
10
50.706375
20
530.716317
11
50.562730
21
530.702979
0
LINE
8
annotation
62
1
39
211
10
50.562730
20
530.702979
11
50.423816
21
530.665711
0
LINE
8
annotation
62
1
39
211
10
50.423816
20
530.665711
11
50.292842
21
530.605345
0
LINE
8
annotation
62
1
39
211
10
50.292842
20
530.605345
11
50.173014
21
530.522715
0
LINE
8
annotation
62
1
39
211
10
50.173014
20
530.522715
11
50.067541
21
530.418654
0
LINE
8
annotation
62
1
39
211
10
50.067541
20
530.418654
11
49.979631
21
530.293996
0
LINE
8
annotation
62
1
39
211
10
49.979631
20
530.293996
11
49.868854
21
530.081494
0
LINE
8
annotation
62
1
39
211
10
54.665898
20
526.917557
11
52.978750
21
526.917557
0
LINE
8
annotation
62
1
39
211
10
52.978750
20
526.917557
11
54.537730
21
529.427314
0
LINE
8
annotation
62
1
39
211
10
54.537730
20
529.427314
11
54.537730
21
529.427314
0
LINE
8
annotation
62
1
39
211
10
54.537730
20
529.427314
11
54.539594
21
529.429620
0
LINE
8
annotation
62
1
39
211
10
54.539594
20
529.429620
11
54.541381
21
529.431946
0
LINE
8
annotation
62
1
39
211
10
54.541381
20
529.431946
11
54.543103
21
529.434311
0
LINE
8
annotation
62
1
39
211
10
54.543103
20
529.434311
11
54.544773
21
529.436735
0
LINE
8
annotation
62
1
39
211
10
54.544773
20
529.436735
11
54.546401
21
529.439237
0
LINE
8
annotation
62
1
39
211
10
54.546401
20
529.439237
11
54.548000
21
529.441837
0
LINE
8
annotation
62
1
39
211
10
54.548000
20
529.441837
11
54.549582
21
529.444555
0
LINE
8
annotation
62
1
39
211
10
54.549582
20
529.444555
11
54.551157
21
529.447410
0
LINE
8
annotation
62
1
39
211
10
54.551157
20
529.447410
11
54.552738
21
529.450422
0
LINE
8
annotation
62
1
39
211
10
54.552738
20
529.450422
11
54.552738
21
529.450422
0
LINE
8
annotation
62
1
39
211
10
54.552738
20
529.450422
11
54.617108
21
529.588630
0
LINE
8
annotation
62
1
39
211
10
54.617108
20
529.588630
11
54.654712
21
529.731894
0
LINE
8
annotation
62
1
39
211
10
54.654712
20
529.731894
11
54.666471
21
529.876978
0
LINE
8
annotation
62
1
39
211
10
54.666471
20
529.876978
11
54.653308
21
530.020644
0
LINE
8
annotation
62
1
39
211
10
54.653308
20
530.020644
11
54.616142
21
530.159656
0
LINE
8
annotation
62
1
39
211
10
54.616142
20
530.159656
11
54.555897
21
530.290775
0
LINE
8
annotation
62
1
39
211
10
54.555897
20
530.290775
11
54.473494
21
530.410766
0
LINE
8
annotation
62
1
39
211
10
54.473494
20
530.410766
11
54.369853
21
530.516390
0
LINE
8
annotation
62
1
39
211
10
54.369853
20
530.516390
11
54.245898
21
530.604410
0
LINE
8
annotation
62
1
39
211
10
54.245898
20
530.604410
11
54.245898
21
530.604410
0
LINE
8
annotation
62
1
39
211
10
54.245898
20
530.604410
11
54.107306
21
530.667865
0
LINE
8
annotation
62
1
39
211
10
54.107306
20
530.667865
11
53.963822
21
530.704890
0
LINE
8
annotation
62
1
39
211
10
53.963822
20
530.704890
11
53.818654
21
530.716317
0
LINE
8
annotation
62
1
39
211
10
53.818654
20
530.716317
11
53.675009
21
530.702979
0
LINE
8
annotation
62
1
39
211
10
53.675009
20
530.702979
11
53.536095
21
530.665711
0
LINE
8
annotation
62
1
39
211
10
53.536095
20
530.665711
11
53.405121
21
530.605345
0
LINE
8
annotation
62
1
39
211
10
53.405121
20
530.605345
11
53.285293
21
530.522715
0
LINE
8
annotation
62
1
39
211
10
53.285293
20
530.522715
11
53.179820
21
530.418654
0
LINE
8
annotation
62
1
39
211
10
53.179820
20
530.418654
11
53.091910
21
530.293996
0
LINE
8
annotation
62
1
39
211
10
53.091910
20
530.293996
11
52.981133
21
530.081494
0
LINE
8
annotation
62
1
39
211
10
55.184741
20
545.794084
11
53.497392
21
545.794084
0
LINE
8
annotation
62
1
39
211
10
53.497392
20
545.794084
11
55.056558
21
548.304141
0
LINE
8
annotation
62
1
39
211
10
55.056558
20
548.304141
11
55.056558
21
548.304141
0
LINE
8
annotation
62
1
39
211
10
55.056558
20
548.304141
11
55.058422
21
548.306447
0
LINE
8
annotation
62
1
39
211
10
55.058422
20
548.306447
11
55.060210
21
548.308773
0
LINE
8
annotation
62
1
39
211
10
55.060210
20
548.308773
11
55.061932
21
548.311138
0
LINE
8
annotation
62
1
39
211
10
55.061932
20
548.311138
11
55.063602
21
548.313562
0
LINE
8
annotation
62
1
39
211
10
55.063602
20
548.313562
11
55.065231
21
548.316065
0
LINE
8
annotation
62
1
39
211
10
55.065231
20
548.316065
11
55.066830
21
548.318666
0
LINE
8
annotation
62
1
39
211
10
55.066830
20
548.318666
11
55.068411
21
548.321384
0
LINE
8
annotation
62
1
39
211
10
55.068411
20
548.321384
11
55.069987
21
548.324239
0
LINE
8
annotation
62
1
39
211
10
55.069987
20
548.324239
11
55.071569
21
548.327252
0
LINE
8
annotation
62
1
39
211
10
55.071569
20
548.327252
11
55.071569
21
548.327252
0
LINE
8
annotation
62
1
39
211
10
55.071569
20
548.327252
11
55.135946
21
548.465476
0
LINE
8
annotation
62
1
39
211
10
55.135946
20
548.465476
11
55.173554
21
548.608757
0
LINE
8
annotation
62
1
39
211
10
55.173554
20
548.608757
11
55.185315
21
548.753859
0
LINE
8
annotation
62
1
39
211
10
55.185315
20
548.753859
11
55.172150
21
548.897542
0
LINE
8
annotation
62
1
39
211
10
55.172150
20
548.897542
11
55.134980
21
549.036570
0
LINE
8
annotation
62
1
39
211
10
55.134980
20
549.036570
11
55.074728
21
549.167705
0
LINE
8
annotation
62
1
39
211
10
55.074728
20
549.167705
11
54.992314
21
549.287710
0
LINE
8
annotation
62
1
39
211
10
54.992314
20
549.287710
11
54.888662
21
549.393347
0
LINE
8
annotation
62
1
39
211
10
54.888662
20
549.393347
11
54.764691
21
549.481377
0
LINE
8
annotation
62
1
39
211
10
54.764691
20
549.481377
11
54.764691
21
549.481377
0
LINE
8
annotation
62
1
39
211
10
54.764691
20
549.481377
11
54.626083
21
549.544840
0
LINE
8
annotation
62
1
39
211
10
54.626083
20
549.544840
11
54.482582
21
549.581869
0
LINE
8
annotation
62
1
39
211
10
54.482582
20
549.581869
11
54.337396
21
549.593297
0
LINE
8
annotation
62
1
39
211
10
54.337396
20
549.593297
11
54.193734
21
549.579958
0
LINE
8
annotation
62
1
39
211
10
54.193734
20
549.579958
11
54.054804
21
549.542686
0
LINE
8
annotation
62
1
39
211
10
54.054804
20
549.542686
11
53.923814
21
549.482313
0
LINE
8
annotation
62
1
39
211
10
53.923814
20
549.482313
11
53.803972
21
549.399673
0
LINE
8
annotation
62
1
39
211
10
53.803972
20
549.399673
11
53.698486
21
549.295600
0
LINE
8
annotation
62
1
39
211
10
53.698486
20
549.295600
11
53.610565
21
549.170926
0
LINE
8
annotation
62
1
39
211
10
53.610565
20
549.170926
11
53.499775
21
548.958399
0
LINE
8
annotation
62
1
39
211
10
56.609757
20
545.794234
11
57.453431
21
545.794234
0
LINE
8
annotation
62
1
39
211
10
57.453431
20
545.794234
11
57.453431
21
545.794234
0
LINE
8
annotation
62
1
39
211
10
57.453431
20
545.794234
11
57.605168
21
545.807846
0
LINE
8
annotation
62
1
39
211
10
57.605168
20
545.807846
11
57.747947
21
545.847076
0
LINE
8
annotation
62
1
39
211
10
57.747947
20
545.847076
11
57.879394
21
545.909516
0
LINE
8
annotation
62
1
39
211
10
57.879394
20
545.909516
11
57.997133
21
545.992758
0
LINE
8
annotation
62
1
39
211
10
57.997133
20
545.992758
11
58.098791
21
546.094394
0
LINE
8
annotation
62
1
39
211
10
58.098791
20
546.094394
11
58.181991
21
546.212016
0
LINE
8
annotation
62
1
39
211
10
58.181991
20
546.212016
11
58.244361
21
546.343216
0
LINE
8
annotation
62
1
39
211
10
58.244361
20
546.343216
11
58.283524
21
546.485586
0
LINE
8
annotation
62
1
39
211
10
58.283524
20
546.485586
11
58.297106
21
546.636717
0
LINE
8
annotation
62
1
39
211
10
58.297106
20
546.636717
11
58.297106
21
547.059150
0
LINE
8
annotation
62
1
39
211
10
58.297106
20
547.059150
11
58.297106
21
547.059150
0
LINE
8
annotation
62
1
39
211
10
58.297106
20
547.059150
11
58.283524
21
547.210218
0
LINE
8
annotation
62
1
39
211
10
58.283524
20
547.210218
11
58.244361
21
547.352555
0
LINE
8
annotation
62
1
39
211
10
58.244361
20
547.352555
11
58.181991
21
547.483745
0
LINE
8
annotation
62
1
39
211
10
58.181991
20
547.483745
11
58.098791
21
547.601375
0
LINE
8
annotation
62
1
39
211
10
58.098791
20
547.601375
11
57.997133
21
547.703031
0
LINE
8
annotation
62
1
39
211
10
57.997133
20
547.703031
11
57.879394
21
547.786298
0
LINE
8
annotation
62
1
39
211
10
57.879394
20
547.786298
11
57.747947
21
547.848764
0
LINE
8
annotation
62
1
39
211
10
57.747947
20
547.848764
11
57.605168
21
547.888014
0
LINE
8
annotation
62
1
39
211
10
57.605168
20
547.888014
11
57.453431
21
547.901633
0
LINE
8
annotation
62
1
39
211
10
57.453431
20
547.901633
11
57.030998
21
547.901633
0
LINE
8
annotation
62
1
39
211
10
57.030998
20
547.901633
11
57.453431
21
547.901633
0
LINE
8
annotation
62
1
39
211
10
57.453431
20
547.901633
11
57.453431
21
547.901633
0
LINE
8
annotation
62
1
39
211
10
57.453431
20
547.901633
11
57.605168
21
547.915256
0
LINE
8
annotation
62
1
39
211
10
57.605168
20
547.915256
11
57.747947
21
547.954529
0
LINE
8
annotation
62
1
39
211
10
57.747947
20
547.954529
11
57.879394
21
548.017056
0
LINE
8
annotation
62
1
39
211
10
57.879394
20
548.017056
11
57.997133
21
548.100445
0
LINE
8
annotation
62
1
39
211
10
57.997133
20
548.100445
11
58.098791
21
548.202300
0
LINE
8
annotation
62
1
39
211
10
58.098791
20
548.202300
11
58.181991
21
548.320227
0
LINE
8
annotation
62
1
39
211
10
58.181991
20
548.320227
11
58.244361
21
548.451833
0
LINE
8
annotation
62
1
39
211
10
58.244361
20
548.451833
11
58.283524
21
548.594721
0
LINE
8
annotation
62
1
39
211
10
58.283524
20
548.594721
11
58.297106
21
548.746499
0
LINE
8
annotation
62
1
39
211
10
58.297106
20
548.746499
11
58.297106
21
548.746499
0
LINE
8
annotation
62
1
39
211
10
58.297106
20
548.746499
11
58.283524
21
548.897567
0
LINE
8
annotation
62
1
39
211
10
58.283524
20
548.897567
11
58.244361
21
549.039904
0
LINE
8
annotation
62
1
39
211
10
58.244361
20
549.039904
11
58.181991
21
549.171094
0
LINE
8
annotation
62
1
39
211
10
58.181991
20
549.171094
11
58.098791
21
549.288724
0
LINE
8
annotation
62
1
39
211
10
58.098791
20
549.288724
11
57.997133
21
549.390380
0
LINE
8
annotation
62
1
39
211
10
57.997133
20
549.390380
11
57.879394
21
549.473647
0
LINE
8
annotation
62
1
39
211
10
57.879394
20
549.473647
11
57.747947
21
549.536113
0
LINE
8
annotation
62
1
39
211
10
57.747947
20
549.536113
11
57.605168
21
549.575363
0
LINE
8
annotation
62
1
39
211
10
57.605168
20
549.575363
11
57.453431
21
549.588982
0
LINE
8
annotation
62
1
39
211
10
57.453431
20
549.588982
11
56.609757
21
549.588982
0
LINE
8
annotation
62
1
39
211
10
59.041463
20
564.824419
11
57.490530
21
564.824419
0
LINE
8
annotation
62
1
39
211
10
57.490530
20
564.824419
11
58.923643
21
567.131547
0
LINE
8
annotation
62
1
39
211
10
58.923643
20
567.131547
11
58.923643
21
567.131547
0
LINE
8
annotation
62
1
39
211
10
58.923643
20
567.131547
11
58.925356
21
567.133667
0
LINE
8
annotation
62
1
39
211
10
58.925356
20
567.133667
11
58.926999
21
567.135805
0
LINE
8
annotation
62
1
39
211
10
58.926999
20
567.135805
11
58.928582
21
567.137979
0
LINE
8
annotation
62
1
39
211
10
58.928582
20
567.137979
11
58.930117
21
567.140207
0
LINE
8
annotation
62
1
39
211
10
58.930117
20
567.140207
11
58.931614
21
567.142507
0
LINE
8
annotation
62
1
39
211
10
58.931614
20
567.142507
11
58.933084
21
567.144897
0
LINE
8
annotation
62
1
39
211
10
58.933084
20
567.144897
11
58.934538
21
567.147396
0
LINE
8
annotation
62
1
39
211
10
58.934538
20
567.147396
11
58.935986
21
567.150021
0
LINE
8
annotation
62
1
39
211
10
58.935986
20
567.150021
11
58.937440
21
567.152789
0
LINE
8
annotation
62
1
39
211
10
58.937440
20
567.152789
11
58.937440
21
567.152789
0
LINE
8
annotation
62
1
39
211
10
58.937440
20
567.152789
11
58.996612
21
567.279839
0
LINE
8
annotation
62
1
39
211
10
58.996612
20
567.279839
11
59.031180
21
567.411536
0
LINE
8
annotation
62
1
39
211
10
59.031180
20
567.411536
11
59.041990
21
567.544907
0
LINE
8
annotation
62
1
39
211
10
59.041990
20
567.544907
11
59.029889
21
567.676974
0
LINE
8
annotation
62
1
39
211
10
59.029889
20
567.676974
11
58.995724
21
567.804762
0
LINE
8
annotation
62
1
39
211
10
58.995724
20
567.804762
11
58.940343
21
567.925296
0
LINE
8
annotation
62
1
39
211
10
58.940343
20
567.925296
11
58.864593
21
568.035598
0
LINE
8
annotation
62
1
39
211
10
58.864593
20
568.035598
11
58.769320
21
568.132695
0
LINE
8
annotation
62
1
39
211
10
58.769320
20
568.132695
11
58.655372
21
568.213609
0
LINE
8
annotation
62
1
39
211
10
58.655372
20
568.213609
11
58.655372
21
568.213609
0
LINE
8
annotation
62
1
39
211
10
58.655372
20
568.213609
11
58.527970
21
568.271941
0
LINE
8
annotation
62
1
39
211
10
58.527970
20
568.271941
11
58.396070
21
568.305976
0
LINE
8
annotation
62
1
39
211
10
58.396070
20
568.305976
11
58.262622
21
568.316480
0
LINE
8
annotation
62
1
39
211
10
58.262622
20
568.316480
11
58.130575
21
568.304220
0
LINE
8
annotation
62
1
39
211
10
58.130575
20
568.304220
11
58.002877
21
568.269960
0
LINE
8
annotation
62
1
39
211
10
58.002877
20
568.269960
11
57.882477
21
568.214468
0
LINE
8
annotation
62
1
39
211
10
57.882477
20
568.214468
11
57.772323
21
568.138510
0
LINE
8
annotation
62
1
39
211
10
57.772323
20
568.138510
11
57.675366
21
568.042850
0
LINE
8
annotation
62
1
39
211
10
57.675366
20
568.042850
11
57.594553
21
567.928256
0
LINE
8
annotation
62
1
39
211
10
57.594553
20
567.928256
11
57.492720
21
567.732911
0
LINE
8
annotation
62
1
39
211
10
62.290266
20
565.600790
11
60.351271
21
565.600790
0
LINE
8
annotation
62
1
39
211
10
60.351271
20
565.600790
11
61.125643
21
568.316565
0
LINE
8
annotation
62
1
39
211
10
61.709049
20
564.824447
11
61.709049
21
566.375380
0
LINE
8
annotation
62
1
39
211
10
62.172084
20
584.055749
11
60.936098
21
584.055749
0
LINE
8
annotation
62
1
39
211
10
60.936098
20
584.055749
11
62.078190
21
585.894371
0
LINE
8
annotation
62
1
39
211
10
62.078190
20
585.894371
11
62.078190
21
585.894371
0
LINE
8
annotation
62
1
39
211
10
62.078190
20
585.894371
11
62.079555
21
585.896060
0
LINE
8
annotation
62
1
39
211
10
62.079555
20
585.896060
11
62.080865
21
585.897764
0
LINE
8
annotation
62
1
39
211
10
62.080865
20
585.897764
11
62.082126
21
585.899496
0
LINE
8
annotation
62
1
39
211
10
62.082126
20
585.899496
11
62.083350
21
585.901272
0
LINE
8
annotation
62
1
39
211
10
62.083350
20
585.901272
11
62.084542
21
585.903105
0
LINE
8
annotation
62
1
39
211
10
62.084542
20
585.903105
11
62.085714
21
585.905010
0
LINE
8
annotation
62
1
39
211
10
62.085714
20
585.905010
11
62.086872
21
585.907001
0
LINE
8
annotation
62
1
39
211
10
62.086872
20
585.907001
11
62.088027
21
585.909093
0
LINE
8
annotation
62
1
39
211
10
62.088027
20
585.909093
11
62.089185
21
585.911300
0
LINE
8
annotation
62
1
39
211
10
62.089185
20
585.911300
11
62.089185
21
585.911300
0
LINE
8
annotation
62
1
39
211
10
62.089185
20
585.911300
11
62.136342
21
586.012549
0
LINE
8
annotation
62
1
39
211
10
62.136342
20
586.012549
11
62.163890
21
586.117503
0
LINE
8
annotation
62
1
39
211
10
62.163890
20
586.117503
11
62.172505
21
586.223790
0
LINE
8
annotation
62
1
39
211
10
62.172505
20
586.223790
11
62.162861
21
586.329038
0
LINE
8
annotation
62
1
39
211
10
62.162861
20
586.329038
11
62.135634
21
586.430877
0
LINE
8
annotation
62
1
39
211
10
62.135634
20
586.430877
11
62.091499
21
586.526934
0
LINE
8
annotation
62
1
39
211
10
62.091499
20
586.526934
11
62.031131
21
586.614837
0
LINE
8
annotation
62
1
39
211
10
62.031131
20
586.614837
11
61.955205
21
586.692216
0
LINE
8
annotation
62
1
39
211
10
61.955205
20
586.692216
11
61.864397
21
586.756699
0
LINE
8
annotation
62
1
39
211
10
61.864397
20
586.756699
11
61.864397
21
586.756699
0
LINE
8
annotation
62
1
39
211
10
61.864397
20
586.756699
11
61.762866
21
586.803186
0
LINE
8
annotation
62
1
39
211
10
61.762866
20
586.803186
11
61.657751
21
586.830309
0
LINE
8
annotation
62
1
39
211
10
61.657751
20
586.830309
11
61.551402
21
586.838681
0
LINE
8
annotation
62
1
39
211
10
61.551402
20
586.838681
11
61.446169
21
586.828910
0
LINE
8
annotation
62
1
39
211
10
61.446169
20
586.828910
11
61.344403
21
586.801608
0
LINE
8
annotation
62
1
39
211
10
61.344403
20
586.801608
11
61.248452
21
586.757384
0
LINE
8
annotation
62
1
39
211
10
61.248452
20
586.757384
11
61.160668
21
586.696850
0
LINE
8
annotation
62
1
39
211
10
61.160668
20
586.696850
11
61.083399
21
586.620616
0
LINE
8
annotation
62
1
39
211
10
61.083399
20
586.620616
11
61.018997
21
586.529293
0
LINE
8
annotation
62
1
39
211
10
61.018997
20
586.529293
11
60.937843
21
586.373617
0
LINE
8
annotation
62
1
39
211
10
63.215911
20
584.055771
11
63.833904
21
584.055771
0
LINE
8
annotation
62
1
39
211
10
63.833904
20
584.055771
11
63.833904
21
584.055771
0
LINE
8
annotation
62
1
39
211
10
63.833904
20
584.055771
11
63.944822
21
584.065744
0
LINE
8
annotation
62
1
39
211
10
63.944822
20
584.065744
11
64.049286
21
584.094495
0
LINE
8
annotation
62
1
39
211
10
64.049286
20
584.094495
11
64.145535
21
584.140274
0
LINE
8
annotation
62
1
39
211
10
64.145535
20
584.140274
11
64.231808
21
584.201329
0
LINE
8
annotation
62
1
39
211
10
64.231808
20
584.201329
11
64.306344
21
584.275909
0
LINE
8
annotation
62
1
39
211
10
64.306344
20
584.275909
11
64.367382
21
584.362263
0
LINE
8
annotation
62
1
39
211
10
64.367382
20
584.362263
11
64.413161
21
584.458641
0
LINE
8
annotation
62
1
39
211
10
64.413161
20
584.458641
11
64.441920
21
584.563291
0
LINE
8
annotation
62
1
39
211
10
64.441920
20
584.563291
11
64.451898
21
584.674463
0
LINE
8
annotation
62
1
39
211
10
64.451898
20
584.674463
11
64.451898
21
584.982325
0
LINE
8
annotation
62
1
39
211
10
64.451898
20
584.982325
11
64.451898
21
584.982325
0
LINE
8
annotation
62
1
39
211
10
64.451898
20
584.982325
11
64.441926
21
585.093443
0
LINE
8
annotation
62
1
39
211
10
64.441926
20
585.093443
11
64.413181
21
585.197949
0
LINE
8
annotation
62
1
39
211
10
64.413181
20
585.197949
11
64.367421
21
585.294117
0
LINE
8
annotation
62
1
39
211
10
64.367421
20
585.294117
11
64.306402
21
585.380224
0
LINE
8
annotation
62
1
39
211
10
64.306402
20
585.380224
11
64.231880
21
585.454544
0
LINE
8
annotation
62
1
39
211
10
64.231880
20
585.454544
11
64.145613
21
585.515351
0
LINE
8
annotation
62
1
39
211
10
64.145613
20
585.515351
11
64.049356
21
585.560920
0
LINE
8
annotation
62
1
39
211
10
64.049356
20
585.560920
11
63.944868
21
585.589527
0
LINE
8
annotation
62
1
39
211
10
63.944868
20
585.589527
11
63.833904
21
585.599446
0
LINE
8
annotation
62
1
39
211
10
63.833904
20
585.599446
11
63.215911
21
585.599446
0
LINE
8
annotation
62
1
39
211
10
63.215911
20
585.599446
11
63.215911
21
586.838749
0
LINE
8
annotation
62
1
39
211
10
63.215911
20
586.838749
11
64.451898
21
586.838749
0
LINE
8
annotation
62
1
39
211
10
25.339161
20
370.859545
11
23.754213
21
368.567063
0
LINE
8
annotation
62
1
39
211
10
23.754213
20
368.567063
11
22.168967
21
370.859545
0
LINE
8
annotation
62
1
39
211
10
23.754213
20
368.751547
11
23.754213
21
366.106787
0
LINE
8
annotation
62
1
39
211
10
29.720494
20
368.483166
11
27.121930
21
368.483166
0
LINE
8
annotation
62
1
39
211
10
31.502219
20
366.106936
11
32.557560
21
366.106936
0
LINE
8
annotation
62
1
39
211
10
32.557560
20
366.106936
11
32.557560
21
366.106936
0
LINE
8
annotation
62
1
39
211
10
32.557560
20
366.106936
11
32.746973
21
366.123967
0
LINE
8
annotation
62
1
39
211
10
32.746973
20
366.123967
11
32.925365
21
366.173065
0
LINE
8
annotation
62
1
39
211
10
32.925365
20
366.173065
11
33.089728
21
366.251240
0
LINE
8
annotation
62
1
39
211
10
33.089728
20
366.251240
11
33.237056
21
366.355503
0
LINE
8
annotation
62
1
39
211
10
33.237056
20
366.355503
11
33.364340
21
366.482863
0
LINE
8
annotation
62
1
39
211
10
33.364340
20
366.482863
11
33.468574
21
366.630329
0
LINE
8
annotation
62
1
39
211
10
33.468574
20
366.630329
11
33.546751
21
366.794913
0
LINE
8
annotation
62
1
39
211
10
33.546751
20
366.794913
11
33.595862
21
366.973623
0
LINE
8
annotation
62
1
39
211
10
33.595862
20
366.973623
11
33.612900
21
367.163469
0
LINE
8
annotation
62
1
39
211
10
33.612900
20
367.163469
11
33.612900
21
367.689202
0
LINE
8
annotation
62
1
39
211
10
33.612900
20
367.689202
11
33.612900
21
367.689202
0
LINE
8
annotation
62
1
39
211
10
33.612900
20
367.689202
11
33.595871
21
367.878957
0
LINE
8
annotation
62
1
39
211
10
33.595871
20
367.878957
11
33.546785
21
368.057420
0
LINE
8
annotation
62
1
39
211
10
33.546785
20
368.057420
11
33.468641
21
368.221647
0
LINE
8
annotation
62
1
39
211
10
33.468641
20
368.221647
11
33.364438
21
368.368690
0
LINE
8
annotation
62
1
39
211
10
33.364438
20
368.368690
11
33.237178
21
368.495605
0
LINE
8
annotation
62
1
39
211
10
33.237178
20
368.495605
11
33.089861
21
368.599444
0
LINE
8
annotation
62
1
39
211
10
33.089861
20
368.599444
11
32.925485
21
368.677263
0
LINE
8
annotation
62
1
39
211
10
32.925485
20
368.677263
11
32.747051
21
368.726114
0
LINE
8
annotation
62
1
39
211
10
32.747051
20
368.726114
11
32.557560
21
368.743053
0
LINE
8
annotation
62
1
39
211
10
32.557560
20
368.743053
11
31.502219
21
368.743053
0
LINE
8
annotation
62
1
39
211
10
31.502219
20
368.743053
11
31.502219
21
370.859396
0
LINE
8
annotation
62
1
39
211
10
31.502219
20
370.859396
11
33.612900
21
370.859396
0
LINE
8
boundary
62
5
39
2
10
124.162905
20
329.012557
11
124.264867
21
328.231115
0
LINE
8
boundary
62
5
39
2
10
124.264867
20
328.231115
11
124.430172
21
326.934262
0
LINE
8
boundary
62
5
39
2
10
124.430172
20
326.934262
11
124.643692
21
325.440667
0
LINE
8
boundary
62
5
39
2
10
124.643692
20
325.440667
11
124.721417
21
324.908470
0
LINE
8
boundary
62
5
39
2
10
124.721417
20
324.908470
11
124.943592
21
323.479113
0
LINE
8
boundary
62
5
39
2
10
124.943592
20
323.479113
11
125.174967
21
322.049285
0
LINE
8
boundary
62
5
39
2
10
125.174967
20
322.049285
11
125.304543
21
321.251307
0
LINE
8
boundary
62
5
39
2
10
125.304543
20
321.251307
11
125.419483
21
320.586994
0
LINE
8
boundary
62
5
39
2
10
125.419483
20
320.586994
11
125.617299
21
319.423009
0
LINE
8
boundary
62
5
39
2
10
125.617299
20
319.423009
11
125.928325
21
317.668721
0
LINE
8
boundary
62
5
39
2
10
125.928325
20
317.668721
11
126.240189
21
315.990354
0
LINE
8
boundary
62
5
39
2
10
126.240189
20
315.990354
11
126.544210
21
314.384426
0
LINE
8
boundary
62
5
39
2
10
126.544210
20
314.384426
11
126.696486
21
313.574543
0
LINE
8
boundary
62
5
39
2
10
126.696486
20
313.574543
11
126.858536
21
312.748328
0
LINE
8
boundary
62
5
39
2
10
126.858536
20
312.748328
11
127.095749
21
311.516902
0
LINE
8
boundary
62
5
39
2
10
127.095749
20
311.516902
11
127.207174
21
310.954875
0
LINE
8
boundary
62
5
39
2
10
127.207174
20
310.954875
11
127.520661
21
309.393295
0
LINE
8
boundary
62
5
39
2
10
127.520661
20
309.393295
11
127.813860
21
307.930956
0
LINE
8
boundary
62
5
39
2
10
127.813860
20
307.930956
11
127.957245
21
307.229473
0
LINE
8
boundary
62
5
39
2
10
127.957245
20
307.229473
11
128.372371
21
305.188929
0
LINE
8
boundary
62
5
39
2
10
128.372371
20
305.188929
11
128.566602
21
304.247660
0
LINE
8
boundary
62
5
39
2
10
128.566602
20
304.247660
11
128.877670
21
302.765993
0
LINE
8
boundary
62
5
39
2
10
128.877670
20
302.765993
11
129.365702
21
300.460559
0
LINE
8
boundary
62
5
39
2
10
129.365702
20
300.460559
11
129.538101
21
299.640761
0
LINE
8
boundary
62
5
39
2
10
129.538101
20
299.640761
11
129.863195
21
298.123668
0
LINE
8
boundary
62
5
39
2
10
129.863195
20
298.123668
11
130.145803
21
296.791731
0
LINE
8
boundary
62
5
39
2
10
130.145803
20
296.791731
11
130.369065
21
295.758578
0
LINE
8
boundary
62
5
39
2
10
130.369065
20
295.758578
11
130.765256
21
293.905989
0
LINE
8
boundary
62
5
39
2
10
130.765256
20
293.905989
11
130.882263
21
293.368494
0
LINE
8
boundary
62
5
39
2
10
130.882263
20
293.368494
11
131.394647
21
290.989282
0
LINE
8
boundary
62
5
39
2
10
131.394647
20
290.989282
11
131.937265
21
288.508920
0
LINE
8
boundary
62
5
39
2
10
131.937265
20
288.508920
11
132.476943
21
286.046302
0
LINE
8
boundary
62
5
39
2
10
132.476943
20
286.046302
11
132.689380
21
285.066446
0
LINE
8
boundary
62
5
39
2
10
132.689380
20
285.066446
11
133.019357
21
283.572529
0
LINE
8
boundary
62
5
39
2
10
133.019357
20
283.572529
11
133.342344
21
282.089182
0
LINE
8
boundary
62
5
39
2
10
133.342344
20
282.089182
11
133.563807
21
281.090173
0
LINE
8
boundary
62
5
39
2
10
133.563807
20
281.090173
11
133.997107
21
279.107867
0
LINE
8
boundary
62
5
39
2
10
133.997107
20
279.107867
11
134.109681
21
278.601631
0
LINE
8
boundary
62
5
39
2
10
134.109681
20
278.601631
11
134.652484
21
276.126815
0
LINE
8
boundary
62
5
39
2
10
134.652484
20
276.126815
11
135.209292
21
273.606428
0
LINE
8
boundary
62
5
39
2
10
135.209292
20
273.606428
11
135.761464
21
271.105437
0
LINE
8
boundary
62
5
39
2
10
135.761464
20
271.105437
11
136.504714
21
267.716545
0
LINE
8
boundary
62
5
39
2
10
136.504714
20
267.716545
11
137.226937
21
264.459781
0
LINE
8
boundary
62
5
39
2
10
137.226937
20
264.459781
11
138.318526
21
259.513139
0
LINE
8
boundary
62
5
39
2
10
138.318526
20
259.513139
11
138.680450
21
257.869021
0
LINE
8
boundary
62
5
39
2
10
138.680450
20
257.869021
11
138.813503
21
257.262082
0
LINE
8
boundary
62
5
39
2
10
138.813503
20
257.262082
11
139.762559
21
252.975873
0
LINE
8
boundary
62
5
39
2
10
139.762559
20
252.975873
11
140.277234
21
250.642687
0
LINE
8
boundary
62
5
39
2
10
140.277234
20
250.642687
11
140.833310
21
248.140782
0
LINE
8
boundary
62
5
39
2
10
140.833310
20
248.140782
11
141.702869
21
244.222419
0
LINE
8
boundary
62
5
39
2
10
141.702869
20
244.222419
11
141.892811
21
243.370664
0
LINE
8
boundary
62
5
39
2
10
141.892811
20
243.370664
11
142.411146
21
241.044669
0
LINE
8
boundary
62
5
39
2
10
142.411146
20
241.044669
11
142.942206
21
238.670113
0
LINE
8
boundary
62
5
39
2
10
142.942206
20
238.670113
11
143.463313
21
236.347537
0
LINE
8
boundary
62
5
39
2
10
143.463313
20
236.347537
11
143.589747
21
235.786808
0
LINE
8
boundary
62
5
39
2
10
143.589747
20
235.786808
11
143.981823
21
234.044900
0
LINE
8
boundary
62
5
39
2
10
143.981823
20
234.044900
11
144.172297
21
233.204592
0
LINE
8
boundary
62
5
39
2
10
144.172297
20
233.204592
11
144.497881
21
231.762676
0
LINE
8
boundary
62
5
39
2
10
144.497881
20
231.762676
11
144.750744
21
230.653116
0
LINE
8
boundary
62
5
39
2
10
144.750744
20
230.653116
11
145.011856
21
229.500558
0
LINE
8
boundary
62
5
39
2
10
145.011856
20
229.500558
11
145.325767
21
228.130782
0
LINE
8
boundary
62
5
39
2
10
145.325767
20
228.130782
11
145.524412
21
227.257111
0
LINE
8
boundary
62
5
39
2
10
145.524412
20
227.257111
11
145.898255
21
225.635098
0
LINE
8
boundary
62
5
39
2
10
145.898255
20
225.635098
11
146.036171
21
225.030884
0
LINE
8
boundary
62
5
39
2
10
146.036171
20
225.030884
11
146.469071
21
223.163650
0
LINE
8
boundary
62
5
39
2
10
146.469071
20
223.163650
11
147.038989
21
220.714097
0
LINE
8
boundary
62
5
39
2
10
147.038989
20
220.714097
11
147.243354
21
219.842653
0
LINE
8
boundary
62
5
39
2
10
147.243354
20
219.842653
11
147.914646
21
216.991072
0
LINE
8
boundary
62
5
39
2
10
147.914646
20
216.991072
11
148.051497
21
216.423766
0
LINE
8
boundary
62
5
39
2
10
148.051497
20
216.423766
11
148.773425
21
213.388642
0
LINE
8
boundary
62
5
39
2
10
148.773425
20
213.388642
11
149.084851
21
212.112518
0
LINE
8
boundary
62
5
39
2
10
149.084851
20
212.112518
11
149.637534
21
209.812944
0
LINE
8
boundary
62
5
39
2
10
149.637534
20
209.812944
11
150.124649
21
207.839115
0
LINE
8
boundary
62
5
39
2
10
150.124649
20
207.839115
11
150.508326
21
206.259195
0
LINE
8
boundary
62
5
39
2
10
150.508326
20
206.259195
11
151.173258
21
203.593554
0
LINE
8
boundary
62
5
39
2
10
151.173258
20
203.593554
11
151.386868
21
202.722900
0
LINE
8
boundary
62
5
39
2
10
151.386868
20
202.722900
11
152.232661
21
199.366626
0
LINE
8
boundary
62
5
39
2
10
152.232661
20
199.366626
11
152.484738
21
198.371577
0
LINE
8
boundary
62
5
39
2
10
152.484738
20
198.371577
11
153.169163
21
195.682934
0
LINE
8
boundary
62
5
39
2
10
153.169163
20
195.682934
11
153.313076
21
195.130575
0
LINE
8
boundary
62
5
39
2
10
153.313076
20
195.130575
11
154.073036
21
192.171128
0
LINE
8
boundary
62
5
39
2
10
154.073036
20
192.171128
11
154.410862
21
190.883817
0
LINE
8
boundary
62
5
39
2
10
154.410862
20
190.883817
11
154.986009
21
188.661858
0
LINE
8
boundary
62
5
39
2
10
154.986009
20
188.661858
11
155.524124
21
186.623837
0
LINE
8
boundary
62
5
39
2
10
155.524124
20
186.623837
11
155.907918
21
185.151704
0
LINE
8
boundary
62
5
39
2
10
155.907918
20
185.151704
11
156.653131
21
182.343402
0
LINE
8
boundary
62
5
39
2
10
156.653131
20
182.343402
11
156.838337
21
181.637437
0
LINE
8
boundary
62
5
39
2
10
156.838337
20
181.637437
11
157.269144
21
180.019750
0
LINE
8
boundary
62
5
39
2
10
157.269144
20
180.019750
11
157.681104
21
178.473409
0
LINE
8
boundary
62
5
39
2
10
157.681104
20
178.473409
11
158.246603
21
176.350569
0
LINE
8
boundary
62
5
39
2
10
158.246603
20
176.350569
11
158.381469
21
175.846455
0
LINE
8
boundary
62
5
39
2
10
158.381469
20
175.846455
11
158.718355
21
174.582771
0
LINE
8
boundary
62
5
39
2
10
158.718355
20
174.582771
11
158.967638
21
173.650873
0
LINE
8
boundary
62
5
39
2
10
158.967638
20
173.650873
11
159.191326
21
172.812103
0
LINE
8
boundary
62
5
39
2
10
159.191326
20
172.812103
11
159.557009
21
171.444423
0
LINE
8
boundary
62
5
39
2
10
159.557009
20
171.444423
11
160.102992
21
169.399911
0
LINE
8
boundary
62
5
39
2
10
160.102992
20
169.399911
11
160.614043
21
167.479749
0
LINE
8
boundary
62
5
39
2
10
160.614043
20
167.479749
11
160.747008
21
166.979575
0
LINE
8
boundary
62
5
39
2
10
160.747008
20
166.979575
11
161.088248
21
165.694807
0
LINE
8
boundary
62
5
39
2
10
161.088248
20
165.694807
11
161.346372
21
164.720973
0
LINE
8
boundary
62
5
39
2
10
161.346372
20
164.720973
11
161.562328
21
163.905984
0
LINE
8
boundary
62
5
39
2
10
161.562328
20
163.905984
11
161.947228
21
162.449054
0
LINE
8
boundary
62
5
39
2
10
161.947228
20
162.449054
11
162.361915
21
160.875460
0
LINE
8
boundary
62
5
39
2
10
162.361915
20
160.875460
11
162.508655
21
160.315941
0
LINE
8
boundary
62
5
39
2
10
162.508655
20
160.315941
11
162.979406
21
158.514879
0
LINE
8
boundary
62
5
39
2
10
162.979406
20
158.514879
11
163.119084
21
157.977685
0
LINE
8
boundary
62
5
39
2
10
163.119084
20
157.977685
11
163.449554
21
156.709600
0
LINE
8
boundary
62
5
39
2
10
163.449554
20
156.709600
11
163.697333
21
155.753380
0
LINE
8
boundary
62
5
39
2
10
163.697333
20
155.753380
11
163.919082
21
154.900023
0
LINE
8
boundary
62
5
39
2
10
163.919082
20
154.900023
11
164.276389
21
153.516674
0
LINE
8
boundary
62
5
39
2
10
164.276389
20
153.516674
11
164.855917
21
151.269058
0
LINE
8
boundary
62
5
39
2
10
164.855917
20
151.269058
11
165.321211
21
149.446517
0
LINE
8
boundary
62
5
39
2
10
165.321211
20
149.446517
11
165.785435
21
147.621461
0
LINE
8
boundary
62
5
39
2
10
165.785435
20
147.621461
11
166.018251
21
146.700702
0
LINE
8
boundary
62
5
39
2
10
166.018251
20
146.700702
11
166.249022
21
145.792332
0
LINE
8
boundary
62
5
39
2
10
166.249022
20
145.792332
11
167.135498
21
142.276887
0
LINE
8
boundary
62
5
39
2
10
167.135498
20
142.276887
11
168.090362
21
138.444691
0
LINE
8
boundary
62
5
39
2
10
168.090362
20
138.444691
11
168.825020
21
135.477671
0
LINE
8
boundary
62
5
39
2
10
168.825020
20
135.477671
11
169.004860
21
134.754284
0
LINE
8
boundary
62
5
39
2
10
169.004860
20
134.754284
11
169.227165
21
133.855687
0
LINE
8
boundary
62
5
39
2
10
169.227165
20
133.855687
11
169.911878
21
131.060484
0
LINE
8
boundary
62
5
39
2
10
169.911878
20
131.060484
11
170.506353
21
128.626180
0
LINE
8
boundary
62
5
39
2
10
170.506353
20
128.626180
11
170.816566
21
127.360646
0
LINE
8
boundary
62
5
39
2
10
170.816566
20
127.360646
11
171.156796
21
125.970878
0
LINE
8
boundary
62
5
39
2
10
171.156796
20
125.970878
11
171.716268
21
123.660258
0
LINE
8
boundary
62
5
39
2
10
171.716268
20
123.660258
11
172.271093
21
121.371845
0
LINE
8
boundary
62
5
39
2
10
172.271093
20
121.371845
11
172.614615
21
119.959380
0
LINE
8
boundary
62
5
39
2
10
172.614615
20
119.959380
11
172.944607
21
118.607206
0
LINE
8
boundary
62
5
39
2
10
172.944607
20
118.607206
11
173.510529
21
116.260959
0
LINE
8
boundary
62
5
39
2
10
173.510529
20
116.260959
11
174.168597
21
113.550749
0
LINE
8
boundary
62
5
39
2
10
174.168597
20
113.550749
11
174.408488
21
112.565008
0
LINE
8
boundary
62
5
39
2
10
174.408488
20
112.565008
11
174.605045
21
111.764559
0
LINE
8
boundary
62
5
39
2
10
174.605045
20
111.764559
11
175.306615
21
108.873160
0
LINE
8
boundary
62
5
39
2
10
175.306615
20
108.873160
11
176.148068
21
105.448467
0
LINE
8
boundary
62
5
39
2
10
176.148068
20
105.448467
11
176.275454
21
104.927248
0
LINE
8
boundary
62
5
39
2
10
176.275454
20
104.927248
11
176.938941
21
102.234407
0
LINE
8
boundary
62
5
39
2
10
176.938941
20
102.234407
11
177.580428
21
99.667630
0
LINE
8
boundary
62
5
39
2
10
177.580428
20
99.667630
11
177.740575
21
99.022379
0
LINE
8
boundary
62
5
39
2
10
177.740575
20
99.022379
11
178.415708
21
96.329289
0
LINE
8
boundary
62
5
39
2
10
178.415708
20
96.329289
11
179.042742
21
93.875166
0
LINE
8
boundary
62
5
39
2
10
179.042742
20
93.875166
11
179.170384
21
93.375345
0
LINE
8
boundary
62
5
39
2
10
179.170384
20
93.375345
11
179.332405
21
92.753685
0
LINE
8
boundary
62
5
39
2
10
179.332405
20
92.753685
11
179.936221
21
90.401262
0
LINE
8
boundary
62
5
39
2
10
179.936221
20
90.401262
11
180.509822
21
88.216602
0
LINE
8
boundary
62
5
39
2
10
180.509822
20
88.216602
11
180.717722
21
87.423213
0
LINE
8
boundary
62
5
39
2
10
180.717722
20
87.423213
11
180.928810
21
86.635595
0
LINE
8
boundary
62
5
39
2
10
180.928810
20
86.635595
11
181.515622
21
84.419018
0
LINE
8
boundary
62
5
39
2
10
181.515622
20
84.419018
11
182.047952
21
82.453168
0
LINE
8
boundary
62
5
39
2
10
182.047952
20
82.453168
11
182.332582
21
81.392350
0
LINE
8
boundary
62
5
39
2
10
182.332582
20
81.392350
11
183.118825
21
78.529934
0
LINE
8
boundary
62
5
39
2
10
183.118825
20
78.529934
11
183.433510
21
77.398598
0
LINE
8
boundary
62
5
39
2
10
183.433510
20
77.398598
11
184.036144
21
75.238053
0
LINE
8
boundary
62
5
39
2
10
184.036144
20
75.238053
11
184.311920
21
74.282637
0
LINE
8
boundary
62
5
39
2
10
184.311920
20
74.282637
11
185.174101
21
71.278711
0
LINE
8
boundary
62
5
39
2
10
185.174101
20
71.278711
11
185.862784
21
68.896965
0
LINE
8
boundary
62
5
39
2
10
185.862784
20
68.896965
11
186.184648
21
67.828294
0
LINE
8
boundary
62
5
39
2
10
186.184648
20
67.828294
11
186.533538
21
66.686965
0
LINE
8
boundary
62
5
39
2
10
186.533538
20
66.686965
11
187.199390
21
64.481855
0
LINE
8
boundary
62
5
39
2
10
187.199390
20
64.481855
11
187.865380
21
62.316677
0
LINE
8
boundary
62
5
39
2
10
187.865380
20
62.316677
11
188.227206
21
61.187759
0
LINE
8
boundary
62
5
39
2
10
188.227206
20
61.187759
11
188.563726
21
60.162227
0
LINE
8
boundary
62
5
39
2
10
188.563726
20
60.162227
11
189.278394
21
57.950465
0
LINE
8
boundary
62
5
39
2
10
189.278394
20
57.950465
11
189.519951
21
57.190629
0
LINE
8
boundary
62
5
39
2
10
189.519951
20
57.190629
11
190.156500
21
55.294577
0
LINE
8
boundary
62
5
39
2
10
190.156500
20
55.294577
11
190.351215
21
54.723408
0
LINE
8
boundary
62
5
39
2
10
190.351215
20
54.723408
11
190.758494
21
53.527722
0
LINE
8
boundary
62
5
39
2
10
190.758494
20
53.527722
11
191.136886
21
52.447731
0
LINE
8
boundary
62
5
39
2
10
191.136886
20
52.447731
11
191.453963
21
51.547710
0
LINE
8
boundary
62
5
39
2
10
191.453963
20
51.547710
11
191.832599
21
50.481524
0
LINE
8
boundary
62
5
39
2
10
191.832599
20
50.481524
11
192.215601
21
49.433889
0
LINE
8
boundary
62
5
39
2
10
192.215601
20
49.433889
11
192.397855
21
48.930593
0
LINE
8
boundary
62
5
39
2
10
192.397855
20
48.930593
11
192.586140
21
48.425412
0
LINE
8
boundary
62
5
39
2
10
192.586140
20
48.425412
11
192.985359
21
47.356282
0
LINE
8
boundary
62
5
39
2
10
192.985359
20
47.356282
11
193.427746
21
46.203741
0
LINE
8
boundary
62
5
39
2
10
193.427746
20
46.203741
11
193.752339
21
45.361448
0
LINE
8
boundary
62
5
39
2
10
193.752339
20
45.361448
11
194.125959
21
44.408917
0
LINE
8
boundary
62
5
39
2
10
194.125959
20
44.408917
11
194.550131
21
43.350130
0
LINE
8
boundary
62
5
39
2
10
194.550131
20
43.350130
11
194.803824
21
42.727321
0
LINE
8
boundary
62
5
39
2
10
194.803824
20
42.727321
11
195.163651
21
41.846702
0
LINE
8
boundary
62
5
39
2
10
195.163651
20
41.846702
11
195.363372
21
41.367532
0
LINE
8
boundary
62
5
39
2
10
195.363372
20
41.367532
11
195.701540
21
40.561124
0
LINE
8
boundary
62
5
39
2
10
195.701540
20
40.561124
11
196.195145
21
39.406996
0
LINE
8
boundary
62
5
39
2
10
196.195145
20
39.406996
11
196.819307
21
37.980800
0
LINE
8
boundary
62
5
39
2
10
196.819307
20
37.980800
11
197.044711
21
37.475655
0
LINE
8
boundary
62
5
39
2
10
197.044711
20
37.475655
11
197.398497
21
36.691730
0
LINE
8
boundary
62
5
39
2
10
197.398497
20
36.691730
11
197.917165
21
35.563653
0
LINE
8
boundary
62
5
39
2
10
197.917165
20
35.563653
11
198.158680
21
35.051980
0
LINE
8
boundary
62
5
39
2
10
198.158680
20
35.051980
11
198.600655
21
34.117359
0
LINE
8
boundary
62
5
39
2
10
198.600655
20
34.117359
11
199.222041
21
32.840630
0
LINE
8
boundary
62
5
39
2
10
199.222041
20
32.840630
11
199.732321
21
31.816199
0
LINE
8
boundary
62
5
39
2
10
199.732321
20
31.816199
11
200.143109
21
31.016232
0
LINE
8
boundary
62
5
39
2
10
200.143109
20
31.016232
11
200.508858
21
30.305130
0
LINE
8
boundary
62
5
39
2
10
200.508858
20
30.305130
11
201.170913
21
29.058492
0
LINE
8
boundary
62
5
39
2
10
201.170913
20
29.058492
11
201.646474
21
28.181597
0
LINE
8
boundary
62
5
39
2
10
201.646474
20
28.181597
11
202.311002
21
26.997199
0
LINE
8
boundary
62
5
39
2
10
202.311002
20
26.997199
11
202.638988
21
26.416060
0
LINE
8
boundary
62
5
39
2
10
202.638988
20
26.416060
11
203.236913
21
25.394601
0
LINE
8
boundary
62
5
39
2
10
203.236913
20
25.394601
11
203.650435
21
24.697255
0
LINE
8
boundary
62
5
39
2
10
203.650435
20
24.697255
11
203.950041
21
24.206981
0
LINE
8
boundary
62
5
39
2
10
203.950041
20
24.206981
11
204.657600
21
23.062909
0
LINE
8
boundary
62
5
39
2
10
204.657600
20
23.062909
11
205.408295
21
21.898589
0
LINE
8
boundary
62
5
39
2
10
205.408295
20
21.898589
11
205.729631
21
21.406052
0
LINE
8
boundary
62
5
39
2
10
205.729631
20
21.406052
11
206.152686
21
20.781711
0
LINE
8
boundary
62
5
39
2
10
206.152686
20
20.781711
11
206.792859
21
19.845566
0
LINE
8
boundary
62
5
39
2
10
206.792859
20
19.845566
11
207.195486
21
19.284555
0
LINE
8
boundary
62
5
39
2
10
207.195486
20
19.284555
11
207.670938
21
18.623490
0
LINE
8
boundary
62
5
39
2
10
207.670938
20
18.623490
11
208.441371
21
17.597757
0
LINE
8
boundary
62
5
39
2
10
208.441371
20
17.597757
11
208.946192
21
16.938185
0
LINE
8
boundary
62
5
39
2
10
208.946192
20
16.938185
11
209.941346
21
15.711526
0
LINE
8
boundary
62
5
39
2
10
209.941346
20
15.711526
11
210.800271
21
14.717071
0
LINE
8
boundary
62
5
39
2
10
210.800271
20
14.717071
11
211.598730
21
13.840065
0
LINE
8
boundary
62
5
39
2
10
211.598730
20
13.840065
11
212.209018
21
13.190445
0
LINE
8
boundary
62
5
39
2
10
212.209018
20
13.190445
11
212.973182
21
12.436340
0
LINE
8
boundary
62
5
39
2
10
212.973182
20
12.436340
11
214.017293
21
11.466879
0
LINE
8
boundary
62
5
39
2
10
214.017293
20
11.466879
11
214.825139
21
10.770519
0
LINE
8
boundary
62
5
39
2
10
214.825139
20
10.770519
11
215.413403
21
10.281824
0
LINE
8
boundary
62
5
39
2
10
215.413403
20
10.281824
11
216.388146
21
9.543395
0
LINE
8
boundary
62
5
39
2
10
216.388146
20
9.543395
11
217.231584
21
8.968020
0
LINE
8
boundary
62
5
39
2
10
217.231584
20
8.968020
11
218.020327
21
8.476817
0
LINE
8
boundary
62
5
39
2
10
218.020327
20
8.476817
11
218.638496
21
8.116886
0
LINE
8
boundary
62
5
39
2
10
218.638496
20
8.116886
11
219.388089
21
7.728574
0
LINE
8
boundary
62
5
39
2
10
219.388089
20
7.728574
11
219.850530
21
7.514701
0
LINE
8
boundary
62
5
39
2
10
219.850530
20
7.514701
11
220.436319
21
7.274228
0
LINE
8
boundary
62
5
39
2
10
220.436319
20
7.274228
11
220.938814
21
7.095850
0
LINE
8
boundary
62
5
39
2
10
220.938814
20
7.095850
11
221.548339
21
6.918558
0
LINE
8
boundary
62
5
39
2
10
221.548339
20
6.918558
11
222.259347
21
6.769710
0
LINE
8
boundary
62
5
39
2
10
222.259347
20
6.769710
11
222.789831
21
6.700000
0
LINE
8
boundary
62
5
39
2
10
222.789831
20
6.700000
11
223.329320
21
6.671421
0
LINE
8
boundary
62
5
39
2
10
223.329320
20
6.671421
11
223.871899
21
6.676913
0
LINE
8
boundary
62
5
39
2
10
223.871899
20
6.676913
11
224.527330
21
6.747105
0
LINE
8
boundary
62
5
39
2
10
224.527330
20
6.747105
11
225.128959
21
6.886102
0
LINE
8
boundary
62
5
39
2
10
225.128959
20
6.886102
11
225.929920
21
7.225503
0
LINE
8
boundary
62
5
39
2
10
225.929920
20
7.225503
11
226.396470
21
7.541395
0
LINE
8
boundary
62
5
39
2
10
226.396470
20
7.541395
11
226.810093
21
7.928392
0
LINE
8
boundary
62
5
39
2
10
226.810093
20
7.928392
11
227.176667
21
8.381285
0
LINE
8
boundary
62
5
39
2
10
227.176667
20
8.381285
11
227.504143
21
8.897013
0
LINE
8
boundary
62
5
39
2
10
227.504143
20
8.897013
11
227.742297
21
9.355562
0
LINE
8
boundary
62
5
39
2
10
227.742297
20
9.355562
11
228.053360
21
10.066307
0
LINE
8
boundary
62
5
39
2
10
228.053360
20
10.066307
11
228.307525
21
10.769403
0
LINE
8
boundary
62
5
39
2
10
228.307525
20
10.769403
11
228.405226
21
11.278760
0
LINE
8
boundary
62
5
39
2
10
228.405226
20
11.278760
11
220.780959
21
11.278760
0
LINE
8
boundary
62
5
39
2
10
220.780959
20
11.278760
11
220.780959
21
14.024760
0
LINE
8
boundary
62
5
39
2
10
220.780959
20
14.024760
11
228.913053
21
14.024760
0
LINE
8
boundary
62
5
39
2
10
228.913053
20
14.024760
11
228.959552
21
15.180919
0
LINE
8
boundary
62
5
39
2
10
228.959552
20
15.180919
11
228.955671
21
16.272061
0
LINE
8
boundary
62
5
39
2
10
228.955671
20
16.272061
11
228.941323
21
16.826917
0
LINE
8
boundary
62
5
39
2
10
228.941323
20
16.826917
11
228.916280
21
17.446708
0
LINE
8
boundary
62
5
39
2
10
228.916280
20
17.446708
11
228.858398
21
18.466810
0
LINE
8
boundary
62
5
39
2
10
228.858398
20
18.466810
11
228.790961
21
19.308919
0
LINE
8
boundary
62
5
39
2
10
228.790961
20
19.308919
11
228.730472
21
20.017081
0
LINE
8
boundary
62
5
39
2
10
228.730472
20
20.017081
11
228.579961
21
21.407917
0
LINE
8
boundary
62
5
39
2
10
228.579961
20
21.407917
11
228.464724
21
22.342639
0
LINE
8
boundary
62
5
39
2
10
228.464724
20
22.342639
11
228.394677
21
22.867781
0
LINE
8
boundary
62
5
39
2
10
228.394677
20
22.867781
11
228.228544
21
24.014407
0
LINE
8
boundary
62
5
39
2
10
228.228544
20
24.014407
11
228.143672
21
24.581741
0
LINE
8
boundary
62
5
39
2
10
228.143672
20
24.581741
11
227.910711
21
25.990959
0
LINE
8
boundary
62
5
39
2
10
227.910711
20
25.990959
11
227.725527
21
27.031121
0
LINE
8
boundary
62
5
39
2
10
227.725527
20
27.031121
11
227.454134
21
28.503643
0
LINE
8
boundary
62
5
39
2
10
227.454134
20
28.503643
11
227.223256
21
29.666723
0
LINE
8
boundary
62
5
39
2
10
227.223256
20
29.666723
11
227.114260
21
30.200921
0
LINE
8
boundary
62
5
39
2
10
227.114260
20
30.200921
11
213.569692
21
30.200921
0
LINE
8
boundary
62
5
39
2
10
213.569692
20
30.200921
11
213.569692
21
32.946920
0
LINE
8
boundary
62
5
39
2
10
213.569692
20
32.946920
11
226.485682
21
32.946921
0
LINE
8
boundary
62
5
39
2
10
226.485682
20
32.946921
11
226.309671
21
33.937791
0
LINE
8
boundary
62
5
39
2
10
226.309671
20
33.937791
11
225.955062
21
35.461421
0
LINE
8
boundary
62
5
39
2
10
225.955062
20
35.461421
11
225.625827
21
36.848365
0
LINE
8
boundary
62
5
39
2
10
225.625827
20
36.848365
11
225.195142
21
38.588871
0
LINE
8
boundary
62
5
39
2
10
225.195142
20
38.588871
11
224.869134
21
39.883530
0
LINE
8
boundary
62
5
39
2
10
224.869134
20
39.883530
11
224.356278
21
41.849001
0
LINE
8
boundary
62
5
39
2
10
224.356278
20
41.849001
11
224.038544
21
43.042658
0
LINE
8
boundary
62
5
39
2
10
224.038544
20
43.042658
11
223.176783
21
46.192237
0
LINE
8
boundary
62
5
39
2
10
223.176783
20
46.192237
11
222.380003
21
48.973083
0
LINE
8
boundary
62
5
39
2
10
222.380003
20
48.973083
11
207.007283
21
49.123082
0
LINE
8
boundary
62
5
39
2
10
207.007283
20
49.123082
11
207.007283
21
51.869081
0
LINE
8
boundary
62
5
39
2
10
207.007283
20
51.869081
11
221.475755
21
51.869082
0
LINE
8
boundary
62
5
39
2
10
221.475755
20
51.869082
11
221.113292
21
53.266029
0
LINE
8
boundary
62
5
39
2
10
221.113292
20
53.266029
11
220.295015
21
55.955039
0
LINE
8
boundary
62
5
39
2
10
220.295015
20
55.955039
11
219.992873
21
56.930414
0
LINE
8
boundary
62
5
39
2
10
219.992873
20
56.930414
11
219.018783
21
60.027951
0
LINE
8
boundary
62
5
39
2
10
219.018783
20
60.027951
11
218.797418
21
60.730353
0
LINE
8
boundary
62
5
39
2
10
218.797418
20
60.730353
11
217.512058
21
64.680830
0
LINE
8
boundary
62
5
39
2
10
217.512058
20
64.680830
11
216.462782
21
67.895244
0
LINE
8
boundary
62
5
39
2
10
216.462782
20
67.895244
11
200.905130
21
68.045242
0
LINE
8
boundary
62
5
39
2
10
200.905130
20
68.045242
11
200.905130
21
70.791242
0
LINE
8
boundary
62
5
39
2
10
200.905130
20
70.791242
11
215.436929
21
70.791243
0
LINE
8
boundary
62
5
39
2
10
215.436929
20
70.791243
11
214.761148
21
72.983208
0
LINE
8
boundary
62
5
39
2
10
214.761148
20
72.983208
11
213.509198
21
76.732966
0
LINE
8
boundary
62
5
39
2
10
213.509198
20
76.732966
11
213.304108
21
77.332270
0
LINE
8
boundary
62
5
39
2
10
213.304108
20
77.332270
11
213.057278
21
78.060506
0
LINE
8
boundary
62
5
39
2
10
213.057278
20
78.060506
11
211.772961
21
81.830684
0
LINE
8
boundary
62
5
39
2
10
211.772961
20
81.830684
11
210.687551
21
85.057941
0
LINE
8
boundary
62
5
39
2
10
210.687551
20
85.057941
11
210.214307
21
86.441443
0
LINE
8
boundary
62
5
39
2
10
210.214307
20
86.441443
11
210.036208
21
86.967404
0
LINE
8
boundary
62
5
39
2
10
210.036208
20
86.967404
11
195.072072
21
86.967404
0
LINE
8
boundary
62
5
39
2
10
195.072072
20
86.967404
11
195.072072
21
89.713404
0
LINE
8
boundary
62
5
39
2
10
195.072072
20
89.713404
11
209.043561
21
89.713403
0
LINE
8
boundary
62
5
39
2
10
209.043561
20
89.713403
11
208.602304
21
91.184255
0
LINE
8
boundary
62
5
39
2
10
208.602304
20
91.184255
11
207.753747
21
93.698285
0
LINE
8
boundary
62
5
39
2
10
207.753747
20
93.698285
11
206.954753
21
96.042170
0
LINE
8
boundary
62
5
39
2
10
206.954753
20
96.042170
11
206.248329
21
98.146329
0
LINE
8
boundary
62
5
39
2
10
206.248329
20
98.146329
11
205.278354
21
101.005799
0
LINE
8
boundary
62
5
39
2
10
205.278354
20
101.005799
11
204.718310
21
102.686104
0
LINE
8
boundary
62
5
39
2
10
204.718310
20
102.686104
11
203.689474
21
105.739564
0
LINE
8
boundary
62
5
39
2
10
203.689474
20
105.739564
11
189.489511
21
105.889564
0
LINE
8
boundary
62
5
39
2
10
189.489511
20
105.889564
11
189.489511
21
108.635565
0
LINE
8
boundary
62
5
39
2
10
189.489511
20
108.635565
11
202.665433
21
108.635564
0
LINE
8
boundary
62
5
39
2
10
202.665433
20
108.635564
11
201.867766
21
111.204299
0
LINE
8
boundary
62
5
39
2
10
201.867766
20
111.204299
11
201.585257
21
112.068919
0
LINE
8
boundary
62
5
39
2
10
201.585257
20
112.068919
11
200.150739
21
116.410390
0
LINE
8
boundary
62
5
39
2
10
200.150739
20
116.410390
11
199.979933
21
116.940066
0
LINE
8
boundary
62
5
39
2
10
199.979933
20
116.940066
11
198.438852
21
121.666295
0
LINE
8
boundary
62
5
39
2
10
198.438852
20
121.666295
11
197.430166
21
124.811725
0
LINE
8
boundary
62
5
39
2
10
197.430166
20
124.811725
11
184.118657
21
124.811725
0
LINE
8
boundary
62
5
39
2
10
184.118657
20
124.811725
11
184.118657
21
127.557725
0
LINE
8
boundary
62
5
39
2
10
184.118657
20
127.557725
11
196.495172
21
127.557725
0
LINE
8
boundary
62
5
39
2
10
196.495172
20
127.557725
11
195.068429
21
132.266134
0
LINE
8
boundary
62
5
39
2
10
195.068429
20
132.266134
11
193.419378
21
137.585316
0
LINE
8
boundary
62
5
39
2
10
193.419378
20
137.585316
11
192.811095
21
139.601624
0
LINE
8
boundary
62
5
39
2
10
192.811095
20
139.601624
11
192.617644
21
140.240456
0
LINE
8
boundary
62
5
39
2
10
192.617644
20
140.240456
11
192.122513
21
141.910481
0
LINE
8
boundary
62
5
39
2
10
192.122513
20
141.910481
11
191.824906
21
142.893793
0
LINE
8
boundary
62
5
39
2
10
191.824906
20
142.893793
11
191.620113
21
143.583888
0
LINE
8
boundary
62
5
39
2
10
191.620113
20
143.583888
11
178.893461
21
143.733886
0
LINE
8
boundary
62
5
39
2
10
178.893461
20
143.733886
11
178.893461
21
146.479886
0
LINE
8
boundary
62
5
39
2
10
178.893461
20
146.479886
11
190.711232
21
146.479886
0
LINE
8
boundary
62
5
39
2
10
190.711232
20
146.479886
11
190.266435
21
148.190379
0
LINE
8
boundary
62
5
39
2
10
190.266435
20
148.190379
11
189.625707
21
150.435867
0
LINE
8
boundary
62
5
39
2
10
189.625707
20
150.435867
11
189.194193
21
151.969782
0
LINE
8
boundary
62
5
39
2
10
189.194193
20
151.969782
11
188.768666
21
153.461358
0
LINE
8
boundary
62
5
39
2
10
188.768666
20
153.461358
11
188.630792
21
153.955710
0
LINE
8
boundary
62
5
39
2
10
188.630792
20
153.955710
11
188.035367
21
156.086471
0
LINE
8
boundary
62
5
39
2
10
188.035367
20
156.086471
11
187.668945
21
157.428429
0
LINE
8
boundary
62
5
39
2
10
187.668945
20
157.428429
11
187.320544
21
158.702510
0
LINE
8
boundary
62
5
39
2
10
187.320544
20
158.702510
11
186.743124
21
160.864554
0
LINE
8
boundary
62
5
39
2
10
186.743124
20
160.864554
11
186.272808
21
162.656047
0
LINE
8
boundary
62
5
39
2
10
186.272808
20
162.656047
11
173.847016
21
162.656047
0
LINE
8
boundary
62
5
39
2
10
173.847016
20
162.656047
11
173.847017
21
165.402047
0
LINE
8
boundary
62
5
39
2
10
173.847017
20
165.402047
11
185.503126
21
165.402047
0
LINE
8
boundary
62
5
39
2
10
185.503126
20
165.402047
11
185.195065
21
166.778744
0
LINE
8
boundary
62
5
39
2
10
185.195065
20
166.778744
11
184.851136
21
168.137582
0
LINE
8
boundary
62
5
39
2
10
184.851136
20
168.137582
11
184.471934
21
169.637467
0
LINE
8
boundary
62
5
39
2
10
184.471934
20
169.637467
11
183.907476
21
171.924194
0
LINE
8
boundary
62
5
39
2
10
183.907476
20
171.924194
11
183.770112
21
172.481723
0
LINE
8
boundary
62
5
39
2
10
183.770112
20
172.481723
11
183.355090
21
174.205047
0
LINE
8
boundary
62
5
39
2
10
183.355090
20
174.205047
11
183.083669
21
175.310348
0
LINE
8
boundary
62
5
39
2
10
183.083669
20
175.310348
11
182.409263
21
178.121855
0
LINE
8
boundary
62
5
39
2
10
182.409263
20
178.121855
11
182.126521
21
179.324010
0
LINE
8
boundary
62
5
39
2
10
182.126521
20
179.324010
11
181.753509
21
180.916635
0
LINE
8
boundary
62
5
39
2
10
181.753509
20
180.916635
11
181.635844
21
181.428209
0
LINE
8
boundary
62
5
39
2
10
181.635844
20
181.428209
11
168.992247
21
181.578208
0
LINE
8
boundary
62
5
39
2
10
168.992247
20
181.578208
11
168.992247
21
184.324208
0
LINE
8
boundary
62
5
39
2
10
168.992247
20
184.324208
11
180.929673
21
184.324208
0
LINE
8
boundary
62
5
39
2
10
180.929673
20
184.324208
11
180.563320
21
186.148056
0
LINE
8
boundary
62
5
39
2
10
180.563320
20
186.148056
11
179.877945
21
189.192479
0
LINE
8
boundary
62
5
39
2
10
179.877945
20
189.192479
11
179.683728
21
190.068989
0
LINE
8
boundary
62
5
39
2
10
179.683728
20
190.068989
11
179.278310
21
191.911837
0
LINE
8
boundary
62
5
39
2
10
179.278310
20
191.911837
11
178.920293
21
193.559544
0
LINE
8
boundary
62
5
39
2
10
178.920293
20
193.559544
11
178.693516
21
194.611505
0
LINE
8
boundary
62
5
39
2
10
178.693516
20
194.611505
11
178.181184
21
197.015061
0
LINE
8
boundary
62
5
39
2
10
178.181184
20
197.015061
11
177.921532
21
198.253399
0
LINE
8
boundary
62
5
39
2
10
177.921532
20
198.253399
11
177.560285
21
199.947704
0
LINE
8
boundary
62
5
39
2
10
177.560285
20
199.947704
11
177.443588
21
200.500369
0
LINE
8
boundary
62
5
39
2
10
177.443588
20
200.500369
11
164.478013
21
200.500369
0
LINE
8
boundary
62
5
39
2
10
164.478013
20
200.500369
11
164.478013
21
203.246369
0
LINE
8
boundary
62
5
39
2
10
164.478013
20
203.246369
11
176.829730
21
203.246369
0
LINE
8
boundary
62
5
39
2
10
176.829730
20
203.246369
11
176.322786
21
205.908725
0
LINE
8
boundary
62
5
39
2
10
176.322786
20
205.908725
11
175.939752
21
207.783506
0
LINE
8
boundary
62
5
39
2
10
175.939752
20
207.783506
11
175.463184
21
210.174737
0
LINE
8
boundary
62
5
39
2
10
175.463184
20
210.174737
11
174.910309
21
212.890767
0
LINE
8
boundary
62
5
39
2
10
174.910309
20
212.890767
11
174.496201
21
214.969292
0
LINE
8
boundary
62
5
39
2
10
174.496201
20
214.969292
11
173.917397
21
217.900208
0
LINE
8
boundary
62
5
39
2
10
173.917397
20
217.900208
11
173.651588
21
219.272532
0
LINE
8
boundary
62
5
39
2
10
173.651588
20
219.272532
11
160.288159
21
219.422530
0
LINE
8
boundary
62
5
39
2
10
160.288159
20
219.422530
11
160.288159
21
222.168530
0
LINE
8
boundary
62
5
39
2
10
160.288159
20
222.168530
11
173.048573
21
222.168530
0
LINE
8
boundary
62
5
39
2
10
173.048573
20
222.168530
11
172.961579
21
222.811095
0
LINE
8
boundary
62
5
39
2
10
172.961579
20
222.811095
11
172.779270
21
223.750398
0
LINE
8
boundary
62
5
39
2
10
172.779270
20
223.750398
11
172.035335
21
227.618473
0
LINE
8
boundary
62
5
39
2
10
172.035335
20
227.618473
11
171.152547
21
232.283387
0
LINE
8
boundary
62
5
39
2
10
171.152547
20
232.283387
11
170.280791
21
236.927674
0
LINE
8
boundary
62
5
39
2
10
170.280791
20
236.927674
11
170.046705
21
238.194693
0
LINE
8
boundary
62
5
39
2
10
170.046705
20
238.194693
11
156.336941
21
238.344690
0
LINE
8
boundary
62
5
39
2
10
156.336941
20
238.344690
11
156.336942
21
241.090691
0
LINE
8
boundary
62
5
39
2
10
156.336942
20
241.090691
11
169.474621
21
241.090691
0
LINE
8
boundary
62
5
39
2
10
169.474621
20
241.090691
11
169.268141
21
242.439686
0
LINE
8
boundary
62
5
39
2
10
169.268141
20
242.439686
11
168.649143
21
245.832995
0
LINE
8
boundary
62
5
39
2
10
168.649143
20
245.832995
11
167.917684
21
249.935513
0
LINE
8
boundary
62
5
39
2
10
167.917684
20
249.935513
11
167.730409
21
250.990788
0
LINE
8
boundary
62
5
39
2
10
167.730409
20
250.990788
11
167.584258
21
251.837666
0
LINE
8
boundary
62
5
39
2
10
167.584258
20
251.837666
11
166.858391
21
256.022831
0
LINE
8
boundary
62
5
39
2
10
166.858391
20
256.022831
11
166.675324
21
257.116855
0
LINE
8
boundary
62
5
39
2
10
166.675324
20
257.116855
11
152.556239
21
257.266852
0
LINE
8
boundary
62
5
39
2
10
152.556239
20
257.266852
11
152.556239
21
260.012852
0
LINE
8
boundary
62
5
39
2
10
152.556239
20
260.012852
11
166.155325
21
260.012852
0
LINE
8
boundary
62
5
39
2
10
166.155325
20
260.012852
11
166.074915
21
260.704944
0
LINE
8
boundary
62
5
39
2
10
166.074915
20
260.704944
11
165.988627
21
261.233637
0
LINE
8
boundary
62
5
39
2
10
165.988627
20
261.233637
11
165.263926
21
265.749615
0
LINE
8
boundary
62
5
39
2
10
165.263926
20
265.749615
11
164.725009
21
269.222438
0
LINE
8
boundary
62
5
39
2
10
164.725009
20
269.222438
11
164.534027
21
270.467346
0
LINE
8
boundary
62
5
39
2
10
164.534027
20
270.467346
11
164.293467
21
272.077785
0
LINE
8
boundary
62
5
39
2
10
164.293467
20
272.077785
11
163.839198
21
275.103608
0
LINE
8
boundary
62
5
39
2
10
163.839198
20
275.103608
11
163.678384
21
276.189012
0
LINE
8
boundary
62
5
39
2
10
163.678384
20
276.189012
11
148.983965
21
276.189013
0
LINE
8
boundary
62
5
39
2
10
148.983965
20
276.189013
11
148.983965
21
278.935013
0
LINE
8
boundary
62
5
39
2
10
148.983965
20
278.935013
11
163.243494
21
278.935012
0
LINE
8
boundary
62
5
39
2
10
163.243494
20
278.935012
11
163.169957
21
279.661429
0
LINE
8
boundary
62
5
39
2
10
163.169957
20
279.661429
11
162.750833
21
282.540564
0
LINE
8
boundary
62
5
39
2
10
162.750833
20
282.540564
11
162.515687
21
284.143868
0
LINE
8
boundary
62
5
39
2
10
162.515687
20
284.143868
11
162.333246
21
285.374741
0
LINE
8
boundary
62
5
39
2
10
162.333246
20
285.374741
11
162.082937
21
287.094655
0
LINE
8
boundary
62
5
39
2
10
162.082937
20
287.094655
11
161.929884
21
288.130661
0
LINE
8
boundary
62
5
39
2
10
161.929884
20
288.130661
11
161.648452
21
290.014078
0
LINE
8
boundary
62
5
39
2
10
161.648452
20
290.014078
11
161.225289
21
292.781569
0
LINE
8
boundary
62
5
39
2
10
161.225289
20
292.781569
11
160.859443
21
295.111173
0
LINE
8
boundary
62
5
39
2
10
160.859443
20
295.111173
11
145.516591
21
295.111173
0
LINE
8
boundary
62
5
39
2
10
145.516591
20
295.111173
11
145.516592
21
297.857173
0
LINE
8
boundary
62
5
39
2
10
145.516592
20
297.857173
11
160.379510
21
297.857173
0
LINE
8
boundary
62
5
39
2
10
160.379510
20
297.857173
11
160.098733
21
299.725554
0
LINE
8
boundary
62
5
39
2
10
160.098733
20
299.725554
11
159.953084
21
300.553931
0
LINE
8
boundary
62
5
39
2
10
159.953084
20
300.553931
11
159.692554
21
302.036713
0
LINE
8
boundary
62
5
39
2
10
159.692554
20
302.036713
11
159.585851
21
302.619687
0
LINE
8
boundary
62
5
39
2
10
159.585851
20
302.619687
11
159.313890
21
304.089837
0
LINE
8
boundary
62
5
39
2
10
159.313890
20
304.089837
11
159.047473
21
305.467651
0
LINE
8
boundary
62
5
39
2
10
159.047473
20
305.467651
11
158.920850
21
306.115629
0
LINE
8
boundary
62
5
39
2
10
158.920850
20
306.115629
11
158.588562
21
307.737305
0
LINE
8
boundary
62
5
39
2
10
158.588562
20
307.737305
11
158.479548
21
308.264776
0
LINE
8
boundary
62
5
39
2
10
158.479548
20
308.264776
11
158.084017
21
310.092218
0
LINE
8
boundary
62
5
39
2
10
158.084017
20
310.092218
11
157.873258
21
311.013747
0
LINE
8
boundary
62
5
39
2
10
157.873258
20
311.013747
11
157.636997
21
312.037749
0
LINE
8
boundary
62
5
39
2
10
157.636997
20
312.037749
11
157.231069
21
313.698637
0
LINE
8
boundary
62
5
39
2
10
157.231069
20
313.698637
11
141.747241
21
314.033334
0
LINE
8
boundary
62
5
39
2
10
141.747241
20
314.033334
11
141.747241
21
316.779334
0
LINE
8
boundary
62
5
39
2
10
141.747241
20
316.779334
11
156.361314
21
316.779335
0
LINE
8
boundary
62
5
39
2
10
156.361314
20
316.779335
11
156.161329
21
317.680617
0
LINE
8
boundary
62
5
39
2
10
156.161329
20
317.680617
11
155.806180
21
318.868891
0
LINE
8
boundary
62
5
39
2
10
155.806180
20
318.868891
11
155.619398
21
319.489339
0
LINE
8
boundary
62
5
39
2
10
155.619398
20
319.489339
11
155.113838
21
321.058921
0
LINE
8
boundary
62
5
39
2
10
155.113838
20
321.058921
11
154.450185
21
322.986949
0
LINE
8
boundary
62
5
39
2
10
154.450185
20
322.986949
11
154.180045
21
323.711000
0
LINE
8
boundary
62
5
39
2
10
154.180045
20
323.711000
11
153.820064
21
324.670054
0
LINE
8
boundary
62
5
39
2
10
153.820064
20
324.670054
11
153.462399
21
325.550934
0
LINE
8
boundary
62
5
39
2
10
153.462399
20
325.550934
11
153.157982
21
326.304873
0
LINE
8
boundary
62
5
39
2
10
153.157982
20
326.304873
11
152.486795
21
327.813199
0
LINE
8
boundary
62
5
39
2
10
152.486795
20
327.813199
11
152.223605
21
328.407255
0
LINE
8
boundary
62
5
39
2
10
152.223605
20
328.407255
11
151.234566
21
330.417607
0
LINE
8
boundary
62
5
39
2
10
151.234566
20
330.417607
11
150.678670
21
331.446872
0
LINE
8
boundary
62
5
39
2
10
150.678670
20
331.446872
11
150.197914
21
332.331355
0
LINE
8
boundary
62
5
39
2
10
150.197914
20
332.331355
11
149.916450
21
332.805495
0
LINE
8
boundary
62
5
39
2
10
149.916450
20
332.805495
11
136.450430
21
332.955495
0
LINE
8
boundary
62
5
39
2
10
136.450430
20
332.955495
11
136.450430
21
335.701495
0
LINE
8
boundary
62
5
39
2
10
136.450430
20
335.701495
11
147.999719
21
335.701495
0
LINE
8
boundary
62
5
39
2
10
147.999719
20
335.701495
11
146.855478
21
337.474577
0
LINE
8
boundary
62
5
39
2
10
146.855478
20
337.474577
11
146.368779
21
338.101949
0
LINE
8
boundary
62
5
39
2
10
146.368779
20
338.101949
11
145.683172
21
338.982561
0
LINE
8
boundary
62
5
39
2
10
145.683172
20
338.982561
11
144.890759
21
339.916270
0
LINE
8
boundary
62
5
39
2
10
144.890759
20
339.916270
11
144.491841
21
340.384893
0
LINE
8
boundary
62
5
39
2
10
144.491841
20
340.384893
11
143.416829
21
341.541476
0
LINE
8
boundary
62
5
39
2
10
143.416829
20
341.541476
11
142.647632
21
342.307331
0
LINE
8
boundary
62
5
39
2
10
142.647632
20
342.307331
11
142.074080
21
342.866933
0
LINE
8
boundary
62
5
39
2
10
142.074080
20
342.866933
11
140.858683
21
343.942160
0
LINE
8
boundary
62
5
39
2
10
140.858683
20
343.942160
11
139.646887
21
344.908294
0
LINE
8
boundary
62
5
39
2
10
139.646887
20
344.908294
11
139.144824
21
345.264987
0
LINE
8
boundary
62
5
39
2
10
139.144824
20
345.264987
11
138.444189
21
345.765225
0
LINE
8
boundary
62
5
39
2
10
138.444189
20
345.765225
11
137.798244
21
346.170425
0
LINE
8
boundary
62
5
39
2
10
137.798244
20
346.170425
11
137.256047
21
346.512989
0
LINE
8
boundary
62
5
39
2
10
137.256047
20
346.512989
11
136.500697
21
346.924537
0
LINE
8
boundary
62
5
39
2
10
136.500697
20
346.924537
11
135.257106
21
347.535634
0
LINE
8
boundary
62
5
39
2
10
135.257106
20
347.535634
11
134.071623
21
348.011735
0
LINE
8
boundary
62
5
39
2
10
134.071623
20
348.011735
11
132.947626
21
348.360684
0
LINE
8
boundary
62
5
39
2
10
132.947626
20
348.360684
11
131.887872
21
348.589947
0
LINE
8
boundary
62
5
39
2
10
131.887872
20
348.589947
11
130.894514
21
348.706672
0
LINE
8
boundary
62
5
39
2
10
130.894514
20
348.706672
11
129.969234
21
348.717554
0
LINE
8
boundary
62
5
39
2
10
129.969234
20
348.717554
11
129.113297
21
348.628826
0
LINE
8
boundary
62
5
39
2
10
129.113297
20
348.628826
11
128.327639
21
348.446317
0
LINE
8
boundary
62
5
39
2
10
128.327639
20
348.446317
11
127.612931
21
348.175277
0
LINE
8
boundary
62
5
39
2
10
127.612931
20
348.175277
11
126.968902
21
347.820574
0
LINE
8
boundary
62
5
39
2
10
126.968902
20
347.820574
11
126.392440
21
347.386966
0
LINE
8
boundary
62
5
39
2
10
126.392440
20
347.386966
11
125.879122
21
346.878609
0
LINE
8
boundary
62
5
39
2
10
125.879122
20
346.878609
11
125.424565
21
346.299287
0
LINE
8
boundary
62
5
39
2
10
125.424565
20
346.299287
11
125.083155
21
345.775319
0
LINE
8
boundary
62
5
39
2
10
125.083155
20
345.775319
11
124.681443
21
344.953579
0
LINE
8
boundary
62
5
39
2
10
124.681443
20
344.953579
11
124.391279
21
344.141444
0
LINE
8
boundary
62
5
39
2
10
124.391279
20
344.141444
11
124.152775
21
343.278454
0
LINE
8
boundary
62
5
39
2
10
124.152775
20
343.278454
11
123.956876
21
342.355765
0
LINE
8
boundary
62
5
39
2
10
123.956876
20
342.355765
11
123.858515
21
341.843409
0
LINE
8
boundary
62
5
39
2
10
123.858515
20
341.843409
11
123.703238
21
340.610223
0
LINE
8
boundary
62
5
39
2
10
123.703238
20
340.610223
11
123.604420
21
339.280392
0
LINE
8
boundary
62
5
39
2
10
123.604420
20
339.280392
11
123.572759
21
338.068320
0
LINE
8
boundary
62
5
39
2
10
123.572759
20
338.068320
11
123.577150
21
336.834698
0
LINE
8
boundary
62
5
39
2
10
123.577150
20
336.834698
11
123.581533
21
336.273537
0
LINE
8
boundary
62
5
39
2
10
123.581533
20
336.273537
11
123.612650
21
335.547009
0
LINE
8
boundary
62
5
39
2
10
123.612650
20
335.547009
11
123.649113
21
334.620710
0
LINE
8
boundary
62
5
39
2
10
123.649113
20
334.620710
11
123.766748
21
332.870565
0
LINE
8
boundary
62
5
39
2
10
123.766748
20
332.870565
11
123.909273
21
331.339813
0
LINE
8
boundary
62
5
39
2
10
123.909273
20
331.339813
11
124.074738
21
329.811408
0
LINE
8
boundary
62
5
39
2
10
124.074738
20
329.811408
11
124.162905
21
329.012557
0
LINE
8
annotation
62
1
39
211
10
217.178422
20
10.961400
11
215.676988
21
10.961400
0
LINE
8
annotation
62
1
39
211
10
215.676988
20
10.961400
11
217.064362
21
13.194894
0
LINE
8
annotation
62
1
39
211
10
217.064362
20
13.194894
11
217.064362
21
13.194894
0
LINE
8
annotation
62
1
39
211
10
217.064362
20
13.194894
11
217.066021
21
13.196947
0
LINE
8
annotation
62
1
39
211
10
217.066021
20
13.196947
11
217.067611
21
13.199016
0
LINE
8
annotation
62
1
39
211
10
217.067611
20
13.199016
11
217.069144
21
13.201121
0
LINE
8
annotation
62
1
39
211
10
217.069144
20
13.201121
11
217.070630
21
13.203278
0
LINE
8
annotation
62
1
39
211
10
217.070630
20
13.203278
11
217.072079
21
13.205505
0
LINE
8
annotation
62
1
39
211
10
217.072079
20
13.205505
11
217.073502
21
13.207819
0
LINE
8
annotation
62
1
39
211
10
217.073502
20
13.207819
11
217.074909
21
13.210238
0
LINE
8
annotation
62
1
39
211
10
217.074909
20
13.210238
11
217.076311
21
13.212779
0
LINE
8
annotation
62
1
39
211
10
217.076311
20
13.212779
11
217.077718
21
13.215459
0
LINE
8
annotation
62
1
39
211
10
217.077718
20
13.215459
11
217.077718
21
13.215459
0
LINE
8
annotation
62
1
39
211
10
217.077718
20
13.215459
11
217.135003
21
13.338453
0
LINE
8
annotation
62
1
39
211
10
217.135003
20
13.338453
11
217.168467
21
13.465948
0
LINE
8
annotation
62
1
39
211
10
217.168467
20
13.465948
11
217.178932
21
13.595062
0
LINE
8
annotation
62
1
39
211
10
217.178932
20
13.595062
11
217.167217
21
13.722914
0
LINE
8
annotation
62
1
39
211
10
217.167217
20
13.722914
11
217.134143
21
13.846623
0
LINE
8
annotation
62
1
39
211
10
217.134143
20
13.846623
11
217.080529
21
13.963310
0
LINE
8
annotation
62
1
39
211
10
217.080529
20
13.963310
11
217.007197
21
14.070092
0
LINE
8
annotation
62
1
39
211
10
217.007197
20
14.070092
11
216.914964
21
14.164090
0
LINE
8
annotation
62
1
39
211
10
216.914964
20
14.164090
11
216.804653
21
14.242421
0
LINE
8
annotation
62
1
39
211
10
216.804653
20
14.242421
11
216.804653
21
14.242421
0
LINE
8
annotation
62
1
39
211
10
216.804653
20
14.242421
11
216.681317
21
14.298892
0
LINE
8
annotation
62
1
39
211
10
216.681317
20
14.298892
11
216.553627
21
14.331840
0
LINE
8
annotation
62
1
39
211
10
216.553627
20
14.331840
11
216.424438
21
14.342009
0
LINE
8
annotation
62
1
39
211
10
216.424438
20
14.342009
11
216.296605
21
14.330140
0
LINE
8
annotation
62
1
39
211
10
216.296605
20
14.330140
11
216.172983
21
14.296974
0
LINE
8
annotation
62
1
39
211
10
216.172983
20
14.296974
11
216.056426
21
14.243253
0
LINE
8
annotation
62
1
39
211
10
216.056426
20
14.243253
11
215.949788
21
14.169719
0
LINE
8
annotation
62
1
39
211
10
215.949788
20
14.169719
11
215.855925
21
14.077113
0
LINE
8
annotation
62
1
39
211
10
215.855925
20
14.077113
11
215.777691
21
13.966176
0
LINE
8
annotation
62
1
39
211
10
215.777691
20
13.966176
11
215.679108
21
13.777066
0
LINE
8
annotation
62
1
39
211
10
206.376192
20
29.174071
11
207.442090
21
29.174071
0
LINE
8
annotation
62
1
39
211
10
207.442090
20
29.174071
11
207.442090
21
29.174071
0
LINE
8
annotation
62
1
39
211
10
207.442090
20
29.174071
11
207.633794
21
29.191268
0
LINE
8
annotation
62
1
39
211
10
207.633794
20
29.191268
11
207.814181
21
29.240831
0
LINE
8
annotation
62
1
39
211
10
207.814181
20
29.240831
11
207.980251
21
29.319718
0
LINE
8
annotation
62
1
39
211
10
207.980251
20
29.319718
11
208.129002
21
29.424886
0
LINE
8
annotation
62
1
39
211
10
208.129002
20
29.424886
11
208.257436
21
29.553293
0
LINE
8
annotation
62
1
39
211
10
208.257436
20
29.553293
11
208.362552
21
29.701897
0
LINE
8
annotation
62
1
39
211
10
208.362552
20
29.701897
11
208.441349
21
29.867655
0
LINE
8
annotation
62
1
39
211
10
208.441349
20
29.867655
11
208.490828
21
30.047524
0
LINE
8
annotation
62
1
39
211
10
208.490828
20
30.047524
11
208.507987
21
30.238464
0
LINE
8
annotation
62
1
39
211
10
208.507987
20
30.238464
11
208.507987
21
30.772165
0
LINE
8
annotation
62
1
39
211
10
208.507987
20
30.772165
11
208.507987
21
30.772165
0
LINE
8
annotation
62
1
39
211
10
208.507987
20
30.772165
11
208.490828
21
30.963025
0
LINE
8
annotation
62
1
39
211
10
208.490828
20
30.963025
11
208.441349
21
31.142852
0
LINE
8
annotation
62
1
39
211
10
208.441349
20
31.142852
11
208.362552
21
31.308597
0
LINE
8
annotation
62
1
39
211
10
208.362552
20
31.308597
11
208.257436
21
31.457211
0
LINE
8
annotation
62
1
39
211
10
208.257436
20
31.457211
11
208.129002
21
31.585643
0
LINE
8
annotation
62
1
39
211
10
208.129002
20
31.585643
11
207.980251
21
31.690843
0
LINE
8
annotation
62
1
39
211
10
207.980251
20
31.690843
11
207.814181
21
31.769762
0
LINE
8
annotation
62
1
39
211
10
207.814181
20
31.769762
11
207.633794
21
31.819350
0
LINE
8
annotation
62
1
39
211
10
207.633794
20
31.819350
11
207.442090
21
31.836557
0
LINE
8
annotation
62
1
39
211
10
207.442090
20
31.836557
11
206.908389
21
31.836557
0
LINE
8
annotation
62
1
39
211
10
206.908389
20
31.836557
11
207.442090
21
31.836557
0
LINE
8
annotation
62
1
39
211
10
207.442090
20
31.836557
11
207.442090
21
31.836557
0
LINE
8
annotation
62
1
39
211
10
207.442090
20
31.836557
11
207.633794
21
31.853768
0
LINE
8
annotation
62
1
39
211
10
207.633794
20
31.853768
11
207.814181
21
31.903385
0
LINE
8
annotation
62
1
39
211
10
207.814181
20
31.903385
11
207.980251
21
31.982383
0
LINE
8
annotation
62
1
39
211
10
207.980251
20
31.982383
11
208.129002
21
32.087736
0
LINE
8
annotation
62
1
39
211
10
208.129002
20
32.087736
11
208.257436
21
32.216419
0
LINE
8
annotation
62
1
39
211
10
208.257436
20
32.216419
11
208.362552
21
32.365409
0
LINE
8
annotation
62
1
39
211
10
208.362552
20
32.365409
11
208.441349
21
32.531678
0
LINE
8
annotation
62
1
39
211
10
208.441349
20
32.531678
11
208.490828
21
32.712204
0
LINE
8
annotation
62
1
39
211
10
208.490828
20
32.712204
11
208.507987
21
32.903960
0
LINE
8
annotation
62
1
39
211
10
208.507987
20
32.903960
11
208.507987
21
32.903960
0
LINE
8
annotation
62
1
39
211
10
208.507987
20
32.903960
11
208.490828
21
33.094819
0
LINE
8
annotation
62
1
39
211
10
208.490828
20
33.094819
11
208.441349
21
33.274647
0
LINE
8
annotation
62
1
39
211
10
208.441349
20
33.274647
11
208.362552
21
33.440392
0
LINE
8
annotation
62
1
39
211
10
208.362552
20
33.440392
11
208.257436
21
33.589006
0
LINE
8
annotation
62
1
39
211
10
208.257436
20
33.589006
11
208.129002
21
33.717438
0
LINE
8
annotation
62
1
39
211
10
208.129002
20
33.717438
11
207.980251
21
33.822638
0
LINE
8
annotation
62
1
39
211
10
207.980251
20
33.822638
11
207.814181
21
33.901557
0
LINE
8
annotation
62
1
39
211
10
207.814181
20
33.901557
11
207.633794
21
33.951145
0
LINE
8
annotation
62
1
39
211
10
207.633794
20
33.951145
11
207.442090
21
33.968352
0
LINE
8
annotation
62
1
39
211
10
207.442090
20
33.968352
11
206.376192
21
33.968352
0
LINE
8
annotation
62
1
39
211
10
202.212278
20
49.163183
11
199.547083
21
49.163183
0
LINE
8
annotation
62
1
39
211
10
199.547083
20
49.163183
11
200.611476
21
52.896082
0
LINE
8
annotation
62
1
39
211
10
201.413382
20
48.096082
11
201.413382
21
50.227876
0
LINE
8
annotation
62
1
39
211
10
193.711630
20
67.018242
11
194.777528
21
67.018242
0
LINE
8
annotation
62
1
39
211
10
194.777528
20
67.018242
11
194.777528
21
67.018242
0
LINE
8
annotation
62
1
39
211
10
194.777528
20
67.018242
11
194.968836
21
67.035443
0
LINE
8
annotation
62
1
39
211
10
194.968836
20
67.035443
11
195.149012
21
67.085033
0
LINE
8
annotation
62
1
39
211
10
195.149012
20
67.085033
11
195.315020
21
67.163990
0
LINE
8
annotation
62
1
39
211
10
195.315020
20
67.163990
11
195.463821
21
67.269296
0
LINE
8
annotation
62
1
39
211
10
195.463821
20
67.269296
11
195.592379
21
67.397929
0
LINE
8
annotation
62
1
39
211
10
195.592379
20
67.397929
11
195.697655
21
67.546871
0
LINE
8
annotation
62
1
39
211
10
195.697655
20
67.546871
11
195.776614
21
67.713101
0
LINE
8
annotation
62
1
39
211
10
195.776614
20
67.713101
11
195.826216
21
67.893598
0
LINE
8
annotation
62
1
39
211
10
195.826216
20
67.893598
11
195.843425
21
68.085344
0
LINE
8
annotation
62
1
39
211
10
195.843425
20
68.085344
11
195.843425
21
68.616336
0
LINE
8
annotation
62
1
39
211
10
195.843425
20
68.616336
11
195.843425
21
68.616336
0
LINE
8
annotation
62
1
39
211
10
195.843425
20
68.616336
11
195.826226
21
68.807989
0
LINE
8
annotation
62
1
39
211
10
195.826226
20
68.807989
11
195.776648
21
68.988237
0
LINE
8
annotation
62
1
39
211
10
195.776648
20
68.988237
11
195.697722
21
69.154107
0
LINE
8
annotation
62
1
39
211
10
195.697722
20
69.154107
11
195.592478
21
69.302621
0
LINE
8
annotation
62
1
39
211
10
195.592478
20
69.302621
11
195.463945
21
69.430805
0
LINE
8
annotation
62
1
39
211
10
195.463945
20
69.430805
11
195.315153
21
69.535683
0
LINE
8
annotation
62
1
39
211
10
195.315153
20
69.535683
11
195.149133
21
69.614280
0
LINE
8
annotation
62
1
39
211
10
195.149133
20
69.614280
11
194.968915
21
69.663620
0
LINE
8
annotation
62
1
39
211
10
194.968915
20
69.663620
11
194.777528
21
69.680728
0
LINE
8
annotation
62
1
39
211
10
194.777528
20
69.680728
11
193.711630
21
69.680728
0
LINE
8
annotation
62
1
39
211
10
193.711630
20
69.680728
11
193.711630
21
71.818242
0
LINE
8
annotation
62
1
39
211
10
193.711630
20
71.818242
11
195.843425
21
71.818242
0
LINE
8
annotation
62
1
39
211
10
189.479677
20
90.740403
11
189.479677
21
90.740403
0
LINE
8
annotation
62
1
39
211
10
189.479677
20
90.740403
11
189.174324
21
90.625915
0
LINE
8
annotation
62
1
39
211
10
189.174324
20
90.625915
11
188.894123
21
90.471654
0
LINE
8
annotation
62
1
39
211
10
188.894123
20
90.471654
11
188.641949
21
90.281488
0
LINE
8
annotation
62
1
39
211
10
188.641949
20
90.281488
11
188.420680
21
90.059280
0
LINE
8
annotation
62
1
39
211
10
188.420680
20
90.059280
11
188.233192
21
89.808895
0
LINE
8
annotation
62
1
39
211
10
188.233192
20
89.808895
11
188.082361
21
89.534199
0
LINE
8
annotation
62
1
39
211
10
188.082361
20
89.534199
11
187.971063
21
89.239056
0
LINE
8
annotation
62
1
39
211
10
187.971063
20
89.239056
11
187.902175
21
88.927331
0
LINE
8
annotation
62
1
39
211
10
187.902175
20
88.927331
11
187.878573
21
88.602889
0
LINE
8
annotation
62
1
39
211
10
187.878573
20
88.602889
11
187.878573
21
87.007505
0
LINE
8
annotation
62
1
39
211
10
187.878573
20
87.007505
11
187.878573
21
87.007505
0
LINE
8
annotation
62
1
39
211
10
187.878573
20
87.007505
11
187.895782
21
86.815759
0
LINE
8
annotation
62
1
39
211
10
187.895782
20
86.815759
11
187.945384
21
86.635262
0
LINE
8
annotation
62
1
39
211
10
187.945384
20
86.635262
11
188.024343
21
86.469032
0
LINE
8
annotation
62
1
39
211
10
188.024343
20
86.469032
11
188.129619
21
86.320090
0
LINE
8
annotation
62
1
39
211
10
188.129619
20
86.320090
11
188.258177
21
86.191456
0
LINE
8
annotation
62
1
39
211
10
188.258177
20
86.191456
11
188.406978
21
86.086151
0
LINE
8
annotation
62
1
39
211
10
188.406978
20
86.086151
11
188.572986
21
86.007193
0
LINE
8
annotation
62
1
39
211
10
188.572986
20
86.007193
11
188.753162
21
85.957604
0
LINE
8
annotation
62
1
39
211
10
188.753162
20
85.957604
11
188.944470
21
85.940403
0
LINE
8
annotation
62
1
39
211
10
188.944470
20
85.940403
11
188.944470
21
85.940403
0
LINE
8
annotation
62
1
39
211
10
188.944470
20
85.940403
11
189.136175
21
85.957604
0
LINE
8
annotation
62
1
39
211
10
189.136175
20
85.957604
11
189.316562
21
86.007193
0
LINE
8
annotation
62
1
39
211
10
189.316562
20
86.007193
11
189.482631
21
86.086151
0
LINE
8
annotation
62
1
39
211
10
189.482631
20
86.086151
11
189.631383
21
86.191456
0
LINE
8
annotation
62
1
39
211
10
189.631383
20
86.191456
11
189.759817
21
86.320090
0
LINE
8
annotation
62
1
39
211
10
189.759817
20
86.320090
11
189.864932
21
86.469032
0
LINE
8
annotation
62
1
39
211
10
189.864932
20
86.469032
11
189.943730
21
86.635262
0
LINE
8
annotation
62
1
39
211
10
189.943730
20
86.635262
11
189.993208
21
86.815759
0
LINE
8
annotation
62
1
39
211
10
189.993208
20
86.815759
11
190.010368
21
87.007505
0
LINE
8
annotation
62
1
39
211
10
190.010368
20
87.007505
11
190.010368
21
87.538497
0
LINE
8
annotation
62
1
39
211
10
190.010368
20
87.538497
11
190.010368
21
87.538497
0
LINE
8
annotation
62
1
39
211
10
190.010368
20
87.538497
11
189.993208
21
87.730150
0
LINE
8
annotation
62
1
39
211
10
189.993208
20
87.730150
11
189.943730
21
87.910398
0
LINE
8
annotation
62
1
39
211
10
189.943730
20
87.910398
11
189.864932
21
88.076267
0
LINE
8
annotation
62
1
39
211
10
189.864932
20
88.076267
11
189.759817
21
88.224782
0
LINE
8
annotation
62
1
39
211
10
189.759817
20
88.224782
11
189.631383
21
88.352966
0
LINE
8
annotation
62
1
39
211
10
189.631383
20
88.352966
11
189.482631
21
88.457844
0
LINE
8
annotation
62
1
39
211
10
189.482631
20
88.457844
11
189.316562
21
88.536441
0
LINE
8
annotation
62
1
39
211
10
189.316562
20
88.536441
11
189.136175
21
88.585781
0
LINE
8
annotation
62
1
39
211
10
189.136175
20
88.585781
11
188.944470
21
88.602889
0
LINE
8
annotation
62
1
39
211
10
188.944470
20
88.602889
11
187.878573
21
88.602889
0
LINE
8
annotation
62
1
39
211
10
187.745072
20
85.340403
11
190.145072
21
85.340403
0
LINE
8
annotation
62
1
39
211
10
183.361909
20
104.862564
11
184.429011
21
109.662564
0
LINE
8
annotation
62
1
39
211
10
184.429011
20
109.662564
11
182.294507
21
109.662564
0
LINE
8
annotation
62
1
39
211
10
184.429011
20
107.525050
11
183.361909
21
107.525050
0
LINE
8
annotation
62
1
39
211
10
176.925158
20
124.848967
11
176.925158
21
124.848967
0
LINE
8
annotation
62
1
39
211
10
176.925158
20
124.848967
11
176.942367
21
124.657314
0
LINE
8
annotation
62
1
39
211
10
176.942367
20
124.657314
11
176.991970
21
124.477066
0
LINE
8
annotation
62
1
39
211
10
176.991970
20
124.477066
11
177.070928
21
124.311196
0
LINE
8
annotation
62
1
39
211
10
177.070928
20
124.311196
11
177.176205
21
124.162682
0
LINE
8
annotation
62
1
39
211
10
177.176205
20
124.162682
11
177.304762
21
124.034498
0
LINE
8
annotation
62
1
39
211
10
177.304762
20
124.034498
11
177.453564
21
123.929620
0
LINE
8
annotation
62
1
39
211
10
177.453564
20
123.929620
11
177.619571
21
123.851023
0
LINE
8
annotation
62
1
39
211
10
177.619571
20
123.851023
11
177.799748
21
123.801683
0
LINE
8
annotation
62
1
39
211
10
177.799748
20
123.801683
11
177.991055
21
123.784575
0
LINE
8
annotation
62
1
39
211
10
177.991055
20
123.784575
11
177.991055
21
123.784575
0
LINE
8
annotation
62
1
39
211
10
177.991055
20
123.784575
11
178.182363
21
123.801683
0
LINE
8
annotation
62
1
39
211
10
178.182363
20
123.801683
11
178.362540
21
123.851023
0
LINE
8
annotation
62
1
39
211
10
178.362540
20
123.851023
11
178.528547
21
123.929620
0
LINE
8
annotation
62
1
39
211
10
178.528547
20
123.929620
11
178.677349
21
124.034498
0
LINE
8
annotation
62
1
39
211
10
178.677349
20
124.034498
11
178.805906
21
124.162682
0
LINE
8
annotation
62
1
39
211
10
178.805906
20
124.162682
11
178.911183
21
124.311196
0
LINE
8
annotation
62
1
39
211
10
178.911183
20
124.311196
11
178.990141
21
124.477066
0
LINE
8
annotation
62
1
39
211
10
178.990141
20
124.477066
11
179.039744
21
124.657314
0
LINE
8
annotation
62
1
39
211
10
179.039744
20
124.657314
11
179.056953
21
124.848967
0
LINE
8
annotation
62
1
39
211
10
179.056953
20
124.848967
11
179.056953
21
125.379959
0
LINE
8
annotation
62
1
39
211
10
179.056953
20
125.379959
11
179.056953
21
125.379959
0
LINE
8
annotation
62
1
39
211
10
179.056953
20
125.379959
11
179.039754
21
125.571705
0
LINE
8
annotation
62
1
39
211
10
179.039754
20
125.571705
11
178.990176
21
125.752202
0
LINE
8
annotation
62
1
39
211
10
178.990176
20
125.752202
11
178.911250
21
125.918432
0
LINE
8
annotation
62
1
39
211
10
178.911250
20
125.918432
11
178.806006
21
126.067374
0
LINE
8
annotation
62
1
39
211
10
178.806006
20
126.067374
11
178.677473
21
126.196008
0
LINE
8
annotation
62
1
39
211
10
178.677473
20
126.196008
11
178.528681
21
126.301313
0
LINE
8
annotation
62
1
39
211
10
178.528681
20
126.301313
11
178.362661
21
126.380271
0
LINE
8
annotation
62
1
39
211
10
178.362661
20
126.380271
11
178.182443
21
126.429860
0
LINE
8
annotation
62
1
39
211
10
178.182443
20
126.429860
11
177.991055
21
126.447061
0
LINE
8
annotation
62
1
39
211
10
177.991055
20
126.447061
11
177.991055
21
126.447061
0
LINE
8
annotation
62
1
39
211
10
177.991055
20
126.447061
11
177.799668
21
126.429850
0
LINE
8
annotation
62
1
39
211
10
177.799668
20
126.429850
11
177.619450
21
126.380236
0
LINE
8
annotation
62
1
39
211
10
177.619450
20
126.380236
11
177.453430
21
126.301246
0
LINE
8
annotation
62
1
39
211
10
177.453430
20
126.301246
11
177.304638
21
126.195908
0
LINE
8
annotation
62
1
39
211
10
177.304638
20
126.195908
11
177.176105
21
126.067250
0
LINE
8
annotation
62
1
39
211
10
177.176105
20
126.067250
11
177.070861
21
125.918298
0
LINE
8
annotation
62
1
39
211
10
177.070861
20
125.918298
11
176.991935
21
125.752081
0
LINE
8
annotation
62
1
39
211
10
176.991935
20
125.752081
11
176.942357
21
125.571625
0
LINE
8
annotation
62
1
39
211
10
176.942357
20
125.571625
11
176.925158
21
125.379959
0
LINE
8
annotation
62
1
39
211
10
176.925158
20
125.379959
11
176.925158
21
124.848967
0
LINE
8
annotation
62
1
39
211
10
179.056953
20
127.514463
11
179.056953
21
127.514463
0
LINE
8
annotation
62
1
39
211
10
179.056953
20
127.514463
11
179.039754
21
127.705323
0
LINE
8
annotation
62
1
39
211
10
179.039754
20
127.705323
11
178.990176
21
127.885150
0
LINE
8
annotation
62
1
39
211
10
178.990176
20
127.885150
11
178.911250
21
128.050896
0
LINE
8
annotation
62
1
39
211
10
178.911250
20
128.050896
11
178.806006
21
128.199509
0
LINE
8
annotation
62
1
39
211
10
178.806006
20
128.199509
11
178.677473
21
128.327941
0
LINE
8
annotation
62
1
39
211
10
178.677473
20
128.327941
11
178.528681
21
128.433141
0
LINE
8
annotation
62
1
39
211
10
178.528681
20
128.433141
11
178.362661
21
128.512060
0
LINE
8
annotation
62
1
39
211
10
178.362661
20
128.512060
11
178.182443
21
128.561648
0
LINE
8
annotation
62
1
39
211
10
178.182443
20
128.561648
11
177.991055
21
128.578855
0
LINE
8
annotation
62
1
39
211
10
177.991055
20
128.578855
11
177.991055
21
128.578855
0
LINE
8
annotation
62
1
39
211
10
177.991055
20
128.578855
11
177.799668
21
128.561648
0
LINE
8
annotation
62
1
39
211
10
177.799668
20
128.561648
11
177.619450
21
128.512060
0
LINE
8
annotation
62
1
39
211
10
177.619450
20
128.512060
11
177.453430
21
128.433141
0
LINE
8
annotation
62
1
39
211
10
177.453430
20
128.433141
11
177.304638
21
128.327941
0
LINE
8
annotation
62
1
39
211
10
177.304638
20
128.327941
11
177.176105
21
128.199509
0
LINE
8
annotation
62
1
39
211
10
177.176105
20
128.199509
11
177.070861
21
128.050896
0
LINE
8
annotation
62
1
39
211
10
177.070861
20
128.050896
11
176.991935
21
127.885150
0
LINE
8
annotation
62
1
39
211
10
176.991935
20
127.885150
11
176.942357
21
127.705323
0
LINE
8
annotation
62
1
39
211
10
176.942357
20
127.705323
11
176.925158
21
127.514463
0
LINE
8
annotation
62
1
39
211
10
176.925158
20
127.514463
11
176.925158
21
127.514463
0
LINE
8
annotation
62
1
39
211
10
176.925158
20
127.514463
11
176.942367
21
127.322707
0
LINE
8
annotation
62
1
39
211
10
176.942367
20
127.322707
11
176.991970
21
127.142182
0
LINE
8
annotation
62
1
39
211
10
176.991970
20
127.142182
11
177.070928
21
126.975912
0
LINE
8
annotation
62
1
39
211
10
177.070928
20
126.975912
11
177.176205
21
126.826923
0
LINE
8
annotation
62
1
39
211
10
177.176205
20
126.826923
11
177.304762
21
126.698239
0
LINE
8
annotation
62
1
39
211
10
177.304762
20
126.698239
11
177.453564
21
126.592886
0
LINE
8
annotation
62
1
39
211
10
177.453564
20
126.592886
11
177.619571
21
126.513889
0
LINE
8
annotation
62
1
39
211
10
177.619571
20
126.513889
11
177.799748
21
126.464272
0
LINE
8
annotation
62
1
39
211
10
177.799748
20
126.464272
11
177.991055
21
126.447061
0
LINE
8
annotation
62
1
39
211
10
177.991055
20
126.447061
11
177.991055
21
126.447061
0
LINE
8
annotation
62
1
39
211
10
177.991055
20
126.447061
11
178.182363
21
126.464272
0
LINE
8
annotation
62
1
39
211
10
178.182363
20
126.464272
11
178.362540
21
126.513889
0
LINE
8
annotation
62
1
39
211
10
178.362540
20
126.513889
11
178.528547
21
126.592886
0
LINE
8
annotation
62
1
39
211
10
178.528547
20
126.592886
11
178.677349
21
126.698239
0
LINE
8
annotation
62
1
39
211
10
178.677349
20
126.698239
11
178.805906
21
126.826923
0
LINE
8
annotation
62
1
39
211
10
178.805906
20
126.826923
11
178.911183
21
126.975912
0
LINE
8
annotation
62
1
39
211
10
178.911183
20
126.975912
11
178.990141
21
127.142182
0
LINE
8
annotation
62
1
39
211
10
178.990141
20
127.142182
11
179.039744
21
127.322707
0
LINE
8
annotation
62
1
39
211
10
179.039744
20
127.322707
11
179.056953
21
127.514463
0
LINE
8
annotation
62
1
39
211
10
172.232158
20
142.706886
11
172.232158
21
142.706886
0
LINE
8
annotation
62
1
39
211
10
172.232158
20
142.706886
11
172.536973
21
142.820475
0
LINE
8
annotation
62
1
39
211
10
172.536973
20
142.820475
11
172.816756
21
142.974012
0
LINE
8
annotation
62
1
39
211
10
172.816756
20
142.974012
11
173.068614
21
143.163583
0
LINE
8
annotation
62
1
39
211
10
173.068614
20
143.163583
11
173.289658
21
143.385278
0
LINE
8
annotation
62
1
39
211
10
173.289658
20
143.385278
11
173.476995
21
143.635184
0
LINE
8
annotation
62
1
39
211
10
173.476995
20
143.635184
11
173.627735
21
143.909389
0
LINE
8
annotation
62
1
39
211
10
173.627735
20
143.909389
11
173.738986
21
144.203982
0
LINE
8
annotation
62
1
39
211
10
173.738986
20
144.203982
11
173.807856
21
144.515050
0
LINE
8
annotation
62
1
39
211
10
173.807856
20
144.515050
11
173.831456
21
144.838681
0
LINE
8
annotation
62
1
39
211
10
173.831456
20
144.838681
11
173.831456
21
146.439484
0
LINE
8
annotation
62
1
39
211
10
173.831456
20
146.439484
11
173.831456
21
146.439484
0
LINE
8
annotation
62
1
39
211
10
173.831456
20
146.439484
11
173.814296
21
146.631239
0
LINE
8
annotation
62
1
39
211
10
173.814296
20
146.631239
11
173.764818
21
146.811765
0
LINE
8
annotation
62
1
39
211
10
173.764818
20
146.811765
11
173.686020
21
146.978035
0
LINE
8
annotation
62
1
39
211
10
173.686020
20
146.978035
11
173.580905
21
147.127024
0
LINE
8
annotation
62
1
39
211
10
173.580905
20
147.127024
11
173.452471
21
147.255708
0
LINE
8
annotation
62
1
39
211
10
173.452471
20
147.255708
11
173.303719
21
147.361061
0
LINE
8
annotation
62
1
39
211
10
173.303719
20
147.361061
11
173.137649
21
147.440058
0
LINE
8
annotation
62
1
39
211
10
173.137649
20
147.440058
11
172.957262
21
147.489675
0
LINE
8
annotation
62
1
39
211
10
172.957262
20
147.489675
11
172.765558
21
147.506886
0
LINE
8
annotation
62
1
39
211
10
172.765558
20
147.506886
11
172.765558
21
147.506886
0
LINE
8
annotation
62
1
39
211
10
172.765558
20
147.506886
11
172.574250
21
147.489675
0
LINE
8
annotation
62
1
39
211
10
172.574250
20
147.489675
11
172.394074
21
147.440058
0
LINE
8
annotation
62
1
39
211
10
172.394074
20
147.440058
11
172.228066
21
147.361061
0
LINE
8
annotation
62
1
39
211
10
172.228066
20
147.361061
11
172.079265
21
147.255708
0
LINE
8
annotation
62
1
39
211
10
172.079265
20
147.255708
11
171.950707
21
147.127024
0
LINE
8
annotation
62
1
39
211
10
171.950707
20
147.127024
11
171.845431
21
146.978035
0
LINE
8
annotation
62
1
39
211
10
171.845431
20
146.978035
11
171.766472
21
146.811765
0
LINE
8
annotation
62
1
39
211
10
171.766472
20
146.811765
11
171.716870
21
146.631239
0
LINE
8
annotation
62
1
39
211
10
171.716870
20
146.631239
11
171.699661
21
146.439484
0
LINE
8
annotation
62
1
39
211
10
171.699661
20
146.439484
11
171.699661
21
145.905782
0
LINE
8
annotation
62
1
39
211
10
171.699661
20
145.905782
11
171.699661
21
145.905782
0
LINE
8
annotation
62
1
39
211
10
171.699661
20
145.905782
11
171.716870
21
145.714037
0
LINE
8
annotation
62
1
39
211
10
171.716870
20
145.714037
11
171.766472
21
145.533539
0
LINE
8
annotation
62
1
39
211
10
171.766472
20
145.533539
11
171.845431
21
145.367309
0
LINE
8
annotation
62
1
39
211
10
171.845431
20
145.367309
11
171.950707
21
145.218368
0
LINE
8
annotation
62
1
39
211
10
171.950707
20
145.218368
11
172.079265
21
145.089734
0
LINE
8
annotation
62
1
39
211
10
172.079265
20
145.089734
11
172.228066
21
144.984428
0
LINE
8
annotation
62
1
39
211
10
172.228066
20
144.984428
11
172.394074
21
144.905471
0
LINE
8
annotation
62
1
39
211
10
172.394074
20
144.905471
11
172.574250
21
144.855882
0
LINE
8
annotation
62
1
39
211
10
172.574250
20
144.855882
11
172.765558
21
144.838681
0
LINE
8
annotation
62
1
39
211
10
172.765558
20
144.838681
11
173.831456
21
144.838681
0
LINE
8
annotation
62
1
39
211
10
171.566461
20
142.106886
11
173.966461
21
142.106886
0
LINE
8
annotation
62
1
39
211
10
166.346161
20
161.720187
11
166.346161
21
166.337907
0
LINE
8
annotation
62
1
39
211
10
166.346161
20
166.337907
11
165.319582
21
165.311039
0
LINE
8
annotation
62
1
39
211
10
168.819389
20
161.781096
11
168.819389
21
161.781096
0
LINE
8
annotation
62
1
39
211
10
168.819389
20
161.781096
11
168.926711
21
161.740977
0
LINE
8
annotation
62
1
39
211
10
168.926711
20
161.740977
11
169.036778
21
161.721045
0
LINE
8
annotation
62
1
39
211
10
169.036778
20
161.721045
11
169.147103
21
161.720487
0
LINE
8
annotation
62
1
39
211
10
169.147103
20
161.720487
11
169.255197
21
161.738492
0
LINE
8
annotation
62
1
39
211
10
169.255197
20
161.738492
11
169.358571
21
161.774246
0
LINE
8
annotation
62
1
39
211
10
169.358571
20
161.774246
11
169.454738
21
161.826937
0
LINE
8
annotation
62
1
39
211
10
169.454738
20
161.826937
11
169.541210
21
161.895751
0
LINE
8
annotation
62
1
39
211
10
169.541210
20
161.895751
11
169.615497
21
161.979876
0
LINE
8
annotation
62
1
39
211
10
169.615497
20
161.979876
11
169.675113
21
162.078500
0
LINE
8
annotation
62
1
39
211
10
169.675113
20
162.078500
11
169.675113
21
162.078500
0
LINE
8
annotation
62
1
39
211
10
169.675113
20
162.078500
11
169.852982
21
162.494847
0
LINE
8
annotation
62
1
39
211
10
169.852982
20
162.494847
11
169.986384
21
162.923245
0
LINE
8
annotation
62
1
39
211
10
169.986384
20
162.923245
11
170.075319
21
163.360278
0
LINE
8
annotation
62
1
39
211
10
170.075319
20
163.360278
11
170.119786
21
163.802530
0
LINE
8
annotation
62
1
39
211
10
170.119786
20
163.802530
11
170.119786
21
164.246587
0
LINE
8
annotation
62
1
39
211
10
170.119786
20
164.246587
11
170.075319
21
164.689032
0
LINE
8
annotation
62
1
39
211
10
170.075319
20
164.689032
11
169.986384
21
165.126451
0
LINE
8
annotation
62
1
39
211
10
169.986384
20
165.126451
11
169.852982
21
165.555428
0
LINE
8
annotation
62
1
39
211
10
169.852982
20
165.555428
11
169.675113
21
165.972547
0
LINE
8
annotation
62
1
39
211
10
169.675113
20
165.972547
11
169.675113
21
165.972547
0
LINE
8
annotation
62
1
39
211
10
169.675113
20
165.972547
11
169.652493
21
166.014644
0
LINE
8
annotation
62
1
39
211
10
169.652493
20
166.014644
11
169.626848
21
166.054890
0
LINE
8
annotation
62
1
39
211
10
169.626848
20
166.054890
11
169.598373
21
166.093090
0
LINE
8
annotation
62
1
39
211
10
169.598373
20
166.093090
11
169.567258
21
166.129044
0
LINE
8
annotation
62
1
39
211
10
169.567258
20
166.129044
11
169.533699
21
166.162555
0
LINE
8
annotation
62
1
39
211
10
169.533699
20
166.162555
11
169.497887
21
166.193426
0
LINE
8
annotation
62
1
39
211
10
169.497887
20
166.193426
11
169.460015
21
166.221457
0
LINE
8
annotation
62
1
39
211
10
169.460015
20
166.221457
11
169.420278
21
166.246452
0
LINE
8
annotation
62
1
39
211
10
169.420278
20
166.246452
11
169.378867
21
166.268213
0
LINE
8
annotation
62
1
39
211
10
169.378867
20
166.268213
11
169.378867
21
166.268213
0
LINE
8
annotation
62
1
39
211
10
169.378867
20
166.268213
11
169.270694
21
166.309203
0
LINE
8
annotation
62
1
39
211
10
169.270694
20
166.309203
11
169.159982
21
166.329816
0
LINE
8
annotation
62
1
39
211
10
169.159982
20
166.329816
11
169.049191
21
166.330871
0
LINE
8
annotation
62
1
39
211
10
169.049191
20
166.330871
11
168.940781
21
166.313185
0
LINE
8
annotation
62
1
39
211
10
168.940781
20
166.313185
11
168.837213
21
166.277576
0
LINE
8
annotation
62
1
39
211
10
168.837213
20
166.277576
11
168.740944
21
166.224862
0
LINE
8
annotation
62
1
39
211
10
168.740944
20
166.224862
11
168.654436
21
166.155859
0
LINE
8
annotation
62
1
39
211
10
168.654436
20
166.155859
11
168.580147
21
166.071385
0
LINE
8
annotation
62
1
39
211
10
168.580147
20
166.071385
11
168.520538
21
165.972258
0
LINE
8
annotation
62
1
39
211
10
168.520538
20
165.972258
11
168.520538
21
165.972258
0
LINE
8
annotation
62
1
39
211
10
168.520538
20
165.972258
11
168.343526
21
165.555996
0
LINE
8
annotation
62
1
39
211
10
168.343526
20
165.555996
11
168.210768
21
165.127663
0
LINE
8
annotation
62
1
39
211
10
168.210768
20
165.127663
11
168.122262
21
164.690673
0
LINE
8
annotation
62
1
39
211
10
168.122262
20
164.690673
11
168.078009
21
164.248442
0
LINE
8
annotation
62
1
39
211
10
168.078009
20
164.248442
11
168.078009
21
163.804386
0
LINE
8
annotation
62
1
39
211
10
168.078009
20
163.804386
11
168.122262
21
163.361919
0
LINE
8
annotation
62
1
39
211
10
168.122262
20
163.361919
11
168.210768
21
162.924457
0
LINE
8
annotation
62
1
39
211
10
168.210768
20
162.924457
11
168.343526
21
162.495416
0
LINE
8
annotation
62
1
39
211
10
168.343526
20
162.495416
11
168.520538
21
162.078211
0
LINE
8
annotation
62
1
39
211
10
168.520538
20
162.078211
11
168.520538
21
162.078211
0
LINE
8
annotation
62
1
39
211
10
168.520538
20
162.078211
11
168.543075
21
162.036198
0
LINE
8
annotation
62
1
39
211
10
168.543075
20
162.036198
11
168.568530
21
161.996152
0
LINE
8
annotation
62
1
39
211
10
168.568530
20
161.996152
11
168.596795
21
161.958194
0
LINE
8
annotation
62
1
39
211
10
168.596795
20
161.958194
11
168.627763
21
161.922445
0
LINE
8
annotation
62
1
39
211
10
168.627763
20
161.922445
11
168.661326
21
161.889027
0
LINE
8
annotation
62
1
39
211
10
168.661326
20
161.889027
11
168.697378
21
161.858062
0
LINE
8
annotation
62
1
39
211
10
168.697378
20
161.858062
11
168.735810
21
161.829670
0
LINE
8
annotation
62
1
39
211
10
168.735810
20
161.829670
11
168.776516
21
161.803975
0
LINE
8
annotation
62
1
39
211
10
168.776516
20
161.803975
11
168.819389
21
161.781096
0
LINE
8
annotation
62
1
39
211
10
161.964795
20
180.551208
11
161.964795
21
185.351208
0
LINE
8
annotation
62
1
39
211
10
161.964795
20
185.351208
11
160.897694
21
184.283805
0
LINE
8
annotation
62
1
39
211
10
164.831897
20
180.551208
11
164.831897
21
185.351208
0
LINE
8
annotation
62
1
39
211
10
164.831897
20
185.351208
11
163.764795
21
184.283805
0
LINE
8
annotation
62
1
39
211
10
156.975075
20
199.569194
11
156.975075
21
204.177543
0
LINE
8
annotation
62
1
39
211
10
156.975075
20
204.177543
11
155.950580
21
203.152759
0
LINE
8
annotation
62
1
39
211
10
160.750087
20
199.569157
11
158.703409
21
199.569157
0
LINE
8
annotation
62
1
39
211
10
158.703409
20
199.569157
11
160.594607
21
202.613742
0
LINE
8
annotation
62
1
39
211
10
160.594607
20
202.613742
11
160.594607
21
202.613742
0
LINE
8
annotation
62
1
39
211
10
160.594607
20
202.613742
11
160.596868
21
202.616540
0
LINE
8
annotation
62
1
39
211
10
160.596868
20
202.616540
11
160.599036
21
202.619361
0
LINE
8
annotation
62
1
39
211
10
160.599036
20
202.619361
11
160.601125
21
202.622230
0
LINE
8
annotation
62
1
39
211
10
160.601125
20
202.622230
11
160.603151
21
202.625170
0
LINE
8
annotation
62
1
39
211
10
160.603151
20
202.625170
11
160.605126
21
202.628206
0
LINE
8
annotation
62
1
39
211
10
160.605126
20
202.628206
11
160.607066
21
202.631360
0
LINE
8
annotation
62
1
39
211
10
160.607066
20
202.631360
11
160.608984
21
202.634657
0
LINE
8
annotation
62
1
39
211
10
160.608984
20
202.634657
11
160.610895
21
202.638121
0
LINE
8
annotation
62
1
39
211
10
160.610895
20
202.638121
11
160.612814
21
202.641775
0
LINE
8
annotation
62
1
39
211
10
160.612814
20
202.641775
11
160.612814
21
202.641775
0
LINE
8
annotation
62
1
39
211
10
160.612814
20
202.641775
11
160.690901
21
202.809435
0
LINE
8
annotation
62
1
39
211
10
160.690901
20
202.809435
11
160.736518
21
202.983228
0
LINE
8
annotation
62
1
39
211
10
160.736518
20
202.983228
11
160.750783
21
203.159230
0
LINE
8
annotation
62
1
39
211
10
160.750783
20
203.159230
11
160.734814
21
203.333511
0
LINE
8
annotation
62
1
39
211
10
160.734814
20
203.333511
11
160.689729
21
203.502146
0
LINE
8
annotation
62
1
39
211
10
160.689729
20
203.502146
11
160.616645
21
203.661207
0
LINE
8
annotation
62
1
39
211
10
160.616645
20
203.661207
11
160.516682
21
203.806767
0
LINE
8
annotation
62
1
39
211
10
160.516682
20
203.806767
11
160.390956
21
203.934900
0
LINE
8
annotation
62
1
39
211
10
160.390956
20
203.934900
11
160.240585
21
204.041677
0
LINE
8
annotation
62
1
39
211
10
160.240585
20
204.041677
11
160.240585
21
204.041677
0
LINE
8
annotation
62
1
39
211
10
160.240585
20
204.041677
11
160.072459
21
204.118655
0
LINE
8
annotation
62
1
39
211
10
160.072459
20
204.118655
11
159.898399
21
204.163569
0
LINE
8
annotation
62
1
39
211
10
159.898399
20
204.163569
11
159.722295
21
204.177431
0
LINE
8
annotation
62
1
39
211
10
159.722295
20
204.177431
11
159.548040
21
204.161252
0
LINE
8
annotation
62
1
39
211
10
159.548040
20
204.161252
11
159.379524
21
204.116042
0
LINE
8
annotation
62
1
39
211
10
159.379524
20
204.116042
11
159.220639
21
204.042812
0
LINE
8
annotation
62
1
39
211
10
159.220639
20
204.042812
11
159.075276
21
203.942574
0
LINE
8
annotation
62
1
39
211
10
159.075276
20
203.942574
11
158.947327
21
203.816337
0
LINE
8
annotation
62
1
39
211
10
158.947327
20
203.816337
11
158.840683
21
203.665114
0
LINE
8
annotation
62
1
39
211
10
158.840683
20
203.665114
11
158.706299
21
203.407328
0
LINE
8
annotation
62
1
39
211
10
152.785369
20
218.491021
11
152.785369
21
223.100038
0
LINE
8
annotation
62
1
39
211
10
152.785369
20
223.100038
11
151.760725
21
222.075106
0
LINE
8
annotation
62
1
39
211
10
154.513606
20
218.491166
11
155.537093
21
218.491166
0
LINE
8
annotation
62
1
39
211
10
155.537093
20
218.491166
11
155.537093
21
218.491166
0
LINE
8
annotation
62
1
39
211
10
155.537093
20
218.491166
11
155.721170
21
218.507678
0
LINE
8
annotation
62
1
39
211
10
155.721170
20
218.507678
11
155.894380
21
218.555270
0
LINE
8
annotation
62
1
39
211
10
155.894380
20
218.555270
11
156.053842
21
218.631018
0
LINE
8
annotation
62
1
39
211
10
156.053842
20
218.631018
11
156.196675
21
218.732001
0
LINE
8
annotation
62
1
39
211
10
156.196675
20
218.732001
11
156.319999
21
218.855299
0
LINE
8
annotation
62
1
39
211
10
156.319999
20
218.855299
11
156.420932
21
218.997990
0
LINE
8
annotation
62
1
39
211
10
156.420932
20
218.997990
11
156.496594
21
219.157153
0
LINE
8
annotation
62
1
39
211
10
156.496594
20
219.157153
11
156.544104
21
219.329866
0
LINE
8
annotation
62
1
39
211
10
156.544104
20
219.329866
11
156.560581
21
219.513208
0
LINE
8
annotation
62
1
39
211
10
156.560581
20
219.513208
11
156.560581
21
220.025674
0
LINE
8
annotation
62
1
39
211
10
156.560581
20
220.025674
11
156.560581
21
220.025674
0
LINE
8
annotation
62
1
39
211
10
156.560581
20
220.025674
11
156.544104
21
220.208940
0
LINE
8
annotation
62
1
39
211
10
156.544104
20
220.208940
11
156.496594
21
220.381612
0
LINE
8
annotation
62
1
39
211
10
156.496594
20
220.381612
11
156.420932
21
220.540763
0
LINE
8
annotation
62
1
39
211
10
156.420932
20
220.540763
11
156.319999
21
220.683464
0
LINE
8
annotation
62
1
39
211
10
156.319999
20
220.683464
11
156.196675
21
220.806785
0
LINE
8
annotation
62
1
39
211
10
156.196675
20
220.806785
11
156.053842
21
220.907800
0
LINE
8
annotation
62
1
39
211
10
156.053842
20
220.907800
11
155.894380
21
220.983579
0
LINE
8
annotation
62
1
39
211
10
155.894380
20
220.983579
11
155.721170
21
221.031194
0
LINE
8
annotation
62
1
39
211
10
155.721170
20
221.031194
11
155.537093
21
221.047716
0
LINE
8
annotation
62
1
39
211
10
155.537093
20
221.047716
11
155.024627
21
221.047716
0
LINE
8
annotation
62
1
39
211
10
155.024627
20
221.047716
11
155.537093
21
221.047716
0
LINE
8
annotation
62
1
39
211
10
155.537093
20
221.047716
11
155.537093
21
221.047716
0
LINE
8
annotation
62
1
39
211
10
155.537093
20
221.047716
11
155.721170
21
221.064243
0
LINE
8
annotation
62
1
39
211
10
155.721170
20
221.064243
11
155.894380
21
221.111885
0
LINE
8
annotation
62
1
39
211
10
155.894380
20
221.111885
11
156.053842
21
221.187740
0
LINE
8
annotation
62
1
39
211
10
156.053842
20
221.187740
11
156.196675
21
221.288901
0
LINE
8
annotation
62
1
39
211
10
156.196675
20
221.288901
11
156.319999
21
221.412465
0
LINE
8
annotation
62
1
39
211
10
156.319999
20
221.412465
11
156.420932
21
221.555526
0
LINE
8
annotation
62
1
39
211
10
156.420932
20
221.555526
11
156.496594
21
221.715180
0
LINE
8
annotation
62
1
39
211
10
156.496594
20
221.715180
11
156.544104
21
221.888523
0
LINE
8
annotation
62
1
39
211
10
156.544104
20
221.888523
11
156.560581
21
222.072649
0
LINE
8
annotation
62
1
39
211
10
156.560581
20
222.072649
11
156.560581
21
222.072649
0
LINE
8
annotation
62
1
39
211
10
156.560581
20
222.072649
11
156.544104
21
222.255915
0
LINE
8
annotation
62
1
39
211
10
156.544104
20
222.255915
11
156.496594
21
222.428587
0
LINE
8
annotation
62
1
39
211
10
156.496594
20
222.428587
11
156.420932
21
222.587738
0
LINE
8
annotation
62
1
39
211
10
156.420932
20
222.587738
11
156.319999
21
222.730439
0
LINE
8
annotation
62
1
39
211
10
156.319999
20
222.730439
11
156.196675
21
222.853760
0
LINE
8
annotation
62
1
39
211
10
156.196675
20
222.853760
11
156.053842
21
222.954775
0
LINE
8
annotation
62
1
39
211
10
156.053842
20
222.954775
11
155.894380
21
223.030554
0
LINE
8
annotation
62
1
39
211
10
155.894380
20
223.030554
11
155.721170
21
223.078169
0
LINE
8
annotation
62
1
39
211
10
155.721170
20
223.078169
11
155.537093
21
223.094691
0
LINE
8
annotation
62
1
39
211
10
155.537093
20
223.094691
11
154.513606
21
223.094691
0
LINE
8
annotation
62
1
39
211
10
148.735402
20
237.635373
11
148.735402
21
241.800009
0
LINE
8
annotation
62
1
39
211
10
148.735402
20
241.800009
11
147.809550
21
240.873895
0
LINE
8
annotation
62
1
39
211
10
152.609419
20
238.561225
11
150.297010
21
238.561225
0
LINE
8
annotation
62
1
39
211
10
150.297010
20
238.561225
11
151.220511
21
241.800009
0
LINE
8
annotation
62
1
39
211
10
151.916271
20
237.635373
11
151.916271
21
239.484987
0
LINE
8
annotation
62
1
39
211
10
145.053449
20
256.335343
11
145.053449
21
260.944360
0
LINE
8
annotation
62
1
39
211
10
145.053449
20
260.944360
11
144.028805
21
259.919428
0
LINE
8
annotation
62
1
39
211
10
146.781686
20
256.335343
11
147.805173
21
256.335343
0
LINE
8
annotation
62
1
39
211
10
147.805173
20
256.335343
11
147.805173
21
256.335343
0
LINE
8
annotation
62
1
39
211
10
147.805173
20
256.335343
11
147.988869
21
256.351859
0
LINE
8
annotation
62
1
39
211
10
147.988869
20
256.351859
11
148.161877
21
256.399475
0
LINE
8
annotation
62
1
39
211
10
148.161877
20
256.399475
11
148.321279
21
256.475291
0
LINE
8
annotation
62
1
39
211
10
148.321279
20
256.475291
11
148.464160
21
256.576407
0
LINE
8
annotation
62
1
39
211
10
148.464160
20
256.576407
11
148.587603
21
256.699923
0
LINE
8
annotation
62
1
39
211
10
148.587603
20
256.699923
11
148.688691
21
256.842938
0
LINE
8
annotation
62
1
39
211
10
148.688691
20
256.842938
11
148.764507
21
257.002554
0
LINE
8
annotation
62
1
39
211
10
148.764507
20
257.002554
11
148.812136
21
257.175870
0
LINE
8
annotation
62
1
39
211
10
148.812136
20
257.175870
11
148.828661
21
257.359986
0
LINE
8
annotation
62
1
39
211
10
148.828661
20
257.359986
11
148.828661
21
257.869851
0
LINE
8
annotation
62
1
39
211
10
148.828661
20
257.869851
11
148.828661
21
257.869851
0
LINE
8
annotation
62
1
39
211
10
148.828661
20
257.869851
11
148.812146
21
258.053878
0
LINE
8
annotation
62
1
39
211
10
148.812146
20
258.053878
11
148.764541
21
258.226955
0
LINE
8
annotation
62
1
39
211
10
148.764541
20
258.226955
11
148.688755
21
258.386225
0
LINE
8
annotation
62
1
39
211
10
148.688755
20
258.386225
11
148.587698
21
258.528830
0
LINE
8
annotation
62
1
39
211
10
148.587698
20
258.528830
11
148.464279
21
258.651914
0
LINE
8
annotation
62
1
39
211
10
148.464279
20
258.651914
11
148.321408
21
258.752620
0
LINE
8
annotation
62
1
39
211
10
148.321408
20
258.752620
11
148.161993
21
258.828089
0
LINE
8
annotation
62
1
39
211
10
148.161993
20
258.828089
11
147.988945
21
258.875466
0
LINE
8
annotation
62
1
39
211
10
147.988945
20
258.875466
11
147.805173
21
258.891894
0
LINE
8
annotation
62
1
39
211
10
147.805173
20
258.891894
11
146.781686
21
258.891894
0
LINE
8
annotation
62
1
39
211
10
146.781686
20
258.891894
11
146.781686
21
260.944360
0
LINE
8
annotation
62
1
39
211
10
146.781686
20
260.944360
11
148.828661
21
260.944360
0
LINE
8
annotation
62
1
39
211
10
141.481175
20
275.257504
11
141.481175
21
279.866521
0
LINE
8
annotation
62
1
39
211
10
141.481175
20
279.866521
11
140.456531
21
278.841589
0
LINE
8
annotation
62
1
39
211
10
144.746811
20
279.866521
11
144.746811
21
279.866521
0
LINE
8
annotation
62
1
39
211
10
144.746811
20
279.866521
11
144.453607
21
279.756588
0
LINE
8
annotation
62
1
39
211
10
144.453607
20
279.756588
11
144.184555
21
279.608465
0
LINE
8
annotation
62
1
39
211
10
144.184555
20
279.608465
11
143.942415
21
279.425865
0
LINE
8
annotation
62
1
39
211
10
143.942415
20
279.425865
11
143.729950
21
279.212498
0
LINE
8
annotation
62
1
39
211
10
143.729950
20
279.212498
11
143.549921
21
278.972076
0
LINE
8
annotation
62
1
39
211
10
143.549921
20
278.972076
11
143.405091
21
278.708309
0
LINE
8
annotation
62
1
39
211
10
143.405091
20
278.708309
11
143.298222
21
278.424910
0
LINE
8
annotation
62
1
39
211
10
143.298222
20
278.424910
11
143.232075
21
278.125588
0
LINE
8
annotation
62
1
39
211
10
143.232075
20
278.125588
11
143.209412
21
277.814055
0
LINE
8
annotation
62
1
39
211
10
143.209412
20
277.814055
11
143.209412
21
276.282147
0
LINE
8
annotation
62
1
39
211
10
143.209412
20
276.282147
11
143.209412
21
276.282147
0
LINE
8
annotation
62
1
39
211
10
143.209412
20
276.282147
11
143.225936
21
276.098031
0
LINE
8
annotation
62
1
39
211
10
143.225936
20
276.098031
11
143.273565
21
275.924715
0
LINE
8
annotation
62
1
39
211
10
143.273565
20
275.924715
11
143.349382
21
275.765099
0
LINE
8
annotation
62
1
39
211
10
143.349382
20
275.765099
11
143.450470
21
275.622084
0
LINE
8
annotation
62
1
39
211
10
143.450470
20
275.622084
11
143.573912
21
275.498568
0
LINE
8
annotation
62
1
39
211
10
143.573912
20
275.498568
11
143.716793
21
275.397452
0
LINE
8
annotation
62
1
39
211
10
143.716793
20
275.397452
11
143.876196
21
275.321636
0
LINE
8
annotation
62
1
39
211
10
143.876196
20
275.321636
11
144.049203
21
275.274020
0
LINE
8
annotation
62
1
39
211
10
144.049203
20
275.274020
11
144.232899
21
275.257504
0
LINE
8
annotation
62
1
39
211
10
144.232899
20
275.257504
11
144.232899
21
275.257504
0
LINE
8
annotation
62
1
39
211
10
144.232899
20
275.257504
11
144.416976
21
275.274020
0
LINE
8
annotation
62
1
39
211
10
144.416976
20
275.274020
11
144.590186
21
275.321636
0
LINE
8
annotation
62
1
39
211
10
144.590186
20
275.321636
11
144.749648
21
275.397452
0
LINE
8
annotation
62
1
39
211
10
144.749648
20
275.397452
11
144.892481
21
275.498568
0
LINE
8
annotation
62
1
39
211
10
144.892481
20
275.498568
11
145.015805
21
275.622084
0
LINE
8
annotation
62
1
39
211
10
145.015805
20
275.622084
11
145.116738
21
275.765099
0
LINE
8
annotation
62
1
39
211
10
145.116738
20
275.765099
11
145.192400
21
275.924715
0
LINE
8
annotation
62
1
39
211
10
145.192400
20
275.924715
11
145.239910
21
276.098031
0
LINE
8
annotation
62
1
39
211
10
145.239910
20
276.098031
11
145.256387
21
276.282147
0
LINE
8
annotation
62
1
39
211
10
145.256387
20
276.282147
11
145.256387
21
276.792012
0
LINE
8
annotation
62
1
39
211
10
145.256387
20
276.792012
11
145.256387
21
276.792012
0
LINE
8
annotation
62
1
39
211
10
145.256387
20
276.792012
11
145.239910
21
276.976039
0
LINE
8
annotation
62
1
39
211
10
145.239910
20
276.976039
11
145.192400
21
277.149116
0
LINE
8
annotation
62
1
39
211
10
145.192400
20
277.149116
11
145.116738
21
277.308386
0
LINE
8
annotation
62
1
39
211
10
145.116738
20
277.308386
11
145.015805
21
277.450991
0
LINE
8
annotation
62
1
39
211
10
145.015805
20
277.450991
11
144.892481
21
277.574075
0
LINE
8
annotation
62
1
39
211
10
144.892481
20
277.574075
11
144.749648
21
277.674780
0
LINE
8
annotation
62
1
39
211
10
144.749648
20
277.674780
11
144.590186
21
277.750250
0
LINE
8
annotation
62
1
39
211
10
144.590186
20
277.750250
11
144.416976
21
277.797627
0
LINE
8
annotation
62
1
39
211
10
144.416976
20
277.797627
11
144.232899
21
277.814055
0
LINE
8
annotation
62
1
39
211
10
144.232899
20
277.814055
11
143.209412
21
277.814055
0
LINE
8
annotation
62
1
39
211
10
143.081223
20
274.681377
11
145.385732
21
274.681377
0
LINE
8
annotation
62
1
39
211
10
138.013247
20
294.180913
11
138.013247
21
298.787434
0
LINE
8
annotation
62
1
39
211
10
138.013247
20
298.787434
11
136.989158
21
297.763056
0
LINE
8
annotation
62
1
39
211
10
140.764781
20
294.180913
11
141.788869
21
298.787434
0
LINE
8
annotation
62
1
39
211
10
141.788869
20
298.787434
11
139.740403
21
298.787434
0
LINE
8
annotation
62
1
39
211
10
141.788869
20
296.736079
11
140.764781
21
296.736079
0
LINE
8
annotation
62
1
39
211
10
134.244451
20
313.101826
11
134.244451
21
317.710843
0
LINE
8
annotation
62
1
39
211
10
134.244451
20
317.710843
11
133.219808
21
316.685910
0
LINE
8
annotation
62
1
39
211
10
135.972688
20
314.123723
11
135.972688
21
314.123723
0
LINE
8
annotation
62
1
39
211
10
135.972688
20
314.123723
11
135.989213
21
313.939696
0
LINE
8
annotation
62
1
39
211
10
135.989213
20
313.939696
11
136.036842
21
313.766619
0
LINE
8
annotation
62
1
39
211
10
136.036842
20
313.766619
11
136.112658
21
313.607350
0
LINE
8
annotation
62
1
39
211
10
136.112658
20
313.607350
11
136.213746
21
313.464744
0
LINE
8
annotation
62
1
39
211
10
136.213746
20
313.464744
11
136.337189
21
313.341660
0
LINE
8
annotation
62
1
39
211
10
136.337189
20
313.341660
11
136.480070
21
313.240955
0
LINE
8
annotation
62
1
39
211
10
136.480070
20
313.240955
11
136.639472
21
313.165485
0
LINE
8
annotation
62
1
39
211
10
136.639472
20
313.165485
11
136.812480
21
313.118108
0
LINE
8
annotation
62
1
39
211
10
136.812480
20
313.118108
11
136.996176
21
313.101681
0
LINE
8
annotation
62
1
39
211
10
136.996176
20
313.101681
11
136.996176
21
313.101681
0
LINE
8
annotation
62
1
39
211
10
136.996176
20
313.101681
11
137.179872
21
313.118108
0
LINE
8
annotation
62
1
39
211
10
137.179872
20
313.118108
11
137.352879
21
313.165485
0
LINE
8
annotation
62
1
39
211
10
137.352879
20
313.165485
11
137.512282
21
313.240955
0
LINE
8
annotation
62
1
39
211
10
137.512282
20
313.240955
11
137.655163
21
313.341660
0
LINE
8
annotation
62
1
39
211
10
137.655163
20
313.341660
11
137.778605
21
313.464744
0
LINE
8
annotation
62
1
39
211
10
137.778605
20
313.464744
11
137.879693
21
313.607350
0
LINE
8
annotation
62
1
39
211
10
137.879693
20
313.607350
11
137.955510
21
313.766619
0
LINE
8
annotation
62
1
39
211
10
137.955510
20
313.766619
11
138.003139
21
313.939696
0
LINE
8
annotation
62
1
39
211
10
138.003139
20
313.939696
11
138.019663
21
314.123723
0
LINE
8
annotation
62
1
39
211
10
138.019663
20
314.123723
11
138.019663
21
314.633588
0
LINE
8
annotation
62
1
39
211
10
138.019663
20
314.633588
11
138.019663
21
314.633588
0
LINE
8
annotation
62
1
39
211
10
138.019663
20
314.633588
11
138.003148
21
314.817705
0
LINE
8
annotation
62
1
39
211
10
138.003148
20
314.817705
11
137.955543
21
314.991021
0
LINE
8
annotation
62
1
39
211
10
137.955543
20
314.991021
11
137.879758
21
315.150636
0
LINE
8
annotation
62
1
39
211
10
137.879758
20
315.150636
11
137.778701
21
315.293652
0
LINE
8
annotation
62
1
39
211
10
137.778701
20
315.293652
11
137.655282
21
315.417168
0
LINE
8
annotation
62
1
39
211
10
137.655282
20
315.417168
11
137.512410
21
315.518283
0
LINE
8
annotation
62
1
39
211
10
137.512410
20
315.518283
11
137.352996
21
315.594099
0
LINE
8
annotation
62
1
39
211
10
137.352996
20
315.594099
11
137.179948
21
315.641715
0
LINE
8
annotation
62
1
39
211
10
137.179948
20
315.641715
11
136.996176
21
315.658232
0
LINE
8
annotation
62
1
39
211
10
136.996176
20
315.658232
11
136.996176
21
315.658232
0
LINE
8
annotation
62
1
39
211
10
136.996176
20
315.658232
11
136.812404
21
315.641706
0
LINE
8
annotation
62
1
39
211
10
136.812404
20
315.641706
11
136.639356
21
315.594066
0
LINE
8
annotation
62
1
39
211
10
136.639356
20
315.594066
11
136.479941
21
315.518219
0
LINE
8
annotation
62
1
39
211
10
136.479941
20
315.518219
11
136.337070
21
315.417072
0
LINE
8
annotation
62
1
39
211
10
136.337070
20
315.417072
11
136.213651
21
315.293533
0
LINE
8
annotation
62
1
39
211
10
136.213651
20
315.293533
11
136.112594
21
315.150508
0
LINE
8
annotation
62
1
39
211
10
136.112594
20
315.150508
11
136.036808
21
314.990904
0
LINE
8
annotation
62
1
39
211
10
136.036808
20
314.990904
11
135.989203
21
314.817628
0
LINE
8
annotation
62
1
39
211
10
135.989203
20
314.817628
11
135.972688
21
314.633588
0
LINE
8
annotation
62
1
39
211
10
135.972688
20
314.633588
11
135.972688
21
314.123723
0
LINE
8
annotation
62
1
39
211
10
138.019663
20
316.683164
11
138.019663
21
316.683164
0
LINE
8
annotation
62
1
39
211
10
138.019663
20
316.683164
11
138.003148
21
316.866430
0
LINE
8
annotation
62
1
39
211
10
138.003148
20
316.866430
11
137.955543
21
317.039103
0
LINE
8
annotation
62
1
39
211
10
137.955543
20
317.039103
11
137.879758
21
317.198254
0
LINE
8
annotation
62
1
39
211
10
137.879758
20
317.198254
11
137.778701
21
317.340954
0
LINE
8
annotation
62
1
39
211
10
137.778701
20
317.340954
11
137.655282
21
317.464276
0
LINE
8
annotation
62
1
39
211
10
137.655282
20
317.464276
11
137.512410
21
317.565290
0
LINE
8
annotation
62
1
39
211
10
137.512410
20
317.565290
11
137.352996
21
317.641069
0
LINE
8
annotation
62
1
39
211
10
137.352996
20
317.641069
11
137.179948
21
317.688684
0
LINE
8
annotation
62
1
39
211
10
137.179948
20
317.688684
11
136.996176
21
317.705207
0
LINE
8
annotation
62
1
39
211
10
136.996176
20
317.705207
11
136.996176
21
317.705207
0
LINE
8
annotation
62
1
39
211
10
136.996176
20
317.705207
11
136.812404
21
317.688684
0
LINE
8
annotation
62
1
39
211
10
136.812404
20
317.688684
11
136.639356
21
317.641069
0
LINE
8
annotation
62
1
39
211
10
136.639356
20
317.641069
11
136.479941
21
317.565290
0
LINE
8
annotation
62
1
39
211
10
136.479941
20
317.565290
11
136.337070
21
317.464276
0
LINE
8
annotation
62
1
39
211
10
136.337070
20
317.464276
11
136.213651
21
317.340954
0
LINE
8
annotation
62
1
39
211
10
136.213651
20
317.340954
11
136.112594
21
317.198254
0
LINE
8
annotation
62
1
39
211
10
136.112594
20
317.198254
11
136.036808
21
317.039103
0
LINE
8
annotation
62
1
39
211
10
136.036808
20
317.039103
11
135.989203
21
316.866430
0
LINE
8
annotation
62
1
39
211
10
135.989203
20
316.866430
11
135.972688
21
316.683164
0
LINE
8
annotation
62
1
39
211
10
135.972688
20
316.683164
11
135.972688
21
316.683164
0
LINE
8
annotation
62
1
39
211
10
135.972688
20
316.683164
11
135.989213
21
316.499038
0
LINE
8
annotation
62
1
39
211
10
135.989213
20
316.499038
11
136.036842
21
316.325696
0
LINE
8
annotation
62
1
39
211
10
136.036842
20
316.325696
11
136.112658
21
316.166041
0
LINE
8
annotation
62
1
39
211
10
136.112658
20
316.166041
11
136.213746
21
316.022980
0
LINE
8
annotation
62
1
39
211
10
136.213746
20
316.022980
11
136.337189
21
315.899416
0
LINE
8
annotation
62
1
39
211
10
136.337189
20
315.899416
11
136.480070
21
315.798255
0
LINE
8
annotation
62
1
39
211
10
136.480070
20
315.798255
11
136.639472
21
315.722401
0
LINE
8
annotation
62
1
39
211
10
136.639472
20
315.722401
11
136.812480
21
315.674758
0
LINE
8
annotation
62
1
39
211
10
136.812480
20
315.674758
11
136.996176
21
315.658232
0
LINE
8
annotation
62
1
39
211
10
136.996176
20
315.658232
11
136.996176
21
315.658232
0
LINE
8
annotation
62
1
39
211
10
136.996176
20
315.658232
11
137.179872
21
315.674758
0
LINE
8
annotation
62
1
39
211
10
137.179872
20
315.674758
11
137.352879
21
315.722401
0
LINE
8
annotation
62
1
39
211
10
137.352879
20
315.722401
11
137.512282
21
315.798255
0
LINE
8
annotation
62
1
39
211
10
137.512282
20
315.798255
11
137.655163
21
315.899416
0
LINE
8
annotation
62
1
39
211
10
137.655163
20
315.899416
11
137.778605
21
316.022980
0
LINE
8
annotation
62
1
39
211
10
137.778605
20
316.022980
11
137.879693
21
316.166041
0
LINE
8
annotation
62
1
39
211
10
137.879693
20
316.166041
11
137.955510
21
316.325696
0
LINE
8
annotation
62
1
39
211
10
137.955510
20
316.325696
11
138.003139
21
316.499038
0
LINE
8
annotation
62
1
39
211
10
138.003139
20
316.499038
11
138.019663
21
316.683164
0
LINE
8
annotation
62
1
39
211
10
128.947640
20
332.023986
11
128.947640
21
336.633004
0
LINE
8
annotation
62
1
39
211
10
128.947640
20
336.633004
11
127.922996
21
335.608071
0
LINE
8
annotation
62
1
39
211
10
131.186898
20
332.023986
11
131.186898
21
332.023986
0
LINE
8
annotation
62
1
39
211
10
131.186898
20
332.023986
11
131.479585
21
332.133056
0
LINE
8
annotation
62
1
39
211
10
131.479585
20
332.133056
11
131.748235
21
332.280483
0
LINE
8
annotation
62
1
39
211
10
131.748235
20
332.280483
11
131.990073
21
332.462512
0
LINE
8
annotation
62
1
39
211
10
131.990073
20
332.462512
11
132.202322
21
332.675386
0
LINE
8
annotation
62
1
39
211
10
132.202322
20
332.675386
11
132.382205
21
332.915349
0
LINE
8
annotation
62
1
39
211
10
132.382205
20
332.915349
11
132.526947
21
333.178644
0
LINE
8
annotation
62
1
39
211
10
132.526947
20
333.178644
11
132.633772
21
333.461515
0
LINE
8
annotation
62
1
39
211
10
132.633772
20
333.461515
11
132.699902
21
333.760207
0
LINE
8
annotation
62
1
39
211
10
132.699902
20
333.760207
11
132.722562
21
334.070961
0
LINE
8
annotation
62
1
39
211
10
132.722562
20
334.070961
11
132.722562
21
335.608071
0
LINE
8
annotation
62
1
39
211
10
132.722562
20
335.608071
11
132.722562
21
335.608071
0
LINE
8
annotation
62
1
39
211
10
132.722562
20
335.608071
11
132.706086
21
335.792197
0
LINE
8
annotation
62
1
39
211
10
132.706086
20
335.792197
11
132.658576
21
335.965540
0
LINE
8
annotation
62
1
39
211
10
132.658576
20
335.965540
11
132.582914
21
336.125194
0
LINE
8
annotation
62
1
39
211
10
132.582914
20
336.125194
11
132.481980
21
336.268256
0
LINE
8
annotation
62
1
39
211
10
132.481980
20
336.268256
11
132.358657
21
336.391819
0
LINE
8
annotation
62
1
39
211
10
132.358657
20
336.391819
11
132.215823
21
336.492980
0
LINE
8
annotation
62
1
39
211
10
132.215823
20
336.492980
11
132.056361
21
336.568835
0
LINE
8
annotation
62
1
39
211
10
132.056361
20
336.568835
11
131.883152
21
336.616477
0
LINE
8
annotation
62
1
39
211
10
131.883152
20
336.616477
11
131.699075
21
336.633004
0
LINE
8
annotation
62
1
39
211
10
131.699075
20
336.633004
11
131.699075
21
336.633004
0
LINE
8
annotation
62
1
39
211
10
131.699075
20
336.633004
11
131.515379
21
336.616477
0
LINE
8
annotation
62
1
39
211
10
131.515379
20
336.616477
11
131.342371
21
336.568835
0
LINE
8
annotation
62
1
39
211
10
131.342371
20
336.568835
11
131.182969
21
336.492980
0
LINE
8
annotation
62
1
39
211
10
131.182969
20
336.492980
11
131.040088
21
336.391819
0
LINE
8
annotation
62
1
39
211
10
131.040088
20
336.391819
11
130.916645
21
336.268256
0
LINE
8
annotation
62
1
39
211
10
130.916645
20
336.268256
11
130.815557
21
336.125194
0
LINE
8
annotation
62
1
39
211
10
130.815557
20
336.125194
11
130.739741
21
335.965540
0
LINE
8
annotation
62
1
39
211
10
130.739741
20
335.965540
11
130.692112
21
335.792197
0
LINE
8
annotation
62
1
39
211
10
130.692112
20
335.792197
11
130.675588
21
335.608071
0
LINE
8
annotation
62
1
39
211
10
130.675588
20
335.608071
11
130.675588
21
335.095605
0
LINE
8
annotation
62
1
39
211
10
130.675588
20
335.095605
11
130.675588
21
335.095605
0
LINE
8
annotation
62
1
39
211
10
130.675588
20
335.095605
11
130.692112
21
334.911489
0
LINE
8
annotation
62
1
39
211
10
130.692112
20
334.911489
11
130.739741
21
334.738173
0
LINE
8
annotation
62
1
39
211
10
130.739741
20
334.738173
11
130.815557
21
334.578557
0
LINE
8
annotation
62
1
39
211
10
130.815557
20
334.578557
11
130.916645
21
334.435541
0
LINE
8
annotation
62
1
39
211
10
130.916645
20
334.435541
11
131.040088
21
334.312025
0
LINE
8
annotation
62
1
39
211
10
131.040088
20
334.312025
11
131.182969
21
334.210910
0
LINE
8
annotation
62
1
39
211
10
131.182969
20
334.210910
11
131.342371
21
334.135094
0
LINE
8
annotation
62
1
39
211
10
131.342371
20
334.135094
11
131.515379
21
334.087478
0
LINE
8
annotation
62
1
39
211
10
131.515379
20
334.087478
11
131.699075
21
334.070961
0
LINE
8
annotation
62
1
39
211
10
131.699075
20
334.070961
11
132.722562
21
334.070961
0
LINE
8
annotation
62
1
39
211
10
130.547688
20
331.447859
11
132.852196
21
331.447859
0
LINE
8
annotation
62
1
39
211
10
141.375056
20
284.193163
11
137.956033
21
284.193163
0
LINE
8
annotation
62
1
39
211
10
137.956033
20
284.193163
11
141.375056
21
290.350802
0
LINE
8
annotation
62
1
39
211
10
141.375056
20
290.350802
11
137.956033
21
290.350802
0
LINE
8
annotation
62
1
39
211
10
147.051642
20
287.271983
11
143.684750
21
287.271983
0
LINE
8
annotation
62
1
39
211
10
150.729293
20
284.193163
11
150.729293
21
290.350802
0
LINE
8
annotation
62
1
39
211
10
150.729293
20
290.350802
11
149.360371
21
288.981494
0
LINE
8
annotation
62
1
39
211
10
155.092177
20
290.350802
11
155.092177
21
290.350802
0
LINE
8
annotation
62
1
39
211
10
155.092177
20
290.350802
11
154.700457
21
290.203931
0
LINE
8
annotation
62
1
39
211
10
154.700457
20
290.203931
11
154.341004
21
290.006040
0
LINE
8
annotation
62
1
39
211
10
154.341004
20
290.006040
11
154.017505
21
289.762087
0
LINE
8
annotation
62
1
39
211
10
154.017505
20
289.762087
11
153.733652
21
289.477029
0
LINE
8
annotation
62
1
39
211
10
153.733652
20
289.477029
11
153.493134
21
289.155825
0
LINE
8
annotation
62
1
39
211
10
153.493134
20
289.155825
11
153.299642
21
288.803434
0
LINE
8
annotation
62
1
39
211
10
153.299642
20
288.803434
11
153.156864
21
288.424812
0
LINE
8
annotation
62
1
39
211
10
153.156864
20
288.424812
11
153.068492
21
288.024918
0
LINE
8
annotation
62
1
39
211
10
153.068492
20
288.024918
11
153.038214
21
287.608711
0
LINE
8
annotation
62
1
39
211
10
153.038214
20
287.608711
11
153.038214
21
285.562085
0
LINE
8
annotation
62
1
39
211
10
153.038214
20
285.562085
11
153.038214
21
285.562085
0
LINE
8
annotation
62
1
39
211
10
153.038214
20
285.562085
11
153.060291
21
285.316106
0
LINE
8
annotation
62
1
39
211
10
153.060291
20
285.316106
11
153.123923
21
285.084556
0
LINE
8
annotation
62
1
39
211
10
153.123923
20
285.084556
11
153.225214
21
284.871310
0
LINE
8
annotation
62
1
39
211
10
153.225214
20
284.871310
11
153.360267
21
284.680241
0
LINE
8
annotation
62
1
39
211
10
153.360267
20
284.680241
11
153.525186
21
284.515224
0
LINE
8
annotation
62
1
39
211
10
153.525186
20
284.515224
11
153.716075
21
284.380134
0
LINE
8
annotation
62
1
39
211
10
153.716075
20
284.380134
11
153.929036
21
284.278844
0
LINE
8
annotation
62
1
39
211
10
153.929036
20
284.278844
11
154.160174
21
284.215229
0
LINE
8
annotation
62
1
39
211
10
154.160174
20
284.215229
11
154.405592
21
284.193163
0
LINE
8
annotation
62
1
39
211
10
154.405592
20
284.193163
11
154.405592
21
284.193163
0
LINE
8
annotation
62
1
39
211
10
154.405592
20
284.193163
11
154.651518
21
284.215229
0
LINE
8
annotation
62
1
39
211
10
154.651518
20
284.215229
11
154.882926
21
284.278844
0
LINE
8
annotation
62
1
39
211
10
154.882926
20
284.278844
11
155.095967
21
284.380134
0
LINE
8
annotation
62
1
39
211
10
155.095967
20
284.380134
11
155.286792
21
284.515224
0
LINE
8
annotation
62
1
39
211
10
155.286792
20
284.515224
11
155.451552
21
284.680241
0
LINE
8
annotation
62
1
39
211
10
155.451552
20
284.680241
11
155.586399
21
284.871310
0
LINE
8
annotation
62
1
39
211
10
155.586399
20
284.871310
11
155.687483
21
285.084556
0
LINE
8
annotation
62
1
39
211
10
155.687483
20
285.084556
11
155.750956
21
285.316106
0
LINE
8
annotation
62
1
39
211
10
155.750956
20
285.316106
11
155.772969
21
285.562085
0
LINE
8
annotation
62
1
39
211
10
155.772969
20
285.562085
11
155.772969
21
286.243264
0
LINE
8
annotation
62
1
39
211
10
155.772969
20
286.243264
11
155.772969
21
286.243264
0
LINE
8
annotation
62
1
39
211
10
155.772969
20
286.243264
11
155.750956
21
286.489124
0
LINE
8
annotation
62
1
39
211
10
155.750956
20
286.489124
11
155.687483
21
286.720354
0
LINE
8
annotation
62
1
39
211
10
155.687483
20
286.720354
11
155.586399
21
286.933138
0
LINE
8
annotation
62
1
39
211
10
155.586399
20
286.933138
11
155.451552
21
287.123659
0
LINE
8
annotation
62
1
39
211
10
155.451552
20
287.123659
11
155.286792
21
287.288099
0
LINE
8
annotation
62
1
39
211
10
155.286792
20
287.288099
11
155.095967
21
287.422641
0
LINE
8
annotation
62
1
39
211
10
155.095967
20
287.422641
11
154.882926
21
287.523468
0
LINE
8
annotation
62
1
39
211
10
154.882926
20
287.523468
11
154.651518
21
287.586764
0
LINE
8
annotation
62
1
39
211
10
154.651518
20
287.586764
11
154.405592
21
287.608711
0
LINE
8
annotation
62
1
39
211
10
154.405592
20
287.608711
11
153.038214
21
287.608711
0
LINE
8
annotation
62
1
39
211
10
152.866954
20
283.423458
11
155.945774
21
283.423458
0
LINE
8
boundary
62
5
39
2
10
242.101697
20
270.243739
11
241.209221
21
270.623572
0
LINE
8
boundary
62
5
39
2
10
241.209221
20
270.623572
11
240.339750
21
270.894913
0
LINE
8
boundary
62
5
39
2
10
240.339750
20
270.894913
11
239.497310
21
271.054687
0
LINE
8
boundary
62
5
39
2
10
239.497310
20
271.054687
11
238.685884
21
271.099926
0
LINE
8
boundary
62
5
39
2
10
238.685884
20
271.099926
11
237.966723
21
271.028485
0
LINE
8
boundary
62
5
39
2
10
237.966723
20
271.028485
11
237.294319
21
270.856812
0
LINE
8
boundary
62
5
39
2
10
237.294319
20
270.856812
11
236.664336
21
270.587406
0
LINE
8
boundary
62
5
39
2
10
236.664336
20
270.587406
11
236.078465
21
270.222513
0
LINE
8
boundary
62
5
39
2
10
236.078465
20
270.222513
11
235.537983
21
269.764925
0
LINE
8
boundary
62
5
39
2
10
235.537983
20
269.764925
11
235.043667
21
269.218092
0
LINE
8
boundary
62
5
39
2
10
235.043667
20
269.218092
11
234.681881
21
268.729242
0
LINE
8
boundary
62
5
39
2
10
234.681881
20
268.729242
11
234.194474
21
267.874496
0
LINE
8
boundary
62
5
39
2
10
234.194474
20
267.874496
11
233.839325
21
267.048026
0
LINE
8
boundary
62
5
39
2
10
233.839325
20
267.048026
11
233.527957
21
266.149793
0
LINE
8
boundary
62
5
39
2
10
233.527957
20
266.149793
11
233.256575
21
265.187098
0
LINE
8
boundary
62
5
39
2
10
233.256575
20
265.187098
11
233.075041
21
264.439849
0
LINE
8
boundary
62
5
39
2
10
233.075041
20
264.439849
11
232.853797
21
263.266326
0
LINE
8
boundary
62
5
39
2
10
232.853797
20
263.266326
11
232.639383
21
261.831832
0
LINE
8
boundary
62
5
39
2
10
232.639383
20
261.831832
11
232.492456
21
260.532153
0
LINE
8
boundary
62
5
39
2
10
232.492456
20
260.532153
11
232.422072
21
259.827371
0
LINE
8
boundary
62
5
39
2
10
232.422072
20
259.827371
11
232.374897
21
259.187510
0
LINE
8
boundary
62
5
39
2
10
232.374897
20
259.187510
11
232.296109
21
258.066934
0
LINE
8
boundary
62
5
39
2
10
232.296109
20
258.066934
11
232.244622
21
256.937937
0
LINE
8
boundary
62
5
39
2
10
232.244622
20
256.937937
11
232.209319
21
256.198396
0
LINE
8
boundary
62
5
39
2
10
232.209319
20
256.198396
11
232.184267
21
255.258283
0
LINE
8
boundary
62
5
39
2
10
232.184267
20
255.258283
11
232.157096
21
254.222305
0
LINE
8
boundary
62
5
39
2
10
232.157096
20
254.222305
11
232.143364
21
252.794017
0
LINE
8
boundary
62
5
39
2
10
232.143364
20
252.794017
11
232.136703
21
252.150252
0
LINE
8
boundary
62
5
39
2
10
232.136703
20
252.150252
11
232.140161
21
251.534458
0
LINE
8
boundary
62
5
39
2
10
232.140161
20
251.534458
11
232.144650
21
250.658639
0
LINE
8
boundary
62
5
39
2
10
232.144650
20
250.658639
11
232.146659
21
250.003971
0
LINE
8
boundary
62
5
39
2
10
232.146659
20
250.003971
11
232.160789
21
249.173733
0
LINE
8
boundary
62
5
39
2
10
232.160789
20
249.173733
11
232.174796
21
248.319394
0
LINE
8
boundary
62
5
39
2
10
232.174796
20
248.319394
11
232.182537
21
247.786464
0
LINE
8
boundary
62
5
39
2
10
232.182537
20
247.786464
11
232.206758
21
246.885409
0
LINE
8
boundary
62
5
39
2
10
232.206758
20
246.885409
11
232.230331
21
245.983963
0
LINE
8
boundary
62
5
39
2
10
232.230331
20
245.983963
11
232.275017
21
244.572460
0
LINE
8
boundary
62
5
39
2
10
232.275017
20
244.572460
11
232.307066
21
243.647684
0
LINE
8
boundary
62
5
39
2
10
232.307066
20
243.647684
11
232.363055
21
242.239141
0
LINE
8
boundary
62
5
39
2
10
232.363055
20
242.239141
11
232.402740
21
241.303053
0
LINE
8
boundary
62
5
39
2
10
232.402740
20
241.303053
11
232.469293
21
239.888193
0
LINE
8
boundary
62
5
39
2
10
232.469293
20
239.888193
11
232.516121
21
238.942697
0
LINE
8
boundary
62
5
39
2
10
232.516121
20
238.942697
11
232.592461
21
237.523374
0
LINE
8
boundary
62
5
39
2
10
232.592461
20
237.523374
11
232.646494
21
236.561141
0
LINE
8
boundary
62
5
39
2
10
232.646494
20
236.561141
11
232.731356
21
235.150771
0
LINE
8
boundary
62
5
39
2
10
232.731356
20
235.150771
11
232.793325
21
234.156293
0
LINE
8
boundary
62
5
39
2
10
232.793325
20
234.156293
11
232.873224
21
232.937013
0
LINE
8
boundary
62
5
39
2
10
232.873224
20
232.937013
11
232.930036
21
232.094748
0
LINE
8
boundary
62
5
39
2
10
232.930036
20
232.094748
11
233.013270
21
230.932053
0
LINE
8
boundary
62
5
39
2
10
233.013270
20
230.932053
11
233.051197
21
230.401168
0
LINE
8
boundary
62
5
39
2
10
233.051197
20
230.401168
11
233.135571
21
229.297648
0
LINE
8
boundary
62
5
39
2
10
233.135571
20
229.297648
11
233.176276
21
228.753527
0
LINE
8
boundary
62
5
39
2
10
233.176276
20
228.753527
11
233.236576
21
227.992813
0
LINE
8
boundary
62
5
39
2
10
233.236576
20
227.992813
11
233.303486
21
227.159319
0
LINE
8
boundary
62
5
39
2
10
233.303486
20
227.159319
11
233.389876
21
226.116379
0
LINE
8
boundary
62
5
39
2
10
233.389876
20
226.116379
11
233.466848
21
225.208676
0
LINE
8
boundary
62
5
39
2
10
233.466848
20
225.208676
11
233.518127
21
224.619341
0
LINE
8
boundary
62
5
39
2
10
233.518127
20
224.619341
11
233.620295
21
223.443173
0
LINE
8
boundary
62
5
39
2
10
233.620295
20
223.443173
11
233.683811
21
222.724729
0
LINE
8
boundary
62
5
39
2
10
233.683811
20
222.724729
11
233.768232
21
221.765475
0
LINE
8
boundary
62
5
39
2
10
233.768232
20
221.765475
11
233.830454
21
221.041704
0
LINE
8
boundary
62
5
39
2
10
233.830454
20
221.041704
11
233.921261
21
220.013462
0
LINE
8
boundary
62
5
39
2
10
233.921261
20
220.013462
11
234.039261
21
218.678911
0
LINE
8
boundary
62
5
39
2
10
234.039261
20
218.678911
11
234.160661
21
217.333943
0
LINE
8
boundary
62
5
39
2
10
234.160661
20
217.333943
11
234.287970
21
215.965593
0
LINE
8
boundary
62
5
39
2
10
234.287970
20
215.965593
11
234.423577
21
214.562084
0
LINE
8
boundary
62
5
39
2
10
234.423577
20
214.562084
11
234.559933
21
213.203638
0
LINE
8
boundary
62
5
39
2
10
234.559933
20
213.203638
11
234.704621
21
211.822538
0
LINE
8
boundary
62
5
39
2
10
234.704621
20
211.822538
11
234.861344
21
210.390839
0
LINE
8
boundary
62
5
39
2
10
234.861344
20
210.390839
11
235.030561
21
208.910205
0
LINE
8
boundary
62
5
39
2
10
235.030561
20
208.910205
11
235.211769
21
207.386960
0
LINE
8
boundary
62
5
39
2
10
235.211769
20
207.386960
11
235.287425
21
206.771933
0
LINE
8
boundary
62
5
39
2
10
235.287425
20
206.771933
11
235.404721
21
205.823482
0
LINE
8
boundary
62
5
39
2
10
235.404721
20
205.823482
11
235.503608
21
205.047504
0
LINE
8
boundary
62
5
39
2
10
235.503608
20
205.047504
11
235.609342
21
204.221488
0
LINE
8
boundary
62
5
39
2
10
235.609342
20
204.221488
11
235.734338
21
203.273258
0
LINE
8
boundary
62
5
39
2
10
235.734338
20
203.273258
11
235.825615
21
202.582640
0
LINE
8
boundary
62
5
39
2
10
235.825615
20
202.582640
11
235.979603
21
201.451779
0
LINE
8
boundary
62
5
39
2
10
235.979603
20
201.451779
11
236.053593
21
200.908516
0
LINE
8
boundary
62
5
39
2
10
236.053593
20
200.908516
11
236.239465
21
199.585625
0
LINE
8
boundary
62
5
39
2
10
236.239465
20
199.585625
11
236.514016
21
197.677401
0
LINE
8
boundary
62
5
39
2
10
236.514016
20
197.677401
11
236.803398
21
195.729636
0
LINE
8
boundary
62
5
39
2
10
236.803398
20
195.729636
11
237.473165
21
191.444723
0
LINE
8
boundary
62
5
39
2
10
237.473165
20
191.444723
11
237.643088
21
190.390973
0
LINE
8
boundary
62
5
39
2
10
237.643088
20
190.390973
11
238.205006
21
187.041377
0
LINE
8
boundary
62
5
39
2
10
238.205006
20
187.041377
11
238.582995
21
184.849335
0
LINE
8
boundary
62
5
39
2
10
238.582995
20
184.849335
11
238.921328
21
182.942612
0
LINE
8
boundary
62
5
39
2
10
238.921328
20
182.942612
11
239.348033
21
180.593760
0
LINE
8
boundary
62
5
39
2
10
239.348033
20
180.593760
11
239.611896
21
179.170169
0
LINE
8
boundary
62
5
39
2
10
239.611896
20
179.170169
11
240.159499
21
176.278127
0
LINE
8
boundary
62
5
39
2
10
240.159499
20
176.278127
11
240.358385
21
175.247669
0
LINE
8
boundary
62
5
39
2
10
240.358385
20
175.247669
11
241.012650
21
171.922365
0
LINE
8
boundary
62
5
39
2
10
241.012650
20
171.922365
11
241.453363
21
169.735065
0
LINE
8
boundary
62
5
39
2
10
241.453363
20
169.735065
11
241.902703
21
167.544203
0
LINE
8
boundary
62
5
39
2
10
241.902703
20
167.544203
11
242.360084
21
165.351646
0
LINE
8
boundary
62
5
39
2
10
242.360084
20
165.351646
11
242.824913
21
163.159262
0
LINE
8
boundary
62
5
39
2
10
242.824913
20
163.159262
11
243.296595
21
160.968755
0
LINE
8
boundary
62
5
39
2
10
243.296595
20
160.968755
11
243.774574
21
158.780933
0
LINE
8
boundary
62
5
39
2
10
243.774574
20
158.780933
11
243.909848
21
158.164235
0
LINE
8
boundary
62
5
39
2
10
243.909848
20
158.164235
11
244.258282
21
156.595269
0
LINE
8
boundary
62
5
39
2
10
244.258282
20
156.595269
11
244.431675
21
155.814861
0
LINE
8
boundary
62
5
39
2
10
244.431675
20
155.814861
11
244.747233
21
154.411078
0
LINE
8
boundary
62
5
39
2
10
244.747233
20
154.411078
11
244.968163
21
153.428067
0
LINE
8
boundary
62
5
39
2
10
244.968163
20
153.428067
11
245.240929
21
152.227718
0
LINE
8
boundary
62
5
39
2
10
245.240929
20
152.227718
11
245.518999
21
151.003056
0
LINE
8
boundary
62
5
39
2
10
245.518999
20
151.003056
11
245.738918
21
150.044571
0
LINE
8
boundary
62
5
39
2
10
245.738918
20
150.044571
11
246.377829
21
147.264915
0
LINE
8
boundary
62
5
39
2
10
246.377829
20
147.264915
11
246.577300
21
146.404704
0
LINE
8
boundary
62
5
39
2
10
246.577300
20
146.404704
11
247.247052
21
143.525824
0
LINE
8
boundary
62
5
39
2
10
247.247052
20
143.525824
11
247.422096
21
142.764525
0
LINE
8
boundary
62
5
39
2
10
247.422096
20
142.764525
11
248.262824
21
139.132874
0
LINE
8
boundary
62
5
39
2
10
248.262824
20
139.132874
11
248.644775
21
137.478996
0
LINE
8
boundary
62
5
39
2
10
248.644775
20
137.478996
11
249.107520
21
135.490865
0
LINE
8
boundary
62
5
39
2
10
249.107520
20
135.490865
11
249.880729
21
132.153596
0
LINE
8
boundary
62
5
39
2
10
249.880729
20
132.153596
11
250.098539
21
131.216307
0
LINE
8
boundary
62
5
39
2
10
250.098539
20
131.216307
11
250.788453
21
128.180609
0
LINE
8
boundary
62
5
39
2
10
250.788453
20
128.180609
11
251.172328
21
126.475609
0
LINE
8
boundary
62
5
39
2
10
251.172328
20
126.475609
11
251.618428
21
124.507223
0
LINE
8
boundary
62
5
39
2
10
251.618428
20
124.507223
11
252.329372
21
121.337244
0
LINE
8
boundary
62
5
39
2
10
252.329372
20
121.337244
11
252.440332
21
120.830237
0
LINE
8
boundary
62
5
39
2
10
252.440332
20
120.830237
11
253.180974
21
117.422361
0
LINE
8
boundary
62
5
39
2
10
253.180974
20
117.422361
11
253.484016
21
116.021607
0
LINE
8
boundary
62
5
39
2
10
253.484016
20
116.021607
11
254.244769
21
112.453395
0
LINE
8
boundary
62
5
39
2
10
254.244769
20
112.453395
11
254.377813
21
111.818759
0
LINE
8
boundary
62
5
39
2
10
254.377813
20
111.818759
11
254.587373
21
110.800420
0
LINE
8
boundary
62
5
39
2
10
254.587373
20
110.800420
11
255.284919
21
107.399486
0
LINE
8
boundary
62
5
39
2
10
255.284919
20
107.399486
11
255.676449
21
105.470207
0
LINE
8
boundary
62
5
39
2
10
255.676449
20
105.470207
11
255.987839
21
103.921613
0
LINE
8
boundary
62
5
39
2
10
255.987839
20
103.921613
11
256.261755
21
102.530412
0
LINE
8
boundary
62
5
39
2
10
256.261755
20
102.530412
11
256.388737
21
101.880221
0
LINE
8
boundary
62
5
39
2
10
256.388737
20
101.880221
11
256.780186
21
99.867567
0
LINE
8
boundary
62
5
39
2
10
256.780186
20
99.867567
11
257.150085
21
97.954581
0
LINE
8
boundary
62
5
39
2
10
257.150085
20
97.954581
11
257.299612
21
97.175802
0
LINE
8
boundary
62
5
39
2
10
257.299612
20
97.175802
11
257.620658
21
95.497812
0
LINE
8
boundary
62
5
39
2
10
257.620658
20
95.497812
11
257.814668
21
94.466567
0
LINE
8
boundary
62
5
39
2
10
257.814668
20
94.466567
11
258.321985
21
91.741246
0
LINE
8
boundary
62
5
39
2
10
258.321985
20
91.741246
11
258.660808
21
89.916002
0
LINE
8
boundary
62
5
39
2
10
258.660808
20
89.916002
11
258.820560
21
89.046417
0
LINE
8
boundary
62
5
39
2
10
258.820560
20
89.046417
11
259.196590
21
87.001738
0
LINE
8
boundary
62
5
39
2
10
259.196590
20
87.001738
11
259.295918
21
86.454616
0
LINE
8
boundary
62
5
39
2
10
259.295918
20
86.454616
11
259.764154
21
83.856524
0
LINE
8
boundary
62
5
39
2
10
259.764154
20
83.856524
11
260.019181
21
82.444983
0
LINE
8
boundary
62
5
39
2
10
260.019181
20
82.444983
11
260.236303
21
81.231287
0
LINE
8
boundary
62
5
39
2
10
260.236303
20
81.231287
11
260.706204
21
78.619510
0
LINE
8
boundary
62
5
39
2
10
260.706204
20
78.619510
11
261.121090
21
76.288451
0
LINE
8
boundary
62
5
39
2
10
261.121090
20
76.288451
11
261.400899
21
74.725941
0
LINE
8
boundary
62
5
39
2
10
261.400899
20
74.725941
11
261.530975
21
73.993883
0
LINE
8
boundary
62
5
39
2
10
261.530975
20
73.993883
11
261.714717
21
72.968399
0
LINE
8
boundary
62
5
39
2
10
261.714717
20
72.968399
11
261.940149
21
71.703807
0
LINE
8
boundary
62
5
39
2
10
261.940149
20
71.703807
11
262.109566
21
70.761666
0
LINE
8
boundary
62
5
39
2
10
262.109566
20
70.761666
11
262.349791
21
69.416604
0
LINE
8
boundary
62
5
39
2
10
262.349791
20
69.416604
11
262.671093
21
67.636605
0
LINE
8
boundary
62
5
39
2
10
262.671093
20
67.636605
11
262.763111
21
67.125272
0
LINE
8
boundary
62
5
39
2
10
262.763111
20
67.125272
11
263.174232
21
64.855090
0
LINE
8
boundary
62
5
39
2
10
263.174232
20
64.855090
11
263.588385
21
62.595660
0
LINE
8
boundary
62
5
39
2
10
263.588385
20
62.595660
11
264.007471
21
60.327308
0
LINE
8
boundary
62
5
39
2
10
264.007471
20
60.327308
11
264.373792
21
58.375796
0
LINE
8
boundary
62
5
39
2
10
264.373792
20
58.375796
11
264.494882
21
57.733791
0
LINE
8
boundary
62
5
39
2
10
264.494882
20
57.733791
11
264.853523
21
55.850455
0
LINE
8
boundary
62
5
39
2
10
264.853523
20
55.850455
11
265.202243
21
54.052566
0
LINE
8
boundary
62
5
39
2
10
265.202243
20
54.052566
11
265.370018
21
53.193655
0
LINE
8
boundary
62
5
39
2
10
265.370018
20
53.193655
11
265.717262
21
51.440827
0
LINE
8
boundary
62
5
39
2
10
265.717262
20
51.440827
11
266.086905
21
49.613745
0
LINE
8
boundary
62
5
39
2
10
266.086905
20
49.613745
11
266.228509
21
48.920289
0
LINE
8
boundary
62
5
39
2
10
266.228509
20
48.920289
11
266.604499
21
47.113578
0
LINE
8
boundary
62
5
39
2
10
266.604499
20
47.113578
11
267.045120
21
45.045508
0
LINE
8
boundary
62
5
39
2
10
267.045120
20
45.045508
11
267.521915
21
42.882714
0
LINE
8
boundary
62
5
39
2
10
267.521915
20
42.882714
11
267.915643
21
41.144874
0
LINE
8
boundary
62
5
39
2
10
267.915643
20
41.144874
11
268.105878
21
40.329625
0
LINE
8
boundary
62
5
39
2
10
268.105878
20
40.329625
11
268.477005
21
38.761117
0
LINE
8
boundary
62
5
39
2
10
268.477005
20
38.761117
11
268.753865
21
37.622865
0
LINE
8
boundary
62
5
39
2
10
268.753865
20
37.622865
11
268.971211
21
36.745893
0
LINE
8
boundary
62
5
39
2
10
268.971211
20
36.745893
11
269.301279
21
35.450709
0
LINE
8
boundary
62
5
39
2
10
269.301279
20
35.450709
11
269.477979
21
34.760506
0
LINE
8
boundary
62
5
39
2
10
269.477979
20
34.760506
11
269.996091
21
32.829894
0
LINE
8
boundary
62
5
39
2
10
269.996091
20
32.829894
11
270.446554
21
31.208326
0
LINE
8
boundary
62
5
39
2
10
270.446554
20
31.208326
11
270.684666
21
30.390652
0
LINE
8
boundary
62
5
39
2
10
270.684666
20
30.390652
11
271.079837
21
29.057981
0
LINE
8
boundary
62
5
39
2
10
271.079837
20
29.057981
11
271.305010
21
28.320808
0
LINE
8
boundary
62
5
39
2
10
271.305010
20
28.320808
11
271.645449
21
27.244116
0
LINE
8
boundary
62
5
39
2
10
271.645449
20
27.244116
11
272.178948
21
25.605890
0
LINE
8
boundary
62
5
39
2
10
272.178948
20
25.605890
11
272.832227
21
23.745540
0
LINE
8
boundary
62
5
39
2
10
272.832227
20
23.745540
11
273.065327
21
23.104009
0
LINE
8
boundary
62
5
39
2
10
273.065327
20
23.104009
11
273.454624
21
22.083212
0
LINE
8
boundary
62
5
39
2
10
273.454624
20
22.083212
11
273.971085
21
20.767242
0
LINE
8
boundary
62
5
39
2
10
273.971085
20
20.767242
11
274.437272
21
19.666961
0
LINE
8
boundary
62
5
39
2
10
274.437272
20
19.666961
11
274.766119
21
18.906951
0
LINE
8
boundary
62
5
39
2
10
274.766119
20
18.906951
11
275.455766
21
17.437299
0
LINE
8
boundary
62
5
39
2
10
275.455766
20
17.437299
11
275.838098
21
16.653807
0
LINE
8
boundary
62
5
39
2
10
275.838098
20
16.653807
11
276.171394
21
16.021919
0
LINE
8
boundary
62
5
39
2
10
276.171394
20
16.021919
11
276.804201
21
14.852212
0
LINE
8
boundary
62
5
39
2
10
276.804201
20
14.852212
11
277.307450
21
14.017619
0
LINE
8
boundary
62
5
39
2
10
277.307450
20
14.017619
11
277.682614
21
13.408962
0
LINE
8
boundary
62
5
39
2
10
277.682614
20
13.408962
11
278.476521
21
12.252714
0
LINE
8
boundary
62
5
39
2
10
278.476521
20
12.252714
11
278.790177
21
11.811500
0
LINE
8
boundary
62
5
39
2
10
278.790177
20
11.811500
11
279.295073
21
11.175668
0
LINE
8
boundary
62
5
39
2
10
279.295073
20
11.175668
11
279.800659
21
10.551005
0
LINE
8
boundary
62
5
39
2
10
279.800659
20
10.551005
11
280.814292
21
9.460131
0
LINE
8
boundary
62
5
39
2
10
280.814292
20
9.460131
11
281.823793
21
8.542091
0
LINE
8
boundary
62
5
39
2
10
281.823793
20
8.542091
11
282.369454
21
8.136251
0
LINE
8
boundary
62
5
39
2
10
282.369454
20
8.136251
11
282.820742
21
7.807572
0
LINE
8
boundary
62
5
39
2
10
282.820742
20
7.807572
11
283.677926
21
7.323978
0
LINE
8
boundary
62
5
39
2
10
283.677926
20
7.323978
11
284.203302
21
7.079806
0
LINE
8
boundary
62
5
39
2
10
284.203302
20
7.079806
11
284.749169
21
6.883527
0
LINE
8
boundary
62
5
39
2
10
284.749169
20
6.883527
11
285.585501
21
6.706435
0
LINE
8
boundary
62
5
39
2
10
285.585501
20
6.706435
11
286.110359
21
6.667500
0
LINE
8
boundary
62
5
39
2
10
286.110359
20
6.667500
11
286.727541
21
6.714574
0
LINE
8
boundary
62
5
39
2
10
286.727541
20
6.714574
11
287.357242
21
6.872517
0
LINE
8
boundary
62
5
39
2
10
287.357242
20
6.872517
11
288.138898
21
7.266794
0
LINE
8
boundary
62
5
39
2
10
288.138898
20
7.266794
11
288.551300
21
7.593869
0
LINE
8
boundary
62
5
39
2
10
288.551300
20
7.593869
11
288.924059
21
7.968612
0
LINE
8
boundary
62
5
39
2
10
288.924059
20
7.968612
11
289.279651
21
8.413562
0
LINE
8
boundary
62
5
39
2
10
289.279651
20
8.413562
11
289.616238
21
8.932516
0
LINE
8
boundary
62
5
39
2
10
289.616238
20
8.932516
11
289.931867
21
9.529528
0
LINE
8
boundary
62
5
39
2
10
289.931867
20
9.529528
11
290.224493
21
10.208933
0
LINE
8
boundary
62
5
39
2
10
290.224493
20
10.208933
11
290.436822
21
10.813524
0
LINE
8
boundary
62
5
39
2
10
290.436822
20
10.813524
11
290.841790
21
12.456564
0
LINE
8
boundary
62
5
39
2
10
290.841790
20
12.456564
11
290.920086
21
12.983940
0
LINE
8
boundary
62
5
39
2
10
290.920086
20
12.983940
11
284.118653
21
13.133940
0
LINE
8
boundary
62
5
39
2
10
284.118653
20
13.133940
11
284.118653
21
15.879940
0
LINE
8
boundary
62
5
39
2
10
284.118653
20
15.879940
11
291.226785
21
15.879940
0
LINE
8
boundary
62
5
39
2
10
291.226785
20
15.879940
11
291.257537
21
16.665962
0
LINE
8
boundary
62
5
39
2
10
291.257537
20
16.665962
11
291.274267
21
17.282571
0
LINE
8
boundary
62
5
39
2
10
291.274267
20
17.282571
11
291.273634
21
18.222743
0
LINE
8
boundary
62
5
39
2
10
291.273634
20
18.222743
11
291.260502
21
18.996568
0
LINE
8
boundary
62
5
39
2
10
291.260502
20
18.996568
11
291.241207
21
19.670926
0
LINE
8
boundary
62
5
39
2
10
291.241207
20
19.670926
11
291.175796
21
20.978178
0
LINE
8
boundary
62
5
39
2
10
291.175796
20
20.978178
11
291.108780
21
21.929086
0
LINE
8
boundary
62
5
39
2
10
291.108780
20
21.929086
11
291.002909
21
23.214709
0
LINE
8
boundary
62
5
39
2
10
291.002909
20
23.214709
11
290.950865
21
23.789655
0
LINE
8
boundary
62
5
39
2
10
290.950865
20
23.789655
11
290.787285
21
25.316300
0
LINE
8
boundary
62
5
39
2
10
290.787285
20
25.316300
11
290.635254
21
26.552697
0
LINE
8
boundary
62
5
39
2
10
290.635254
20
26.552697
11
290.510041
21
27.502208
0
LINE
8
boundary
62
5
39
2
10
290.510041
20
27.502208
11
290.362092
21
28.581546
0
LINE
8
boundary
62
5
39
2
10
290.362092
20
28.581546
11
290.252819
21
29.308007
0
LINE
8
boundary
62
5
39
2
10
290.252819
20
29.308007
11
290.098373
21
30.335688
0
LINE
8
boundary
62
5
39
2
10
290.098373
20
30.335688
11
289.846383
21
31.857759
0
LINE
8
boundary
62
5
39
2
10
289.846383
20
31.857759
11
279.715650
21
32.056101
0
LINE
8
boundary
62
5
39
2
10
279.715650
20
32.056101
11
279.715650
21
34.802101
0
LINE
8
boundary
62
5
39
2
10
279.715650
20
34.802101
11
289.301702
21
34.802101
0
LINE
8
boundary
62
5
39
2
10
289.301702
20
34.802101
11
289.191854
21
35.623417
0
LINE
8
boundary
62
5
39
2
10
289.191854
20
35.623417
11
289.070264
21
36.285837
0
LINE
8
boundary
62
5
39
2
10
289.070264
20
36.285837
11
288.517459
21
39.216932
0
LINE
8
boundary
62
5
39
2
10
288.517459
20
39.216932
11
288.202852
21
40.790345
0
LINE
8
boundary
62
5
39
2
10
288.202852
20
40.790345
11
287.861707
21
42.541568
0
LINE
8
boundary
62
5
39
2
10
287.861707
20
42.541568
11
287.282357
21
45.374977
0
LINE
8
boundary
62
5
39
2
10
287.282357
20
45.374977
11
287.149913
21
46.043275
0
LINE
8
boundary
62
5
39
2
10
287.149913
20
46.043275
11
286.625408
21
48.583178
0
LINE
8
boundary
62
5
39
2
10
286.625408
20
48.583178
11
286.387040
21
49.736514
0
LINE
8
boundary
62
5
39
2
10
286.387040
20
49.736514
11
286.159242
21
50.828264
0
LINE
8
boundary
62
5
39
2
10
286.159242
20
50.828264
11
275.724545
21
50.978262
0
LINE
8
boundary
62
5
39
2
10
275.724545
20
50.978262
11
275.724546
21
53.724262
0
LINE
8
boundary
62
5
39
2
10
275.724546
20
53.724262
11
285.518290
21
53.724261
0
LINE
8
boundary
62
5
39
2
10
285.518290
20
53.724261
11
285.334408
21
54.785473
0
LINE
8
boundary
62
5
39
2
10
285.334408
20
54.785473
11
284.730414
21
57.738931
0
LINE
8
boundary
62
5
39
2
10
284.730414
20
57.738931
11
284.337148
21
59.608522
0
LINE
8
boundary
62
5
39
2
10
284.337148
20
59.608522
11
283.846008
21
62.054026
0
LINE
8
boundary
62
5
39
2
10
283.846008
20
62.054026
11
283.340641
21
64.506001
0
LINE
8
boundary
62
5
39
2
10
283.340641
20
64.506001
11
282.929049
21
66.582111
0
LINE
8
boundary
62
5
39
2
10
282.929049
20
66.582111
11
282.759981
21
67.425743
0
LINE
8
boundary
62
5
39
2
10
282.759981
20
67.425743
11
282.354589
21
69.473402
0
LINE
8
boundary
62
5
39
2
10
282.354589
20
69.473402
11
272.086486
21
69.900422
0
LINE
8
boundary
62
5
39
2
10
272.086486
20
69.900422
11
272.086486
21
72.646423
0
LINE
8
boundary
62
5
39
2
10
272.086486
20
72.646423
11
281.704186
21
72.646423
0
LINE
8
boundary
62
5
39
2
10
281.704186
20
72.646423
11
281.388143
21
74.505104
0
LINE
8
boundary
62
5
39
2
10
281.388143
20
74.505104
11
281.025938
21
76.465716
0
LINE
8
boundary
62
5
39
2
10
281.025938
20
76.465716
11
280.916746
21
77.042953
0
LINE
8
boundary
62
5
39
2
10
280.916746
20
77.042953
11
280.818905
21
77.578408
0
LINE
8
boundary
62
5
39
2
10
280.818905
20
77.578408
11
280.450106
21
79.594554
0
LINE
8
boundary
62
5
39
2
10
280.450106
20
79.594554
11
280.049069
21
81.868744
0
LINE
8
boundary
62
5
39
2
10
280.049069
20
81.868744
11
279.954360
21
82.402653
0
LINE
8
boundary
62
5
39
2
10
279.954360
20
82.402653
11
279.549010
21
84.734245
0
LINE
8
boundary
62
5
39
2
10
279.549010
20
84.734245
11
279.159736
21
87.065860
0
LINE
8
boundary
62
5
39
2
10
279.159736
20
87.065860
11
279.064391
21
87.650598
0
LINE
8
boundary
62
5
39
2
10
279.064391
20
87.650598
11
278.872399
21
88.822584
0
LINE
8
boundary
62
5
39
2
10
278.872399
20
88.822584
11
268.740964
21
88.822584
0
LINE
8
boundary
62
5
39
2
10
268.740964
20
88.822584
11
268.740964
21
91.568583
0
LINE
8
boundary
62
5
39
2
10
268.740964
20
91.568583
11
278.401207
21
91.568583
0
LINE
8
boundary
62
5
39
2
10
278.401207
20
91.568583
11
278.240967
21
92.809747
0
LINE
8
boundary
62
5
39
2
10
278.240967
20
92.809747
11
278.080299
21
93.890058
0
LINE
8
boundary
62
5
39
2
10
278.080299
20
93.890058
11
277.802726
21
95.712195
0
LINE
8
boundary
62
5
39
2
10
277.802726
20
95.712195
11
277.596479
21
97.132636
0
LINE
8
boundary
62
5
39
2
10
277.596479
20
97.132636
11
277.380482
21
98.621810
0
LINE
8
boundary
62
5
39
2
10
277.380482
20
98.621810
11
277.099107
21
100.655901
0
LINE
8
boundary
62
5
39
2
10
277.099107
20
100.655901
11
276.973729
21
101.537096
0
LINE
8
boundary
62
5
39
2
10
276.973729
20
101.537096
11
276.577553
21
104.456018
0
LINE
8
boundary
62
5
39
2
10
276.577553
20
104.456018
11
276.366580
21
106.079672
0
LINE
8
boundary
62
5
39
2
10
276.366580
20
106.079672
11
276.198609
21
107.377842
0
LINE
8
boundary
62
5
39
2
10
276.198609
20
107.377842
11
265.543845
21
107.744744
0
LINE
8
boundary
62
5
39
2
10
265.543845
20
107.744744
11
265.543846
21
110.490744
0
LINE
8
boundary
62
5
39
2
10
265.543846
20
110.490744
11
275.785468
21
110.490744
0
LINE
8
boundary
62
5
39
2
10
275.785468
20
110.490744
11
275.479391
21
113.222924
0
LINE
8
boundary
62
5
39
2
10
275.479391
20
113.222924
11
275.368577
21
114.161634
0
LINE
8
boundary
62
5
39
2
10
275.368577
20
114.161634
11
275.136412
21
116.142849
0
LINE
8
boundary
62
5
39
2
10
275.136412
20
116.142849
11
274.916233
21
118.090116
0
LINE
8
boundary
62
5
39
2
10
274.916233
20
118.090116
11
274.807501
21
119.059940
0
LINE
8
boundary
62
5
39
2
10
274.807501
20
119.059940
11
274.493531
21
121.957013
0
LINE
8
boundary
62
5
39
2
10
274.493531
20
121.957013
11
274.179601
21
124.877352
0
LINE
8
boundary
62
5
39
2
10
274.179601
20
124.877352
11
274.089536
21
125.738583
0
LINE
8
boundary
62
5
39
2
10
274.089536
20
125.738583
11
274.009122
21
126.516911
0
LINE
8
boundary
62
5
39
2
10
274.009122
20
126.516911
11
262.402142
21
126.666905
0
LINE
8
boundary
62
5
39
2
10
262.402142
20
126.666905
11
262.402143
21
129.412905
0
LINE
8
boundary
62
5
39
2
10
262.402143
20
129.412905
11
273.688972
21
129.412905
0
LINE
8
boundary
62
5
39
2
10
273.688972
20
129.412905
11
273.589932
21
130.663630
0
LINE
8
boundary
62
5
39
2
10
273.589932
20
130.663630
11
273.159714
21
135.184186
0
LINE
8
boundary
62
5
39
2
10
273.159714
20
135.184186
11
273.038621
21
136.409685
0
LINE
8
boundary
62
5
39
2
10
273.038621
20
136.409685
11
272.962840
21
137.219021
0
LINE
8
boundary
62
5
39
2
10
272.962840
20
137.219021
11
272.511892
21
142.100733
0
LINE
8
boundary
62
5
39
2
10
272.511892
20
142.100733
11
272.216948
21
145.439088
0
LINE
8
boundary
62
5
39
2
10
272.216948
20
145.439088
11
259.305787
21
145.589066
0
LINE
8
boundary
62
5
39
2
10
259.305787
20
145.589066
11
259.305788
21
148.335066
0
LINE
8
boundary
62
5
39
2
10
259.305788
20
148.335066
11
271.942903
21
148.335066
0
LINE
8
boundary
62
5
39
2
10
271.942903
20
148.335066
11
271.769085
21
150.675186
0
LINE
8
boundary
62
5
39
2
10
271.769085
20
150.675186
11
271.539661
21
153.289961
0
LINE
8
boundary
62
5
39
2
10
271.539661
20
153.289961
11
271.477846
21
153.999350
0
LINE
8
boundary
62
5
39
2
10
271.477846
20
153.999350
11
271.076497
21
158.763033
0
LINE
8
boundary
62
5
39
2
10
271.076497
20
158.763033
11
270.904094
21
160.794835
0
LINE
8
boundary
62
5
39
2
10
270.904094
20
160.794835
11
270.629758
21
164.148004
0
LINE
8
boundary
62
5
39
2
10
270.629758
20
164.148004
11
256.407581
21
164.511227
0
LINE
8
boundary
62
5
39
2
10
256.407581
20
164.511227
11
256.407581
21
167.257227
0
LINE
8
boundary
62
5
39
2
10
256.407581
20
167.257227
11
270.347182
21
167.257227
0
LINE
8
boundary
62
5
39
2
10
270.347182
20
167.257227
11
270.194250
21
169.435887
0
LINE
8
boundary
62
5
39
2
10
270.194250
20
169.435887
11
269.849951
21
173.557451
0
LINE
8
boundary
62
5
39
2
10
269.849951
20
173.557451
11
269.764842
21
174.617834
0
LINE
8
boundary
62
5
39
2
10
269.764842
20
174.617834
11
269.348102
21
179.541427
0
LINE
8
boundary
62
5
39
2
10
269.348102
20
179.541427
11
269.259141
21
180.570047
0
LINE
8
boundary
62
5
39
2
10
269.259141
20
180.570047
11
269.014241
21
183.283397
0
LINE
8
boundary
62
5
39
2
10
269.014241
20
183.283397
11
253.804174
21
183.433388
0
LINE
8
boundary
62
5
39
2
10
253.804174
20
183.433388
11
253.804174
21
186.179388
0
LINE
8
boundary
62
5
39
2
10
253.804174
20
186.179388
11
268.723267
21
186.179388
0
LINE
8
boundary
62
5
39
2
10
268.723267
20
186.179388
11
268.260844
21
191.301240
0
LINE
8
boundary
62
5
39
2
10
268.260844
20
191.301240
11
268.068116
21
193.137351
0
LINE
8
boundary
62
5
39
2
10
268.068116
20
193.137351
11
267.693838
21
196.806799
0
LINE
8
boundary
62
5
39
2
10
267.693838
20
196.806799
11
267.402829
21
199.363285
0
LINE
8
boundary
62
5
39
2
10
267.402829
20
199.363285
11
267.099179
21
202.098476
0
LINE
8
boundary
62
5
39
2
10
267.099179
20
202.098476
11
251.409033
21
202.355549
0
LINE
8
boundary
62
5
39
2
10
251.409033
20
202.355549
11
251.409033
21
205.101549
0
LINE
8
boundary
62
5
39
2
10
251.409033
20
205.101549
11
266.698509
21
205.101549
0
LINE
8
boundary
62
5
39
2
10
266.698509
20
205.101549
11
266.475504
21
207.177257
0
LINE
8
boundary
62
5
39
2
10
266.475504
20
207.177257
11
265.994927
21
210.736326
0
LINE
8
boundary
62
5
39
2
10
265.994927
20
210.736326
11
265.821535
21
212.045326
0
LINE
8
boundary
62
5
39
2
10
265.821535
20
212.045326
11
265.248923
21
215.925183
0
LINE
8
boundary
62
5
39
2
10
265.248923
20
215.925183
11
265.135749
21
216.705126
0
LINE
8
boundary
62
5
39
2
10
265.135749
20
216.705126
11
264.472408
21
220.807530
0
LINE
8
boundary
62
5
39
2
10
264.472408
20
220.807530
11
249.109550
21
221.277710
0
LINE
8
boundary
62
5
39
2
10
249.109550
20
221.277710
11
249.109550
21
224.023710
0
LINE
8
boundary
62
5
39
2
10
249.109550
20
224.023710
11
263.877506
21
224.023710
0
LINE
8
boundary
62
5
39
2
10
263.877506
20
224.023710
11
263.626162
21
225.578386
0
LINE
8
boundary
62
5
39
2
10
263.626162
20
225.578386
11
263.400595
21
226.781808
0
LINE
8
boundary
62
5
39
2
10
263.400595
20
226.781808
11
262.866094
21
229.457321
0
LINE
8
boundary
62
5
39
2
10
262.866094
20
229.457321
11
262.314211
21
232.045962
0
LINE
8
boundary
62
5
39
2
10
262.314211
20
232.045962
11
261.888475
21
233.930986
0
LINE
8
boundary
62
5
39
2
10
261.888475
20
233.930986
11
261.452264
21
235.768162
0
LINE
8
boundary
62
5
39
2
10
261.452264
20
235.768162
11
261.005256
21
237.557847
0
LINE
8
boundary
62
5
39
2
10
261.005256
20
237.557847
11
260.547106
21
239.300451
0
LINE
8
boundary
62
5
39
2
10
260.547106
20
239.300451
11
260.339301
21
240.049872
0
LINE
8
boundary
62
5
39
2
10
260.339301
20
240.049872
11
246.354744
21
240.199871
0
LINE
8
boundary
62
5
39
2
10
246.354744
20
240.199871
11
246.354743
21
242.945871
0
LINE
8
boundary
62
5
39
2
10
246.354743
20
242.945871
11
259.446895
21
242.945870
0
LINE
8
boundary
62
5
39
2
10
259.446895
20
242.945870
11
259.102471
21
244.249852
0
LINE
8
boundary
62
5
39
2
10
259.102471
20
244.249852
11
258.596407
21
245.808105
0
LINE
8
boundary
62
5
39
2
10
258.596407
20
245.808105
11
258.077519
21
247.321151
0
LINE
8
boundary
62
5
39
2
10
258.077519
20
247.321151
11
257.545465
21
248.789360
0
LINE
8
boundary
62
5
39
2
10
257.545465
20
248.789360
11
256.999900
21
250.213194
0
LINE
8
boundary
62
5
39
2
10
256.999900
20
250.213194
11
256.440479
21
251.593125
0
LINE
8
boundary
62
5
39
2
10
256.440479
20
251.593125
11
255.866853
21
252.929622
0
LINE
8
boundary
62
5
39
2
10
255.866853
20
252.929622
11
255.278647
21
254.223218
0
LINE
8
boundary
62
5
39
2
10
255.278647
20
254.223218
11
254.675510
21
255.474389
0
LINE
8
boundary
62
5
39
2
10
254.675510
20
255.474389
11
254.304183
21
256.207746
0
LINE
8
boundary
62
5
39
2
10
254.304183
20
256.207746
11
254.057654
21
256.688126
0
LINE
8
boundary
62
5
39
2
10
254.057654
20
256.688126
11
253.729958
21
257.288332
0
LINE
8
boundary
62
5
39
2
10
253.729958
20
257.288332
11
253.208773
21
258.230965
0
LINE
8
boundary
62
5
39
2
10
253.208773
20
258.230965
11
252.879992
21
258.785038
0
LINE
8
boundary
62
5
39
2
10
252.879992
20
258.785038
11
242.355027
21
259.122032
0
LINE
8
boundary
62
5
39
2
10
242.355027
20
259.122032
11
242.355027
21
261.868032
0
LINE
8
boundary
62
5
39
2
10
242.355027
20
261.868032
11
250.791681
21
261.868032
0
LINE
8
boundary
62
5
39
2
10
250.791681
20
261.868032
11
250.529767
21
262.409788
0
LINE
8
boundary
62
5
39
2
10
250.529767
20
262.409788
11
250.154921
21
262.909136
0
LINE
8
boundary
62
5
39
2
10
250.154921
20
262.909136
11
249.603231
21
263.641217
0
LINE
8
boundary
62
5
39
2
10
249.603231
20
263.641217
11
249.219971
21
264.111728
0
LINE
8
boundary
62
5
39
2
10
249.219971
20
264.111728
11
248.665688
21
264.788035
0
LINE
8
boundary
62
5
39
2
10
248.665688
20
264.788035
11
248.278731
21
265.224329
0
LINE
8
boundary
62
5
39
2
10
248.278731
20
265.224329
11
247.720690
21
265.848040
0
LINE
8
boundary
62
5
39
2
10
247.720690
20
265.848040
11
247.335482
21
266.244923
0
LINE
8
boundary
62
5
39
2
10
247.335482
20
266.244923
11
246.771920
21
266.818758
0
LINE
8
boundary
62
5
39
2
10
246.771920
20
266.818758
11
246.394510
21
267.171640
0
LINE
8
boundary
62
5
39
2
10
246.394510
20
267.171640
11
245.823030
21
267.697788
0
LINE
8
boundary
62
5
39
2
10
245.823030
20
267.697788
11
244.877759
21
268.482473
0
LINE
8
boundary
62
5
39
2
10
244.877759
20
268.482473
11
243.939879
21
269.170230
0
LINE
8
boundary
62
5
39
2
10
243.939879
20
269.170230
11
243.013240
21
269.758250
0
LINE
8
boundary
62
5
39
2
10
243.013240
20
269.758250
11
242.101697
21
270.243739
0
LINE
8
annotation
62
1
39
211
10
279.780273
20
12.658120
11
279.780273
21
16.355760
0
LINE
8
annotation
62
1
39
211
10
279.780273
20
16.355760
11
278.958240
21
15.533495
0
LINE
8
annotation
62
1
39
211
10
274.653945
20
31.029062
11
272.522150
21
31.029062
0
LINE
8
annotation
62
1
39
211
10
272.522150
20
31.029062
11
274.491999
21
34.200265
0
LINE
8
annotation
62
1
39
211
10
274.491999
20
34.200265
11
274.491999
21
34.200265
0
LINE
8
annotation
62
1
39
211
10
274.491999
20
34.200265
11
274.494353
21
34.203179
0
LINE
8
annotation
62
1
39
211
10
274.494353
20
34.203179
11
274.496612
21
34.206117
0
LINE
8
annotation
62
1
39
211
10
274.496612
20
34.206117
11
274.498788
21
34.209106
0
LINE
8
annotation
62
1
39
211
10
274.498788
20
34.209106
11
274.500898
21
34.212168
0
LINE
8
annotation
62
1
39
211
10
274.500898
20
34.212168
11
274.502955
21
34.215330
0
LINE
8
annotation
62
1
39
211
10
274.502955
20
34.215330
11
274.504976
21
34.218615
0
LINE
8
annotation
62
1
39
211
10
274.504976
20
34.218615
11
274.506974
21
34.222050
0
LINE
8
annotation
62
1
39
211
10
274.506974
20
34.222050
11
274.508965
21
34.225657
0
LINE
8
annotation
62
1
39
211
10
274.508965
20
34.225657
11
274.510963
21
34.229463
0
LINE
8
annotation
62
1
39
211
10
274.510963
20
34.229463
11
274.510963
21
34.229463
0
LINE
8
annotation
62
1
39
211
10
274.510963
20
34.229463
11
274.592297
21
34.404095
0
LINE
8
annotation
62
1
39
211
10
274.592297
20
34.404095
11
274.639811
21
34.585117
0
LINE
8
annotation
62
1
39
211
10
274.639811
20
34.585117
11
274.654670
21
34.768438
0
LINE
8
annotation
62
1
39
211
10
274.654670
20
34.768438
11
274.638037
21
34.949967
0
LINE
8
annotation
62
1
39
211
10
274.638037
20
34.949967
11
274.591077
21
35.125615
0
LINE
8
annotation
62
1
39
211
10
274.591077
20
35.125615
11
274.514954
21
35.291291
0
LINE
8
annotation
62
1
39
211
10
274.514954
20
35.291291
11
274.410833
21
35.442905
0
LINE
8
annotation
62
1
39
211
10
274.410833
20
35.442905
11
274.279878
21
35.576366
0
LINE
8
annotation
62
1
39
211
10
274.279878
20
35.576366
11
274.123254
21
35.687584
0
LINE
8
annotation
62
1
39
211
10
274.123254
20
35.687584
11
274.123254
21
35.687584
0
LINE
8
annotation
62
1
39
211
10
274.123254
20
35.687584
11
273.948136
21
35.767763
0
LINE
8
annotation
62
1
39
211
10
273.948136
20
35.767763
11
273.766837
21
35.814545
0
LINE
8
annotation
62
1
39
211
10
273.766837
20
35.814545
11
273.583410
21
35.828984
0
LINE
8
annotation
62
1
39
211
10
273.583410
20
35.828984
11
273.401908
21
35.812131
0
LINE
8
annotation
62
1
39
211
10
273.401908
20
35.812131
11
273.226384
21
35.765041
0
LINE
8
annotation
62
1
39
211
10
273.226384
20
35.765041
11
273.060891
21
35.688766
0
LINE
8
annotation
62
1
39
211
10
273.060891
20
35.688766
11
272.909483
21
35.584359
0
LINE
8
annotation
62
1
39
211
10
272.909483
20
35.584359
11
272.776212
21
35.452873
0
LINE
8
annotation
62
1
39
211
10
272.776212
20
35.452873
11
272.665133
21
35.295360
0
LINE
8
annotation
62
1
39
211
10
272.665133
20
35.295360
11
272.525161
21
35.026854
0
LINE
8
annotation
62
1
39
211
10
268.531046
20
49.951412
11
269.596943
21
49.951412
0
LINE
8
annotation
62
1
39
211
10
269.596943
20
49.951412
11
269.596943
21
49.951412
0
LINE
8
annotation
62
1
39
211
10
269.596943
20
49.951412
11
269.788647
21
49.968609
0
LINE
8
annotation
62
1
39
211
10
269.788647
20
49.968609
11
269.969034
21
50.018172
0
LINE
8
annotation
62
1
39
211
10
269.969034
20
50.018172
11
270.135104
21
50.097059
0
LINE
8
annotation
62
1
39
211
10
270.135104
20
50.097059
11
270.283856
21
50.202227
0
LINE
8
annotation
62
1
39
211
10
270.283856
20
50.202227
11
270.412290
21
50.330634
0
LINE
8
annotation
62
1
39
211
10
270.412290
20
50.330634
11
270.517405
21
50.479238
0
LINE
8
annotation
62
1
39
211
10
270.517405
20
50.479238
11
270.596203
21
50.644996
0
LINE
8
annotation
62
1
39
211
10
270.596203
20
50.644996
11
270.645681
21
50.824865
0
LINE
8
annotation
62
1
39
211
10
270.645681
20
50.824865
11
270.662841
21
51.015804
0
LINE
8
annotation
62
1
39
211
10
270.662841
20
51.015804
11
270.662841
21
51.549506
0
LINE
8
annotation
62
1
39
211
10
270.662841
20
51.549506
11
270.662841
21
51.549506
0
LINE
8
annotation
62
1
39
211
10
270.662841
20
51.549506
11
270.645681
21
51.740366
0
LINE
8
annotation
62
1
39
211
10
270.645681
20
51.740366
11
270.596203
21
51.920193
0
LINE
8
annotation
62
1
39
211
10
270.596203
20
51.920193
11
270.517405
21
52.085938
0
LINE
8
annotation
62
1
39
211
10
270.517405
20
52.085938
11
270.412290
21
52.234552
0
LINE
8
annotation
62
1
39
211
10
270.412290
20
52.234552
11
270.283856
21
52.362984
0
LINE
8
annotation
62
1
39
211
10
270.283856
20
52.362984
11
270.135104
21
52.468184
0
LINE
8
annotation
62
1
39
211
10
270.135104
20
52.468184
11
269.969034
21
52.547103
0
LINE
8
annotation
62
1
39
211
10
269.969034
20
52.547103
11
269.788647
21
52.596691
0
LINE
8
annotation
62
1
39
211
10
269.788647
20
52.596691
11
269.596943
21
52.613898
0
LINE
8
annotation
62
1
39
211
10
269.596943
20
52.613898
11
269.063242
21
52.613898
0
LINE
8
annotation
62
1
39
211
10
269.063242
20
52.613898
11
269.596943
21
52.613898
0
LINE
8
annotation
62
1
39
211
10
269.596943
20
52.613898
11
269.596943
21
52.613898
0
LINE
8
annotation
62
1
39
211
10
269.596943
20
52.613898
11
269.788647
21
52.631109
0
LINE
8
annotation
62
1
39
211
10
269.788647
20
52.631109
11
269.969034
21
52.680726
0
LINE
8
annotation
62
1
39
211
10
269.969034
20
52.680726
11
270.135104
21
52.759724
0
LINE
8
annotation
62
1
39
211
10
270.135104
20
52.759724
11
270.283856
21
52.865077
0
LINE
8
annotation
62
1
39
211
10
270.283856
20
52.865077
11
270.412290
21
52.993760
0
LINE
8
annotation
62
1
39
211
10
270.412290
20
52.993760
11
270.517405
21
53.142750
0
LINE
8
annotation
62
1
39
211
10
270.517405
20
53.142750
11
270.596203
21
53.309019
0
LINE
8
annotation
62
1
39
211
10
270.596203
20
53.309019
11
270.645681
21
53.489545
0
LINE
8
annotation
62
1
39
211
10
270.645681
20
53.489545
11
270.662841
21
53.681301
0
LINE
8
annotation
62
1
39
211
10
270.662841
20
53.681301
11
270.662841
21
53.681301
0
LINE
8
annotation
62
1
39
211
10
270.662841
20
53.681301
11
270.645681
21
53.872160
0
LINE
8
annotation
62
1
39
211
10
270.645681
20
53.872160
11
270.596203
21
54.051988
0
LINE
8
annotation
62
1
39
211
10
270.596203
20
54.051988
11
270.517405
21
54.217733
0
LINE
8
annotation
62
1
39
211
10
270.517405
20
54.217733
11
270.412290
21
54.366347
0
LINE
8
annotation
62
1
39
211
10
270.412290
20
54.366347
11
270.283856
21
54.494779
0
LINE
8
annotation
62
1
39
211
10
270.283856
20
54.494779
11
270.135104
21
54.599979
0
LINE
8
annotation
62
1
39
211
10
270.135104
20
54.599979
11
269.969034
21
54.678898
0
LINE
8
annotation
62
1
39
211
10
269.969034
20
54.678898
11
269.788647
21
54.728486
0
LINE
8
annotation
62
1
39
211
10
269.788647
20
54.728486
11
269.596943
21
54.745693
0
LINE
8
annotation
62
1
39
211
10
269.596943
20
54.745693
11
268.531046
21
54.745693
0
LINE
8
annotation
62
1
39
211
10
267.291482
20
69.940524
11
264.626287
21
69.940524
0
LINE
8
annotation
62
1
39
211
10
264.626287
20
69.940524
11
265.690679
21
73.673423
0
LINE
8
annotation
62
1
39
211
10
266.492585
20
68.873423
11
266.492585
21
71.005217
0
LINE
8
annotation
62
1
39
211
10
261.547464
20
87.795583
11
262.613362
21
87.795583
0
LINE
8
annotation
62
1
39
211
10
262.613362
20
87.795583
11
262.613362
21
87.795583
0
LINE
8
annotation
62
1
39
211
10
262.613362
20
87.795583
11
262.804670
21
87.812784
0
LINE
8
annotation
62
1
39
211
10
262.804670
20
87.812784
11
262.984846
21
87.862373
0
LINE
8
annotation
62
1
39
211
10
262.984846
20
87.862373
11
263.150854
21
87.941331
0
LINE
8
annotation
62
1
39
211
10
263.150854
20
87.941331
11
263.299655
21
88.046637
0
LINE
8
annotation
62
1
39
211
10
263.299655
20
88.046637
11
263.428213
21
88.175270
0
LINE
8
annotation
62
1
39
211
10
263.428213
20
88.175270
11
263.533489
21
88.324212
0
LINE
8
annotation
62
1
39
211
10
263.533489
20
88.324212
11
263.612448
21
88.490442
0
LINE
8
annotation
62
1
39
211
10
263.612448
20
88.490442
11
263.662050
21
88.670939
0
LINE
8
annotation
62
1
39
211
10
263.662050
20
88.670939
11
263.679259
21
88.862685
0
LINE
8
annotation
62
1
39
211
10
263.679259
20
88.862685
11
263.679259
21
89.393677
0
LINE
8
annotation
62
1
39
211
10
263.679259
20
89.393677
11
263.679259
21
89.393677
0
LINE
8
annotation
62
1
39
211
10
263.679259
20
89.393677
11
263.662060
21
89.585330
0
LINE
8
annotation
62
1
39
211
10
263.662060
20
89.585330
11
263.612482
21
89.765578
0
LINE
8
annotation
62
1
39
211
10
263.612482
20
89.765578
11
263.533556
21
89.931448
0
LINE
8
annotation
62
1
39
211
10
263.533556
20
89.931448
11
263.428312
21
90.079962
0
LINE
8
annotation
62
1
39
211
10
263.428312
20
90.079962
11
263.299779
21
90.208146
0
LINE
8
annotation
62
1
39
211
10
263.299779
20
90.208146
11
263.150987
21
90.313024
0
LINE
8
annotation
62
1
39
211
10
263.150987
20
90.313024
11
262.984967
21
90.391621
0
LINE
8
annotation
62
1
39
211
10
262.984967
20
90.391621
11
262.804749
21
90.440961
0
LINE
8
annotation
62
1
39
211
10
262.804749
20
90.440961
11
262.613362
21
90.458069
0
LINE
8
annotation
62
1
39
211
10
262.613362
20
90.458069
11
261.547464
21
90.458069
0
LINE
8
annotation
62
1
39
211
10
261.547464
20
90.458069
11
261.547464
21
92.595583
0
LINE
8
annotation
62
1
39
211
10
261.547464
20
92.595583
11
263.679259
21
92.595583
0
LINE
8
annotation
62
1
39
211
10
259.951450
20
111.517744
11
259.951450
21
111.517744
0
LINE
8
annotation
62
1
39
211
10
259.951450
20
111.517744
11
259.646097
21
111.403256
0
LINE
8
annotation
62
1
39
211
10
259.646097
20
111.403256
11
259.365896
21
111.248995
0
LINE
8
annotation
62
1
39
211
10
259.365896
20
111.248995
11
259.113722
21
111.058829
0
LINE
8
annotation
62
1
39
211
10
259.113722
20
111.058829
11
258.892453
21
110.836621
0
LINE
8
annotation
62
1
39
211
10
258.892453
20
110.836621
11
258.704965
21
110.586236
0
LINE
8
annotation
62
1
39
211
10
258.704965
20
110.586236
11
258.554134
21
110.311540
0
LINE
8
annotation
62
1
39
211
10
258.554134
20
110.311540
11
258.442836
21
110.016397
0
LINE
8
annotation
62
1
39
211
10
258.442836
20
110.016397
11
258.373948
21
109.704672
0
LINE
8
annotation
62
1
39
211
10
258.373948
20
109.704672
11
258.350346
21
109.380230
0
LINE
8
annotation
62
1
39
211
10
258.350346
20
109.380230
11
258.350346
21
107.784846
0
LINE
8
annotation
62
1
39
211
10
258.350346
20
107.784846
11
258.350346
21
107.784846
0
LINE
8
annotation
62
1
39
211
10
258.350346
20
107.784846
11
258.367555
21
107.593100
0
LINE
8
annotation
62
1
39
211
10
258.367555
20
107.593100
11
258.417157
21
107.412603
0
LINE
8
annotation
62
1
39
211
10
258.417157
20
107.412603
11
258.496116
21
107.246373
0
LINE
8
annotation
62
1
39
211
10
258.496116
20
107.246373
11
258.601392
21
107.097431
0
LINE
8
annotation
62
1
39
211
10
258.601392
20
107.097431
11
258.729950
21
106.968797
0
LINE
8
annotation
62
1
39
211
10
258.729950
20
106.968797
11
258.878752
21
106.863492
0
LINE
8
annotation
62
1
39
211
10
258.878752
20
106.863492
11
259.044759
21
106.784534
0
LINE
8
annotation
62
1
39
211
10
259.044759
20
106.784534
11
259.224936
21
106.734945
0
LINE
8
annotation
62
1
39
211
10
259.224936
20
106.734945
11
259.416243
21
106.717744
0
LINE
8
annotation
62
1
39
211
10
259.416243
20
106.717744
11
259.416243
21
106.717744
0
LINE
8
annotation
62
1
39
211
10
259.416243
20
106.717744
11
259.607948
21
106.734945
0
LINE
8
annotation
62
1
39
211
10
259.607948
20
106.734945
11
259.788335
21
106.784534
0
LINE
8
annotation
62
1
39
211
10
259.788335
20
106.784534
11
259.954404
21
106.863492
0
LINE
8
annotation
62
1
39
211
10
259.954404
20
106.863492
11
260.103156
21
106.968797
0
LINE
8
annotation
62
1
39
211
10
260.103156
20
106.968797
11
260.231590
21
107.097431
0
LINE
8
annotation
62
1
39
211
10
260.231590
20
107.097431
11
260.336705
21
107.246373
0
LINE
8
annotation
62
1
39
211
10
260.336705
20
107.246373
11
260.415503
21
107.412603
0
LINE
8
annotation
62
1
39
211
10
260.415503
20
107.412603
11
260.464981
21
107.593100
0
LINE
8
annotation
62
1
39
211
10
260.464981
20
107.593100
11
260.482141
21
107.784846
0
LINE
8
annotation
62
1
39
211
10
260.482141
20
107.784846
11
260.482141
21
108.315838
0
LINE
8
annotation
62
1
39
211
10
260.482141
20
108.315838
11
260.482141
21
108.315838
0
LINE
8
annotation
62
1
39
211
10
260.482141
20
108.315838
11
260.464981
21
108.507491
0
LINE
8
annotation
62
1
39
211
10
260.464981
20
108.507491
11
260.415503
21
108.687739
0
LINE
8
annotation
62
1
39
211
10
260.415503
20
108.687739
11
260.336705
21
108.853608
0
LINE
8
annotation
62
1
39
211
10
260.336705
20
108.853608
11
260.231590
21
109.002123
0
LINE
8
annotation
62
1
39
211
10
260.231590
20
109.002123
11
260.103156
21
109.130307
0
LINE
8
annotation
62
1
39
211
10
260.103156
20
109.130307
11
259.954404
21
109.235185
0
LINE
8
annotation
62
1
39
211
10
259.954404
20
109.235185
11
259.788335
21
109.313782
0
LINE
8
annotation
62
1
39
211
10
259.788335
20
109.313782
11
259.607948
21
109.363122
0
LINE
8
annotation
62
1
39
211
10
259.607948
20
109.363122
11
259.416243
21
109.380230
0
LINE
8
annotation
62
1
39
211
10
259.416243
20
109.380230
11
258.350346
21
109.380230
0
LINE
8
annotation
62
1
39
211
10
258.216845
20
106.117744
11
260.616845
21
106.117744
0
LINE
8
annotation
62
1
39
211
10
256.274540
20
125.639905
11
257.341642
21
130.439905
0
LINE
8
annotation
62
1
39
211
10
257.341642
20
130.439905
11
255.207138
21
130.439905
0
LINE
8
annotation
62
1
39
211
10
257.341642
20
128.302391
11
256.274540
21
128.302391
0
LINE
8
annotation
62
1
39
211
10
252.112288
20
145.626308
11
252.112288
21
145.626308
0
LINE
8
annotation
62
1
39
211
10
252.112288
20
145.626308
11
252.129497
21
145.434655
0
LINE
8
annotation
62
1
39
211
10
252.129497
20
145.434655
11
252.179099
21
145.254407
0
LINE
8
annotation
62
1
39
211
10
252.179099
20
145.254407
11
252.258058
21
145.088537
0
LINE
8
annotation
62
1
39
211
10
252.258058
20
145.088537
11
252.363334
21
144.940023
0
LINE
8
annotation
62
1
39
211
10
252.363334
20
144.940023
11
252.491892
21
144.811839
0
LINE
8
annotation
62
1
39
211
10
252.491892
20
144.811839
11
252.640693
21
144.706961
0
LINE
8
annotation
62
1
39
211
10
252.640693
20
144.706961
11
252.806701
21
144.628364
0
LINE
8
annotation
62
1
39
211
10
252.806701
20
144.628364
11
252.986877
21
144.579024
0
LINE
8
annotation
62
1
39
211
10
252.986877
20
144.579024
11
253.178185
21
144.561916
0
LINE
8
annotation
62
1
39
211
10
253.178185
20
144.561916
11
253.178185
21
144.561916
0
LINE
8
annotation
62
1
39
211
10
253.178185
20
144.561916
11
253.369493
21
144.579024
0
LINE
8
annotation
62
1
39
211
10
253.369493
20
144.579024
11
253.549669
21
144.628364
0
LINE
8
annotation
62
1
39
211
10
253.549669
20
144.628364
11
253.715677
21
144.706961
0
LINE
8
annotation
62
1
39
211
10
253.715677
20
144.706961
11
253.864478
21
144.811839
0
LINE
8
annotation
62
1
39
211
10
253.864478
20
144.811839
11
253.993036
21
144.940023
0
LINE
8
annotation
62
1
39
211
10
253.993036
20
144.940023
11
254.098313
21
145.088537
0
LINE
8
annotation
62
1
39
211
10
254.098313
20
145.088537
11
254.177271
21
145.254407
0
LINE
8
annotation
62
1
39
211
10
254.177271
20
145.254407
11
254.226874
21
145.434655
0
LINE
8
annotation
62
1
39
211
10
254.226874
20
145.434655
11
254.244083
21
145.626308
0
LINE
8
annotation
62
1
39
211
10
254.244083
20
145.626308
11
254.244083
21
146.157300
0
LINE
8
annotation
62
1
39
211
10
254.244083
20
146.157300
11
254.244083
21
146.157300
0
LINE
8
annotation
62
1
39
211
10
254.244083
20
146.157300
11
254.226883
21
146.349046
0
LINE
8
annotation
62
1
39
211
10
254.226883
20
146.349046
11
254.177306
21
146.529543
0
LINE
8
annotation
62
1
39
211
10
254.177306
20
146.529543
11
254.098380
21
146.695773
0
LINE
8
annotation
62
1
39
211
10
254.098380
20
146.695773
11
253.993135
21
146.844715
0
LINE
8
annotation
62
1
39
211
10
253.993135
20
146.844715
11
253.864602
21
146.973349
0
LINE
8
annotation
62
1
39
211
10
253.864602
20
146.973349
11
253.715811
21
147.078654
0
LINE
8
annotation
62
1
39
211
10
253.715811
20
147.078654
11
253.549791
21
147.157612
0
LINE
8
annotation
62
1
39
211
10
253.549791
20
147.157612
11
253.369572
21
147.207201
0
LINE
8
annotation
62
1
39
211
10
253.369572
20
147.207201
11
253.178185
21
147.224402
0
LINE
8
annotation
62
1
39
211
10
253.178185
20
147.224402
11
253.178185
21
147.224402
0
LINE
8
annotation
62
1
39
211
10
253.178185
20
147.224402
11
252.986798
21
147.207191
0
LINE
8
annotation
62
1
39
211
10
252.986798
20
147.207191
11
252.806580
21
147.157577
0
LINE
8
annotation
62
1
39
211
10
252.806580
20
147.157577
11
252.640560
21
147.078587
0
LINE
8
annotation
62
1
39
211
10
252.640560
20
147.078587
11
252.491768
21
146.973249
0
LINE
8
annotation
62
1
39
211
10
252.491768
20
146.973249
11
252.363235
21
146.844591
0
LINE
8
annotation
62
1
39
211
10
252.363235
20
146.844591
11
252.257991
21
146.695639
0
LINE
8
annotation
62
1
39
211
10
252.257991
20
146.695639
11
252.179065
21
146.529422
0
LINE
8
annotation
62
1
39
211
10
252.179065
20
146.529422
11
252.129487
21
146.348966
0
LINE
8
annotation
62
1
39
211
10
252.129487
20
146.348966
11
252.112288
21
146.157300
0
LINE
8
annotation
62
1
39
211
10
252.112288
20
146.157300
11
252.112288
21
145.626308
0
LINE
8
annotation
62
1
39
211
10
254.244083
20
148.291804
11
254.244083
21
148.291804
0
LINE
8
annotation
62
1
39
211
10
254.244083
20
148.291804
11
254.226883
21
148.482664
0
LINE
8
annotation
62
1
39
211
10
254.226883
20
148.482664
11
254.177306
21
148.662491
0
LINE
8
annotation
62
1
39
211
10
254.177306
20
148.662491
11
254.098380
21
148.828237
0
LINE
8
annotation
62
1
39
211
10
254.098380
20
148.828237
11
253.993135
21
148.976850
0
LINE
8
annotation
62
1
39
211
10
253.993135
20
148.976850
11
253.864602
21
149.105282
0
LINE
8
annotation
62
1
39
211
10
253.864602
20
149.105282
11
253.715811
21
149.210482
0
LINE
8
annotation
62
1
39
211
10
253.715811
20
149.210482
11
253.549791
21
149.289401
0
LINE
8
annotation
62
1
39
211
10
253.549791
20
149.289401
11
253.369572
21
149.338989
0
LINE
8
annotation
62
1
39
211
10
253.369572
20
149.338989
11
253.178185
21
149.356196
0
LINE
8
annotation
62
1
39
211
10
253.178185
20
149.356196
11
253.178185
21
149.356196
0
LINE
8
annotation
62
1
39
211
10
253.178185
20
149.356196
11
252.986798
21
149.338989
0
LINE
8
annotation
62
1
39
211
10
252.986798
20
149.338989
11
252.806580
21
149.289401
0
LINE
8
annotation
62
1
39
211
10
252.806580
20
149.289401
11
252.640560
21
149.210482
0
LINE
8
annotation
62
1
39
211
10
252.640560
20
149.210482
11
252.491768
21
149.105282
0
LINE
8
annotation
62
1
39
211
10
252.491768
20
149.105282
11
252.363235
21
148.976850
0
LINE
8
annotation
62
1
39
211
10
252.363235
20
148.976850
11
252.257991
21
148.828237
0
LINE
8
annotation
62
1
39
211
10
252.257991
20
148.828237
11
252.179065
21
148.662491
0
LINE
8
annotation
62
1
39
211
10
252.179065
20
148.662491
11
252.129487
21
148.482664
0
LINE
8
annotation
62
1
39
211
10
252.129487
20
148.482664
11
252.112288
21
148.291804
0
LINE
8
annotation
62
1
39
211
10
252.112288
20
148.291804
11
252.112288
21
148.291804
0
LINE
8
annotation
62
1
39
211
10
252.112288
20
148.291804
11
252.129497
21
148.100048
0
LINE
8
annotation
62
1
39
211
10
252.129497
20
148.100048
11
252.179099
21
147.919523
0
LINE
8
annotation
62
1
39
211
10
252.179099
20
147.919523
11
252.258058
21
147.753253
0
LINE
8
annotation
62
1
39
211
10
252.258058
20
147.753253
11
252.363334
21
147.604264
0
LINE
8
annotation
62
1
39
211
10
252.363334
20
147.604264
11
252.491892
21
147.475580
0
LINE
8
annotation
62
1
39
211
10
252.491892
20
147.475580
11
252.640693
21
147.370227
0
LINE
8
annotation
62
1
39
211
10
252.640693
20
147.370227
11
252.806701
21
147.291230
0
LINE
8
annotation
62
1
39
211
10
252.806701
20
147.291230
11
252.986877
21
147.241613
0
LINE
8
annotation
62
1
39
211
10
252.986877
20
147.241613
11
253.178185
21
147.224402
0
LINE
8
annotation
62
1
39
211
10
253.178185
20
147.224402
11
253.178185
21
147.224402
0
LINE
8
annotation
62
1
39
211
10
253.178185
20
147.224402
11
253.369493
21
147.241613
0
LINE
8
annotation
62
1
39
211
10
253.369493
20
147.241613
11
253.549669
21
147.291230
0
LINE
8
annotation
62
1
39
211
10
253.549669
20
147.291230
11
253.715677
21
147.370227
0
LINE
8
annotation
62
1
39
211
10
253.715677
20
147.370227
11
253.864478
21
147.475580
0
LINE
8
annotation
62
1
39
211
10
253.864478
20
147.475580
11
253.993036
21
147.604264
0
LINE
8
annotation
62
1
39
211
10
253.993036
20
147.604264
11
254.098313
21
147.753253
0
LINE
8
annotation
62
1
39
211
10
254.098313
20
147.753253
11
254.177271
21
147.919523
0
LINE
8
annotation
62
1
39
211
10
254.177271
20
147.919523
11
254.226874
21
148.100048
0
LINE
8
annotation
62
1
39
211
10
254.226874
20
148.100048
11
254.244083
21
148.291804
0
LINE
8
annotation
62
1
39
211
10
249.746277
20
163.484227
11
249.746277
21
163.484227
0
LINE
8
annotation
62
1
39
211
10
249.746277
20
163.484227
11
250.051092
21
163.597816
0
LINE
8
annotation
62
1
39
211
10
250.051092
20
163.597816
11
250.330875
21
163.751353
0
LINE
8
annotation
62
1
39
211
10
250.330875
20
163.751353
11
250.582734
21
163.940924
0
LINE
8
annotation
62
1
39
211
10
250.582734
20
163.940924
11
250.803777
21
164.162619
0
LINE
8
annotation
62
1
39
211
10
250.803777
20
164.162619
11
250.991114
21
164.412525
0
LINE
8
annotation
62
1
39
211
10
250.991114
20
164.412525
11
251.141854
21
164.686730
0
LINE
8
annotation
62
1
39
211
10
251.141854
20
164.686730
11
251.253105
21
164.981323
0
LINE
8
annotation
62
1
39
211
10
251.253105
20
164.981323
11
251.321975
21
165.292391
0
LINE
8
annotation
62
1
39
211
10
251.321975
20
165.292391
11
251.345575
21
165.616022
0
LINE
8
annotation
62
1
39
211
10
251.345575
20
165.616022
11
251.345575
21
167.216825
0
LINE
8
annotation
62
1
39
211
10
251.345575
20
167.216825
11
251.345575
21
167.216825
0
LINE
8
annotation
62
1
39
211
10
251.345575
20
167.216825
11
251.328415
21
167.408580
0
LINE
8
annotation
62
1
39
211
10
251.328415
20
167.408580
11
251.278937
21
167.589106
0
LINE
8
annotation
62
1
39
211
10
251.278937
20
167.589106
11
251.200140
21
167.755376
0
LINE
8
annotation
62
1
39
211
10
251.200140
20
167.755376
11
251.095024
21
167.904365
0
LINE
8
annotation
62
1
39
211
10
251.095024
20
167.904365
11
250.966590
21
168.033048
0
LINE
8
annotation
62
1
39
211
10
250.966590
20
168.033048
11
250.817838
21
168.138402
0
LINE
8
annotation
62
1
39
211
10
250.817838
20
168.138402
11
250.651769
21
168.217399
0
LINE
8
annotation
62
1
39
211
10
250.651769
20
168.217399
11
250.471382
21
168.267016
0
LINE
8
annotation
62
1
39
211
10
250.471382
20
168.267016
11
250.279677
21
168.284227
0
LINE
8
annotation
62
1
39
211
10
250.279677
20
168.284227
11
250.279677
21
168.284227
0
LINE
8
annotation
62
1
39
211
10
250.279677
20
168.284227
11
250.088370
21
168.267016
0
LINE
8
annotation
62
1
39
211
10
250.088370
20
168.267016
11
249.908193
21
168.217399
0
LINE
8
annotation
62
1
39
211
10
249.908193
20
168.217399
11
249.742186
21
168.138402
0
LINE
8
annotation
62
1
39
211
10
249.742186
20
168.138402
11
249.593384
21
168.033048
0
LINE
8
annotation
62
1
39
211
10
249.593384
20
168.033048
11
249.464826
21
167.904365
0
LINE
8
annotation
62
1
39
211
10
249.464826
20
167.904365
11
249.359550
21
167.755376
0
LINE
8
annotation
62
1
39
211
10
249.359550
20
167.755376
11
249.280591
21
167.589106
0
LINE
8
annotation
62
1
39
211
10
249.280591
20
167.589106
11
249.230989
21
167.408580
0
LINE
8
annotation
62
1
39
211
10
249.230989
20
167.408580
11
249.213780
21
167.216825
0
LINE
8
annotation
62
1
39
211
10
249.213780
20
167.216825
11
249.213780
21
166.683123
0
LINE
8
annotation
62
1
39
211
10
249.213780
20
166.683123
11
249.213780
21
166.683123
0
LINE
8
annotation
62
1
39
211
10
249.213780
20
166.683123
11
249.230989
21
166.491378
0
LINE
8
annotation
62
1
39
211
10
249.230989
20
166.491378
11
249.280591
21
166.310880
0
LINE
8
annotation
62
1
39
211
10
249.280591
20
166.310880
11
249.359550
21
166.144650
0
LINE
8
annotation
62
1
39
211
10
249.359550
20
166.144650
11
249.464826
21
165.995709
0
LINE
8
annotation
62
1
39
211
10
249.464826
20
165.995709
11
249.593384
21
165.867075
0
LINE
8
annotation
62
1
39
211
10
249.593384
20
165.867075
11
249.742186
21
165.761769
0
LINE
8
annotation
62
1
39
211
10
249.742186
20
165.761769
11
249.908193
21
165.682812
0
LINE
8
annotation
62
1
39
211
10
249.908193
20
165.682812
11
250.088370
21
165.633223
0
LINE
8
annotation
62
1
39
211
10
250.088370
20
165.633223
11
250.279677
21
165.616022
0
LINE
8
annotation
62
1
39
211
10
250.279677
20
165.616022
11
251.345575
21
165.616022
0
LINE
8
annotation
62
1
39
211
10
249.080580
20
162.884227
11
251.480580
21
162.884227
0
LINE
8
annotation
62
1
39
211
10
246.303318
20
182.497528
11
246.303318
21
187.115248
0
LINE
8
annotation
62
1
39
211
10
246.303318
20
187.115248
11
245.276740
21
186.088380
0
LINE
8
annotation
62
1
39
211
10
248.776547
20
182.558437
11
248.776547
21
182.558437
0
LINE
8
annotation
62
1
39
211
10
248.776547
20
182.558437
11
248.883868
21
182.518318
0
LINE
8
annotation
62
1
39
211
10
248.883868
20
182.518318
11
248.993936
21
182.498386
0
LINE
8
annotation
62
1
39
211
10
248.993936
20
182.498386
11
249.104260
21
182.497828
0
LINE
8
annotation
62
1
39
211
10
249.104260
20
182.497828
11
249.212354
21
182.515833
0
LINE
8
annotation
62
1
39
211
10
249.212354
20
182.515833
11
249.315729
21
182.551587
0
LINE
8
annotation
62
1
39
211
10
249.315729
20
182.551587
11
249.411896
21
182.604278
0
LINE
8
annotation
62
1
39
211
10
249.411896
20
182.604278
11
249.498367
21
182.673092
0
LINE
8
annotation
62
1
39
211
10
249.498367
20
182.673092
11
249.572655
21
182.757217
0
LINE
8
annotation
62
1
39
211
10
249.572655
20
182.757217
11
249.632270
21
182.855841
0
LINE
8
annotation
62
1
39
211
10
249.632270
20
182.855841
11
249.632270
21
182.855841
0
LINE
8
annotation
62
1
39
211
10
249.632270
20
182.855841
11
249.810139
21
183.272188
0
LINE
8
annotation
62
1
39
211
10
249.810139
20
183.272188
11
249.943542
21
183.700586
0
LINE
8
annotation
62
1
39
211
10
249.943542
20
183.700586
11
250.032476
21
184.137619
0
LINE
8
annotation
62
1
39
211
10
250.032476
20
184.137619
11
250.076944
21
184.579871
0
LINE
8
annotation
62
1
39
211
10
250.076944
20
184.579871
11
250.076944
21
185.023928
0
LINE
8
annotation
62
1
39
211
10
250.076944
20
185.023928
11
250.032476
21
185.466373
0
LINE
8
annotation
62
1
39
211
10
250.032476
20
185.466373
11
249.943542
21
185.903792
0
LINE
8
annotation
62
1
39
211
10
249.943542
20
185.903792
11
249.810139
21
186.332769
0
LINE
8
annotation
62
1
39
211
10
249.810139
20
186.332769
11
249.632270
21
186.749888
0
LINE
8
annotation
62
1
39
211
10
249.632270
20
186.749888
11
249.632270
21
186.749888
0
LINE
8
annotation
62
1
39
211
10
249.632270
20
186.749888
11
249.609650
21
186.791985
0
LINE
8
annotation
62
1
39
211
10
249.609650
20
186.791985
11
249.584006
21
186.832231
0
LINE
8
annotation
62
1
39
211
10
249.584006
20
186.832231
11
249.555530
21
186.870431
0
LINE
8
annotation
62
1
39
211
10
249.555530
20
186.870431
11
249.524416
21
186.906385
0
LINE
8
annotation
62
1
39
211
10
249.524416
20
186.906385
11
249.490856
21
186.939896
0
LINE
8
annotation
62
1
39
211
10
249.490856
20
186.939896
11
249.455044
21
186.970766
0
LINE
8
annotation
62
1
39
211
10
249.455044
20
186.970766
11
249.417173
21
186.998798
0
LINE
8
annotation
62
1
39
211
10
249.417173
20
186.998798
11
249.377435
21
187.023793
0
LINE
8
annotation
62
1
39
211
10
249.377435
20
187.023793
11
249.336025
21
187.045554
0
LINE
8
annotation
62
1
39
211
10
249.336025
20
187.045554
11
249.336025
21
187.045554
0
LINE
8
annotation
62
1
39
211
10
249.336025
20
187.045554
11
249.227851
21
187.086544
0
LINE
8
annotation
62
1
39
211
10
249.227851
20
187.086544
11
249.117139
21
187.107157
0
LINE
8
annotation
62
1
39
211
10
249.117139
20
187.107157
11
249.006349
21
187.108212
0
LINE
8
annotation
62
1
39
211
10
249.006349
20
187.108212
11
248.897939
21
187.090526
0
LINE
8
annotation
62
1
39
211
10
248.897939
20
187.090526
11
248.794370
21
187.054917
0
LINE
8
annotation
62
1
39
211
10
248.794370
20
187.054917
11
248.698102
21
187.002203
0
LINE
8
annotation
62
1
39
211
10
248.698102
20
187.002203
11
248.611593
21
186.933200
0
LINE
8
annotation
62
1
39
211
10
248.611593
20
186.933200
11
248.537304
21
186.848726
0
LINE
8
annotation
62
1
39
211
10
248.537304
20
186.848726
11
248.477695
21
186.749599
0
LINE
8
annotation
62
1
39
211
10
248.477695
20
186.749599
11
248.477695
21
186.749599
0
LINE
8
annotation
62
1
39
211
10
248.477695
20
186.749599
11
248.300684
21
186.333337
0
LINE
8
annotation
62
1
39
211
10
248.300684
20
186.333337
11
248.167925
21
185.905004
0
LINE
8
annotation
62
1
39
211
10
248.167925
20
185.905004
11
248.079420
21
185.468014
0
LINE
8
annotation
62
1
39
211
10
248.079420
20
185.468014
11
248.035167
21
185.025783
0
LINE
8
annotation
62
1
39
211
10
248.035167
20
185.025783
11
248.035167
21
184.581727
0
LINE
8
annotation
62
1
39
211
10
248.035167
20
184.581727
11
248.079420
21
184.139260
0
LINE
8
annotation
62
1
39
211
10
248.079420
20
184.139260
11
248.167925
21
183.701798
0
LINE
8
annotation
62
1
39
211
10
248.167925
20
183.701798
11
248.300684
21
183.272757
0
LINE
8
annotation
62
1
39
211
10
248.300684
20
183.272757
11
248.477695
21
182.855551
0
LINE
8
annotation
62
1
39
211
10
248.477695
20
182.855551
11
248.477695
21
182.855551
0
LINE
8
annotation
62
1
39
211
10
248.477695
20
182.855551
11
248.500233
21
182.813539
0
LINE
8
annotation
62
1
39
211
10
248.500233
20
182.813539
11
248.525688
21
182.773493
0
LINE
8
annotation
62
1
39
211
10
248.525688
20
182.773493
11
248.553953
21
182.735535
0
LINE
8
annotation
62
1
39
211
10
248.553953
20
182.735535
11
248.584920
21
182.699786
0
LINE
8
annotation
62
1
39
211
10
248.584920
20
182.699786
11
248.618484
21
182.666368
0
LINE
8
annotation
62
1
39
211
10
248.618484
20
182.666368
11
248.654535
21
182.635403
0
LINE
8
annotation
62
1
39
211
10
248.654535
20
182.635403
11
248.692968
21
182.607011
0
LINE
8
annotation
62
1
39
211
10
248.692968
20
182.607011
11
248.733674
21
182.581316
0
LINE
8
annotation
62
1
39
211
10
248.733674
20
182.581316
11
248.776547
21
182.558437
0
LINE
8
annotation
62
1
39
211
10
244.381582
20
201.328549
11
244.381582
21
206.128549
0
LINE
8
annotation
62
1
39
211
10
244.381582
20
206.128549
11
243.314480
21
205.061146
0
LINE
8
annotation
62
1
39
211
10
247.248683
20
201.328549
11
247.248683
21
206.128549
0
LINE
8
annotation
62
1
39
211
10
247.248683
20
206.128549
11
246.181582
21
205.061146
0
LINE
8
annotation
62
1
39
211
10
241.606611
20
220.346535
11
241.606611
21
224.954884
0
LINE
8
annotation
62
1
39
211
10
241.606611
20
224.954884
11
240.582116
21
223.930100
0
LINE
8
annotation
62
1
39
211
10
245.381624
20
220.346498
11
243.334946
21
220.346498
0
LINE
8
annotation
62
1
39
211
10
243.334946
20
220.346498
11
245.226144
21
223.391083
0
LINE
8
annotation
62
1
39
211
10
245.226144
20
223.391083
11
245.226144
21
223.391083
0
LINE
8
annotation
62
1
39
211
10
245.226144
20
223.391083
11
245.228404
21
223.393881
0
LINE
8
annotation
62
1
39
211
10
245.228404
20
223.393881
11
245.230572
21
223.396702
0
LINE
8
annotation
62
1
39
211
10
245.230572
20
223.396702
11
245.232662
21
223.399571
0
LINE
8
annotation
62
1
39
211
10
245.232662
20
223.399571
11
245.234687
21
223.402511
0
LINE
8
annotation
62
1
39
211
10
245.234687
20
223.402511
11
245.236663
21
223.405547
0
LINE
8
annotation
62
1
39
211
10
245.236663
20
223.405547
11
245.238603
21
223.408701
0
LINE
8
annotation
62
1
39
211
10
245.238603
20
223.408701
11
245.240521
21
223.411998
0
LINE
8
annotation
62
1
39
211
10
245.240521
20
223.411998
11
245.242432
21
223.415462
0
LINE
8
annotation
62
1
39
211
10
245.242432
20
223.415462
11
245.244350
21
223.419116
0
LINE
8
annotation
62
1
39
211
10
245.244350
20
223.419116
11
245.244350
21
223.419116
0
LINE
8
annotation
62
1
39
211
10
245.244350
20
223.419116
11
245.322437
21
223.586776
0
LINE
8
annotation
62
1
39
211
10
245.322437
20
223.586776
11
245.368055
21
223.760569
0
LINE
8
annotation
62
1
39
211
10
245.368055
20
223.760569
11
245.382320
21
223.936571
0
LINE
8
annotation
62
1
39
211
10
245.382320
20
223.936571
11
245.366351
21
224.110852
0
LINE
8
annotation
62
1
39
211
10
245.366351
20
224.110852
11
245.321266
21
224.279487
0
LINE
8
annotation
62
1
39
211
10
245.321266
20
224.279487
11
245.248182
21
224.438548
0
LINE
8
annotation
62
1
39
211
10
245.248182
20
224.438548
11
245.148219
21
224.584108
0
LINE
8
annotation
62
1
39
211
10
245.148219
20
224.584108
11
245.022492
21
224.712241
0
LINE
8
annotation
62
1
39
211
10
245.022492
20
224.712241
11
244.872122
21
224.819018
0
LINE
8
annotation
62
1
39
211
10
244.872122
20
224.819018
11
244.872122
21
224.819018
0
LINE
8
annotation
62
1
39
211
10
244.872122
20
224.819018
11
244.703996
21
224.895996
0
LINE
8
annotation
62
1
39
211
10
244.703996
20
224.895996
11
244.529936
21
224.940910
0
LINE
8
annotation
62
1
39
211
10
244.529936
20
224.940910
11
244.353832
21
224.954772
0
LINE
8
annotation
62
1
39
211
10
244.353832
20
224.954772
11
244.179577
21
224.938593
0
LINE
8
annotation
62
1
39
211
10
244.179577
20
224.938593
11
244.011061
21
224.893383
0
LINE
8
annotation
62
1
39
211
10
244.011061
20
224.893383
11
243.852176
21
224.820153
0
LINE
8
annotation
62
1
39
211
10
243.852176
20
224.820153
11
243.706813
21
224.719914
0
LINE
8
annotation
62
1
39
211
10
243.706813
20
224.719914
11
243.578864
21
224.593678
0
LINE
8
annotation
62
1
39
211
10
243.578864
20
224.593678
11
243.472220
21
224.442455
0
LINE
8
annotation
62
1
39
211
10
243.472220
20
224.442455
11
243.337836
21
224.184669
0
LINE
8
annotation
62
1
39
211
10
238.851954
20
239.268362
11
238.851954
21
243.877379
0
LINE
8
annotation
62
1
39
211
10
238.851954
20
243.877379
11
237.827310
21
242.852447
0
LINE
8
annotation
62
1
39
211
10
240.580191
20
239.268507
11
241.603678
21
239.268507
0
LINE
8
annotation
62
1
39
211
10
241.603678
20
239.268507
11
241.603678
21
239.268507
0
LINE
8
annotation
62
1
39
211
10
241.603678
20
239.268507
11
241.787755
21
239.285019
0
LINE
8
annotation
62
1
39
211
10
241.787755
20
239.285019
11
241.960965
21
239.332611
0
LINE
8
annotation
62
1
39
211
10
241.960965
20
239.332611
11
242.120427
21
239.408359
0
LINE
8
annotation
62
1
39
211
10
242.120427
20
239.408359
11
242.263260
21
239.509342
0
LINE
8
annotation
62
1
39
211
10
242.263260
20
239.509342
11
242.386584
21
239.632640
0
LINE
8
annotation
62
1
39
211
10
242.386584
20
239.632640
11
242.487517
21
239.775331
0
LINE
8
annotation
62
1
39
211
10
242.487517
20
239.775331
11
242.563179
21
239.934494
0
LINE
8
annotation
62
1
39
211
10
242.563179
20
239.934494
11
242.610689
21
240.107207
0
LINE
8
annotation
62
1
39
211
10
242.610689
20
240.107207
11
242.627166
21
240.290549
0
LINE
8
annotation
62
1
39
211
10
242.627166
20
240.290549
11
242.627166
21
240.803015
0
LINE
8
annotation
62
1
39
211
10
242.627166
20
240.803015
11
242.627166
21
240.803015
0
LINE
8
annotation
62
1
39
211
10
242.627166
20
240.803015
11
242.610689
21
240.986281
0
LINE
8
annotation
62
1
39
211
10
242.610689
20
240.986281
11
242.563179
21
241.158953
0
LINE
8
annotation
62
1
39
211
10
242.563179
20
241.158953
11
242.487517
21
241.318104
0
LINE
8
annotation
62
1
39
211
10
242.487517
20
241.318104
11
242.386584
21
241.460805
0
LINE
8
annotation
62
1
39
211
10
242.386584
20
241.460805
11
242.263260
21
241.584126
0
LINE
8
annotation
62
1
39
211
10
242.263260
20
241.584126
11
242.120427
21
241.685141
0
LINE
8
annotation
62
1
39
211
10
242.120427
20
241.685141
11
241.960965
21
241.760920
0
LINE
8
annotation
62
1
39
211
10
241.960965
20
241.760920
11
241.787755
21
241.808535
0
LINE
8
annotation
62
1
39
211
10
241.787755
20
241.808535
11
241.603678
21
241.825057
0
LINE
8
annotation
62
1
39
211
10
241.603678
20
241.825057
11
241.091212
21
241.825057
0
LINE
8
annotation
62
1
39
211
10
241.091212
20
241.825057
11
241.603678
21
241.825057
0
LINE
8
annotation
62
1
39
211
10
241.603678
20
241.825057
11
241.603678
21
241.825057
0
LINE
8
annotation
62
1
39
211
10
241.603678
20
241.825057
11
241.787755
21
241.841584
0
LINE
8
annotation
62
1
39
211
10
241.787755
20
241.841584
11
241.960965
21
241.889226
0
LINE
8
annotation
62
1
39
211
10
241.960965
20
241.889226
11
242.120427
21
241.965081
0
LINE
8
annotation
62
1
39
211
10
242.120427
20
241.965081
11
242.263260
21
242.066242
0
LINE
8
annotation
62
1
39
211
10
242.263260
20
242.066242
11
242.386584
21
242.189806
0
LINE
8
annotation
62
1
39
211
10
242.386584
20
242.189806
11
242.487517
21
242.332867
0
LINE
8
annotation
62
1
39
211
10
242.487517
20
242.332867
11
242.563179
21
242.492521
0
LINE
8
annotation
62
1
39
211
10
242.563179
20
242.492521
11
242.610689
21
242.665864
0
LINE
8
annotation
62
1
39
211
10
242.610689
20
242.665864
11
242.627166
21
242.849990
0
LINE
8
annotation
62
1
39
211
10
242.627166
20
242.849990
11
242.627166
21
242.849990
0
LINE
8
annotation
62
1
39
211
10
242.627166
20
242.849990
11
242.610689
21
243.033256
0
LINE
8
annotation
62
1
39
211
10
242.610689
20
243.033256
11
242.563179
21
243.205928
0
LINE
8
annotation
62
1
39
211
10
242.563179
20
243.205928
11
242.487517
21
243.365079
0
LINE
8
annotation
62
1
39
211
10
242.487517
20
243.365079
11
242.386584
21
243.507779
0
LINE
8
annotation
62
1
39
211
10
242.386584
20
243.507779
11
242.263260
21
243.631101
0
LINE
8
annotation
62
1
39
211
10
242.263260
20
243.631101
11
242.120427
21
243.732116
0
LINE
8
annotation
62
1
39
211
10
242.120427
20
243.732116
11
241.960965
21
243.807895
0
LINE
8
annotation
62
1
39
211
10
241.960965
20
243.807895
11
241.787755
21
243.855510
0
LINE
8
annotation
62
1
39
211
10
241.787755
20
243.855510
11
241.603678
21
243.872032
0
LINE
8
annotation
62
1
39
211
10
241.603678
20
243.872032
11
240.580191
21
243.872032
0
LINE
8
annotation
62
1
39
211
10
234.804943
20
258.427049
11
234.804943
21
262.563014
0
LINE
8
annotation
62
1
39
211
10
234.804943
20
262.563014
11
233.885465
21
261.643277
0
LINE
8
annotation
62
1
39
211
10
238.652291
20
259.346527
11
236.355801
21
259.346527
0
LINE
8
annotation
62
1
39
211
10
236.355801
20
259.346527
11
237.272945
21
262.563014
0
LINE
8
annotation
62
1
39
211
10
237.963915
20
258.427049
11
237.963915
21
260.263930
0
LINE
8
annotation
62
1
39
211
10
245.064318
20
229.477404
11
242.421189
21
229.477404
0
LINE
8
annotation
62
1
39
211
10
242.421189
20
229.477404
11
245.064318
21
234.237664
0
LINE
8
annotation
62
1
39
211
10
245.064318
20
234.237664
11
242.421189
21
234.237664
0
LINE
8
annotation
62
1
39
211
10
249.452691
20
231.857534
11
246.849863
21
231.857534
0
LINE
8
annotation
62
1
39
211
10
253.351846
20
229.477365
11
251.237700
21
229.477365
0
LINE
8
annotation
62
1
39
211
10
251.237700
20
229.477365
11
253.191240
21
232.622313
0
LINE
8
annotation
62
1
39
211
10
253.191240
20
232.622313
11
253.191240
21
232.622313
0
LINE
8
annotation
62
1
39
211
10
253.191240
20
232.622313
11
253.193575
21
232.625203
0
LINE
8
annotation
62
1
39
211
10
253.193575
20
232.625203
11
253.195815
21
232.628117
0
LINE
8
annotation
62
1
39
211
10
253.195815
20
232.628117
11
253.197973
21
232.631081
0
LINE
8
annotation
62
1
39
211
10
253.197973
20
232.631081
11
253.200065
21
232.634118
0
LINE
8
annotation
62
1
39
211
10
253.200065
20
232.634118
11
253.202106
21
232.637254
0
LINE
8
annotation
62
1
39
211
10
253.202106
20
232.637254
11
253.204109
21
232.640512
0
LINE
8
annotation
62
1
39
211
10
253.204109
20
232.640512
11
253.206091
21
232.643918
0
LINE
8
annotation
62
1
39
211
10
253.206091
20
232.643918
11
253.208065
21
232.647496
0
LINE
8
annotation
62
1
39
211
10
253.208065
20
232.647496
11
253.210047
21
232.651270
0
LINE
8
annotation
62
1
39
211
10
253.210047
20
232.651270
11
253.210047
21
232.651270
0
LINE
8
annotation
62
1
39
211
10
253.210047
20
232.651270
11
253.290708
21
232.824456
0
LINE
8
annotation
62
1
39
211
10
253.290708
20
232.824456
11
253.337829
21
233.003979
0
LINE
8
annotation
62
1
39
211
10
253.337829
20
233.003979
11
253.352564
21
233.185782
0
LINE
8
annotation
62
1
39
211
10
253.352564
20
233.185782
11
253.336069
21
233.365809
0
LINE
8
annotation
62
1
39
211
10
253.336069
20
233.365809
11
253.289497
21
233.540003
0
LINE
8
annotation
62
1
39
211
10
253.289497
20
233.540003
11
253.214005
21
233.704307
0
LINE
8
annotation
62
1
39
211
10
253.214005
20
233.704307
11
253.110746
21
233.854665
0
LINE
8
annotation
62
1
39
211
10
253.110746
20
233.854665
11
252.980876
21
233.987022
0
LINE
8
annotation
62
1
39
211
10
252.980876
20
233.987022
11
252.825548
21
234.097319
0
LINE
8
annotation
62
1
39
211
10
252.825548
20
234.097319
11
252.825548
21
234.097319
0
LINE
8
annotation
62
1
39
211
10
252.825548
20
234.097319
11
252.651880
21
234.176834
0
LINE
8
annotation
62
1
39
211
10
252.651880
20
234.176834
11
252.472082
21
234.223229
0
LINE
8
annotation
62
1
39
211
10
252.472082
20
234.223229
11
252.290173
21
234.237548
0
LINE
8
annotation
62
1
39
211
10
252.290173
20
234.237548
11
252.110174
21
234.220835
0
LINE
8
annotation
62
1
39
211
10
252.110174
20
234.220835
11
251.936103
21
234.174135
0
LINE
8
annotation
62
1
39
211
10
251.936103
20
234.174135
11
251.771980
21
234.098491
0
LINE
8
annotation
62
1
39
211
10
251.771980
20
234.098491
11
251.621826
21
233.994948
0
LINE
8
annotation
62
1
39
211
10
251.621826
20
233.994948
11
251.489659
21
233.864551
0
LINE
8
annotation
62
1
39
211
10
251.489659
20
233.864551
11
251.379499
21
233.708342
0
LINE
8
annotation
62
1
39
211
10
251.379499
20
233.708342
11
251.240686
21
233.442059
0
LINE
8
annotation
62
1
39
211
10
256.195718
20
229.477404
11
256.195718
21
234.237664
0
LINE
8
annotation
62
1
39
211
10
256.195718
20
234.237664
11
255.137452
21
233.179099
0
LINE
8
frame
62
5
39
2
10
0.000000
20
0.000000
11
300.000000
21
0.000000
0
LINE
8
frame
62
5
39
2
10
300.000000
20
0.000000
11
300.000000
21
600.000000
0
LINE
8
frame
62
5
39
2
10
300.000000
20
600.000000
11
0.000000
21
600.000000
0
LINE
8
frame
62
5
39
2
10
0.000000
20
600.000000
11
0.000000
21
0.000000
0
ENDSEC
0
EOF
