0
SECTION
2
HEADER
9
$ACADVER
1
AC1009
0
ENDSEC
0
SECTION
2
TABLES
0
TABLE
2
VPORT
70
1
0
VPORT
2
ACTIVE
70
0
10
0.0
20
0.0
11
0.0
21
0.0
12
0.0
22
0.0
13
0.0
23
0.0
14
0.0
24
0.0
15
0.0
25
0.0
16
0.0
26
0.0
36
0.0
17
0.0
27
0.0
37
0.0
40
0.0
41
0.0
42
0.0
43
0.0
44
0.0
50
0.0
51
0.0
71
0
72
1000
73
1
74
3
75
0
76
0
77
0
78
0
0
ENDTAB
0
ENDSEC
0
SECTION
2
ENTITIES
0
LINE
8
boundary
62
5
39
2
10
12.848796
20
7.624503
11
13.433825
21
7.353974
0
LINE
8
boundary
62
5
39
2
10
13.433825
20
7.353974
11
14.024348
21
7.128599
0
LINE
8
boundary
62
5
39
2
10
14.024348
20
7.128599
11
14.617792
21
6.947095
0
LINE
8
boundary
62
5
39
2
10
14.617792
20
6.947095
11
15.211764
21
6.808190
0
LINE
8
boundary
62
5
39
2
10
15.211764
20
6.808190
11
15.785212
21
6.713457
0
LINE
8
boundary
62
5
39
2
10
15.785212
20
6.713457
11
16.391689
21
6.668369
0
LINE
8
boundary
62
5
39
2
10
16.391689
20
6.668369
11
16.973761
21
6.667954
0
LINE
8
boundary
62
5
39
2
10
16.973761
20
6.667954
11
17.556082
21
6.713213
0
LINE
8
boundary
62
5
39
2
10
17.556082
20
6.713213
11
18.491561
21
6.874519
0
LINE
8
boundary
62
5
39
2
10
18.491561
20
6.874519
11
19.224084
21
7.084124
0
LINE
8
boundary
62
5
39
2
10
19.224084
20
7.084124
11
19.964195
21
7.382741
0
LINE
8
boundary
62
5
39
2
10
19.964195
20
7.382741
11
20.570375
21
7.689047
0
LINE
8
boundary
62
5
39
2
10
20.570375
20
7.689047
11
21.396562
21
8.192382
0
LINE
8
boundary
62
5
39
2
10
21.396562
20
8.192382
11
21.925855
21
8.582969
0
LINE
8
boundary
62
5
39
2
10
21.925855
20
8.582969
11
22.789578
21
9.309914
0
LINE
8
boundary
62
5
39
2
10
22.789578
20
9.309914
11
23.360490
21
9.882488
0
LINE
8
boundary
62
5
39
2
10
23.360490
20
9.882488
11
24.134121
21
10.766641
0
LINE
8
boundary
62
5
39
2
10
24.134121
20
10.766641
11
24.693567
21
11.504482
0
LINE
8
boundary
62
5
39
2
10
24.693567
20
11.504482
11
25.425553
21
12.597578
0
LINE
8
boundary
62
5
39
2
10
25.425553
20
12.597578
11
26.001292
21
13.591541
0
LINE
8
boundary
62
5
39
2
10
26.001292
20
13.591541
11
26.363764
21
14.225542
0
LINE
8
boundary
62
5
39
2
10
26.363764
20
14.225542
11
26.908411
21
15.319671
0
LINE
8
boundary
62
5
39
2
10
26.908411
20
15.319671
11
27.281208
21
16.071493
0
LINE
8
boundary
62
5
39
2
10
27.281208
20
16.071493
11
27.635605
21
16.862025
0
LINE
8
boundary
62
5
39
2
10
27.635605
20
16.862025
11
27.929756
21
17.550806
0
LINE
8
boundary
62
5
39
2
10
27.929756
20
17.550806
11
28.179510
21
18.142832
0
LINE
8
boundary
62
5
39
2
10
28.179510
20
18.142832
11
28.541805
21
19.069597
0
LINE
8
boundary
62
5
39
2
10
28.541805
20
19.069597
11
28.865380
21
19.939296
0
LINE
8
boundary
62
5
39
2
10
28.865380
20
19.939296
11
29.057188
21
20.453026
0
LINE
8
boundary
62
5
39
2
10
29.057188
20
20.453026
11
29.495201
21
21.692690
0
LINE
8
boundary
62
5
39
2
10
29.495201
20
21.692690
11
29.840547
21
22.737172
0
LINE
8
boundary
62
5
39
2
10
29.840547
20
22.737172
11
30.159375
21
23.734768
0
LINE
8
boundary
62
5
39
2
10
30.159375
20
23.734768
11
30.359066
21
24.351768
0
LINE
8
boundary
62
5
39
2
10
30.359066
20
24.351768
11
30.793812
21
25.764322
0
LINE
8
boundary
62
5
39
2
10
30.793812
20
25.764322
11
31.125988
21
26.909206
0
LINE
8
boundary
62
5
39
2
10
31.125988
20
26.909206
11
31.444433
21
28.028936
0
LINE
8
boundary
62
5
39
2
10
31.444433
20
28.028936
11
31.659486
21
28.772604
0
LINE
8
boundary
62
5
39
2
10
31.659486
20
28.772604
11
32.089903
21
30.332214
0
LINE
8
boundary
62
5
39
2
10
32.089903
20
30.332214
11
32.411593
21
31.562789
0
LINE
8
boundary
62
5
39
2
10
32.411593
20
31.562789
11
32.774863
21
32.974735
0
LINE
8
boundary
62
5
39
2
10
32.774863
20
32.974735
11
33.126344
21
34.313130
0
LINE
8
boundary
62
5
39
2
10
33.126344
20
34.313130
11
33.284870
21
34.955217
0
LINE
8
boundary
62
5
39
2
10
33.284870
20
34.955217
11
33.568513
21
36.120627
0
LINE
8
boundary
62
5
39
2
10
33.568513
20
36.120627
11
33.722709
21
36.722642
0
LINE
8
boundary
62
5
39
2
10
33.722709
20
36.722642
11
33.961793
21
37.750109
0
LINE
8
boundary
62
5
39
2
10
33.961793
20
37.750109
11
34.327707
21
39.242137
0
LINE
8
boundary
62
5
39
2
10
34.327707
20
39.242137
11
34.442483
21
39.739729
0
LINE
8
boundary
62
5
39
2
10
34.442483
20
39.739729
11
34.757187
21
41.116715
0
LINE
8
boundary
62
5
39
2
10
34.757187
20
41.116715
11
34.940719
21
41.878792
0
LINE
8
boundary
62
5
39
2
10
34.940719
20
41.878792
11
35.117052
21
42.678084
0
LINE
8
boundary
62
5
39
2
10
35.117052
20
42.678084
11
35.407151
21
43.931213
0
LINE
8
boundary
62
5
39
2
10
35.407151
20
43.931213
11
35.552399
21
44.588406
0
LINE
8
boundary
62
5
39
2
10
35.552399
20
44.588406
11
35.775748
21
45.603117
0
LINE
8
boundary
62
5
39
2
10
35.775748
20
45.603117
11
36.102280
21
47.098356
0
LINE
8
boundary
62
5
39
2
10
36.102280
20
47.098356
11
36.357264
21
48.240139
0
LINE
8
boundary
62
5
39
2
10
36.357264
20
48.240139
11
36.610386
21
49.428278
0
LINE
8
boundary
62
5
39
2
10
36.610386
20
49.428278
11
36.765142
21
50.153857
0
LINE
8
boundary
62
5
39
2
10
36.765142
20
50.153857
11
37.092110
21
51.710296
0
LINE
8
boundary
62
5
39
2
10
37.092110
20
51.710296
11
37.332818
21
52.825779
0
LINE
8
boundary
62
5
39
2
10
37.332818
20
52.825779
11
37.617744
21
54.211403
0
LINE
8
boundary
62
5
39
2
10
37.617744
20
54.211403
11
37.756648
21
54.882337
0
LINE
8
boundary
62
5
39
2
10
37.756648
20
54.882337
11
38.084348
21
56.492707
0
LINE
8
boundary
62
5
39
2
10
38.084348
20
56.492707
11
38.335881
21
57.698165
0
LINE
8
boundary
62
5
39
2
10
38.335881
20
57.698165
11
38.575240
21
58.903637
0
LINE
8
boundary
62
5
39
2
10
38.575240
20
58.903637
11
38.748714
21
59.765998
0
LINE
8
boundary
62
5
39
2
10
38.748714
20
59.765998
11
39.077675
21
61.422919
0
LINE
8
boundary
62
5
39
2
10
39.077675
20
61.422919
11
39.369322
21
62.867753
0
LINE
8
boundary
62
5
39
2
10
39.369322
20
62.867753
11
39.487932
21
63.486171
0
LINE
8
boundary
62
5
39
2
10
39.487932
20
63.486171
11
39.741313
21
64.781044
0
LINE
8
boundary
62
5
39
2
10
39.741313
20
64.781044
11
39.900622
21
65.565852
0
LINE
8
boundary
62
5
39
2
10
39.900622
20
65.565852
11
40.072547
21
66.477513
0
LINE
8
boundary
62
5
39
2
10
40.072547
20
66.477513
11
40.359402
21
67.945145
0
LINE
8
boundary
62
5
39
2
10
40.359402
20
67.945145
11
40.736888
21
69.905127
0
LINE
8
boundary
62
5
39
2
10
40.736888
20
69.905127
11
40.992455
21
71.201292
0
LINE
8
boundary
62
5
39
2
10
40.992455
20
71.201292
11
41.194894
21
72.277727
0
LINE
8
boundary
62
5
39
2
10
41.194894
20
72.277727
11
41.407122
21
73.375959
0
LINE
8
boundary
62
5
39
2
10
41.407122
20
73.375959
11
41.559801
21
74.141282
0
LINE
8
boundary
62
5
39
2
10
41.559801
20
74.141282
11
41.744312
21
75.125024
0
LINE
8
boundary
62
5
39
2
10
41.744312
20
75.125024
11
42.011677
21
76.506883
0
LINE
8
boundary
62
5
39
2
10
42.011677
20
76.506883
11
42.142952
21
77.166694
0
LINE
8
boundary
62
5
39
2
10
42.142952
20
77.166694
11
42.427777
21
78.655552
0
LINE
8
boundary
62
5
39
2
10
42.427777
20
78.655552
11
42.747864
21
80.280641
0
LINE
8
boundary
62
5
39
2
10
42.747864
20
80.280641
11
43.126752
21
82.228538
0
LINE
8
boundary
62
5
39
2
10
43.126752
20
82.228538
11
43.380484
21
83.490925
0
LINE
8
boundary
62
5
39
2
10
43.380484
20
83.490925
11
43.616641
21
84.702533
0
LINE
8
boundary
62
5
39
2
10
43.616641
20
84.702533
11
43.799406
21
85.612240
0
LINE
8
boundary
62
5
39
2
10
43.799406
20
85.612240
11
43.929482
21
86.244686
0
LINE
8
boundary
62
5
39
2
10
43.929482
20
86.244686
11
44.129695
21
87.256672
0
LINE
8
boundary
62
5
39
2
10
44.129695
20
87.256672
11
44.421702
21
88.699333
0
LINE
8
boundary
62
5
39
2
10
44.421702
20
88.699333
11
44.807745
21
90.583870
0
LINE
8
boundary
62
5
39
2
10
44.807745
20
90.583870
11
45.099933
21
91.986878
0
LINE
8
boundary
62
5
39
2
10
45.099933
20
91.986878
11
45.233512
21
92.642197
0
LINE
8
boundary
62
5
39
2
10
45.233512
20
92.642197
11
45.511357
21
93.963733
0
LINE
8
boundary
62
5
39
2
10
45.511357
20
93.963733
11
45.732217
21
94.994223
0
LINE
8
boundary
62
5
39
2
10
45.732217
20
94.994223
11
45.927047
21
95.939262
0
LINE
8
boundary
62
5
39
2
10
45.927047
20
95.939262
11
46.054184
21
96.539853
0
LINE
8
boundary
62
5
39
2
10
46.054184
20
96.539853
11
46.439291
21
98.332161
0
LINE
8
boundary
62
5
39
2
10
46.439291
20
98.332161
11
46.898022
21
100.414884
0
LINE
8
boundary
62
5
39
2
10
46.898022
20
100.414884
11
47.103010
21
101.318771
0
LINE
8
boundary
62
5
39
2
10
47.103010
20
101.318771
11
47.512435
21
103.180013
0
LINE
8
boundary
62
5
39
2
10
47.512435
20
103.180013
11
47.755765
21
104.262699
0
LINE
8
boundary
62
5
39
2
10
47.755765
20
104.262699
11
48.069577
21
105.636504
0
LINE
8
boundary
62
5
39
2
10
48.069577
20
105.636504
11
48.645447
21
108.108251
0
LINE
8
boundary
62
5
39
2
10
48.645447
20
108.108251
11
49.233754
21
110.623271
0
LINE
8
boundary
62
5
39
2
10
49.233754
20
110.623271
11
49.545709
21
111.935537
0
LINE
8
boundary
62
5
39
2
10
49.545709
20
111.935537
11
49.841740
21
113.159402
0
LINE
8
boundary
62
5
39
2
10
49.841740
20
113.159402
11
50.448652
21
115.631495
0
LINE
8
boundary
62
5
39
2
10
50.448652
20
115.631495
11
51.113028
21
118.322232
0
LINE
8
boundary
62
5
39
2
10
51.113028
20
118.322232
11
51.435830
21
119.612338
0
LINE
8
boundary
62
5
39
2
10
51.435830
20
119.612338
11
51.778143
21
120.955638
0
LINE
8
boundary
62
5
39
2
10
51.778143
20
120.955638
11
52.425204
21
123.468698
0
LINE
8
boundary
62
5
39
2
10
52.425204
20
123.468698
11
52.564871
21
123.998080
0
LINE
8
boundary
62
5
39
2
10
52.564871
20
123.998080
11
53.171715
21
126.332395
0
LINE
8
boundary
62
5
39
2
10
53.171715
20
126.332395
11
53.434275
21
127.334623
0
LINE
8
boundary
62
5
39
2
10
53.434275
20
127.334623
11
53.900682
21
129.081385
0
LINE
8
boundary
62
5
39
2
10
53.900682
20
129.081385
11
54.475995
21
131.222247
0
LINE
8
boundary
62
5
39
2
10
54.475995
20
131.222247
11
55.009649
21
133.174730
0
LINE
8
boundary
62
5
39
2
10
55.009649
20
133.174730
11
55.479038
21
134.886085
0
LINE
8
boundary
62
5
39
2
10
55.479038
20
134.886085
11
55.937368
21
136.543895
0
LINE
8
boundary
62
5
39
2
10
55.937368
20
136.543895
11
56.089411
21
137.091489
0
LINE
8
boundary
62
5
39
2
10
56.089411
20
137.091489
11
56.403605
21
138.213451
0
LINE
8
boundary
62
5
39
2
10
56.403605
20
138.213451
11
56.641001
21
139.058947
0
LINE
8
boundary
62
5
39
2
10
56.641001
20
139.058947
11
56.877709
21
139.894716
0
LINE
8
boundary
62
5
39
2
10
56.877709
20
139.894716
11
57.200663
21
141.032483
0
LINE
8
boundary
62
5
39
2
10
57.200663
20
141.032483
11
57.359646
21
141.587642
0
LINE
8
boundary
62
5
39
2
10
57.359646
20
141.587642
11
57.768243
21
143.011875
0
LINE
8
boundary
62
5
39
2
10
57.768243
20
143.011875
11
58.343554
21
144.996921
0
LINE
8
boundary
62
5
39
2
10
58.343554
20
144.996921
11
58.848470
21
146.734061
0
LINE
8
boundary
62
5
39
2
10
58.848470
20
146.734061
11
59.357979
21
148.472104
0
LINE
8
boundary
62
5
39
2
10
59.357979
20
148.472104
11
59.507872
21
148.982475
0
LINE
8
boundary
62
5
39
2
10
59.507872
20
148.982475
11
59.875597
21
150.222517
0
LINE
8
boundary
62
5
39
2
10
59.875597
20
150.222517
11
60.101335
21
150.983650
0
LINE
8
boundary
62
5
39
2
10
60.101335
20
150.983650
11
60.430620
21
152.082490
0
LINE
8
boundary
62
5
39
2
10
60.430620
20
152.082490
11
60.769426
21
153.213296
0
LINE
8
boundary
62
5
39
2
10
60.769426
20
153.213296
11
61.017029
21
154.030608
0
LINE
8
boundary
62
5
39
2
10
61.017029
20
154.030608
11
61.446511
21
155.448967
0
LINE
8
boundary
62
5
39
2
10
61.446511
20
155.448967
11
61.613246
21
155.993448
0
LINE
8
boundary
62
5
39
2
10
61.613246
20
155.993448
11
62.132437
21
157.690197
0
LINE
8
boundary
62
5
39
2
10
62.132437
20
157.690197
11
62.827100
21
159.936637
0
LINE
8
boundary
62
5
39
2
10
62.827100
20
159.936637
11
63.457916
21
161.963550
0
LINE
8
boundary
62
5
39
2
10
63.457916
20
161.963550
11
64.090735
21
163.979098
0
LINE
8
boundary
62
5
39
2
10
64.090735
20
163.979098
11
64.733217
21
166.006876
0
LINE
8
boundary
62
5
39
2
10
64.733217
20
166.006876
11
64.955870
21
166.708639
0
LINE
8
boundary
62
5
39
2
10
64.955870
20
166.708639
11
65.385242
21
168.046221
0
LINE
8
boundary
62
5
39
2
10
65.385242
20
168.046221
11
65.682898
21
168.974834
0
LINE
8
boundary
62
5
39
2
10
65.682898
20
168.974834
11
66.046709
21
170.096532
0
LINE
8
boundary
62
5
39
2
10
66.046709
20
170.096532
11
66.418553
21
171.244859
0
LINE
8
boundary
62
5
39
2
10
66.418553
20
171.244859
11
66.717500
21
172.157162
0
LINE
8
boundary
62
5
39
2
10
66.717500
20
172.157162
11
67.162756
21
173.518380
0
LINE
8
boundary
62
5
39
2
10
67.162756
20
173.518380
11
67.397500
21
174.227482
0
LINE
8
boundary
62
5
39
2
10
67.397500
20
174.227482
11
67.915437
21
175.795085
0
LINE
8
boundary
62
5
39
2
10
67.915437
20
175.795085
11
68.086595
21
176.306889
0
LINE
8
boundary
62
5
39
2
10
68.086595
20
176.306889
11
68.676538
21
178.074687
0
LINE
8
boundary
62
5
39
2
10
68.676538
20
178.074687
11
69.446000
21
180.356926
0
LINE
8
boundary
62
5
39
2
10
69.446000
20
180.356926
11
70.019580
21
182.041676
0
LINE
8
boundary
62
5
39
2
10
70.019580
20
182.041676
11
70.207159
21
182.593684
0
LINE
8
boundary
62
5
39
2
10
70.207159
20
182.593684
11
71.547792
21
186.480862
0
LINE
8
boundary
62
5
39
2
10
71.547792
20
186.480862
11
71.803432
21
187.223288
0
LINE
8
boundary
62
5
39
2
10
71.803432
20
187.223288
11
72.935043
21
190.439655
0
LINE
8
boundary
62
5
39
2
10
72.935043
20
190.439655
11
73.416962
21
191.812229
0
LINE
8
boundary
62
5
39
2
10
73.416962
20
191.812229
11
74.353724
21
194.423360
0
LINE
8
boundary
62
5
39
2
10
74.353724
20
194.423360
11
75.063937
21
196.407571
0
LINE
8
boundary
62
5
39
2
10
75.063937
20
196.407571
11
75.802035
21
198.425713
0
LINE
8
boundary
62
5
39
2
10
75.802035
20
198.425713
11
76.744139
21
201.008175
0
LINE
8
boundary
62
5
39
2
10
76.744139
20
201.008175
11
77.277917
21
202.440150
0
LINE
8
boundary
62
5
39
2
10
77.277917
20
202.440150
11
78.457420
21
205.613110
0
LINE
8
boundary
62
5
39
2
10
78.457420
20
205.613110
11
78.779072
21
206.459956
0
LINE
8
boundary
62
5
39
2
10
78.779072
20
206.459956
11
80.203673
21
210.221736
0
LINE
8
boundary
62
5
39
2
10
80.203673
20
210.221736
11
80.969364
21
212.206056
0
LINE
8
boundary
62
5
39
2
10
80.969364
20
212.206056
11
81.851840
21
214.493848
0
LINE
8
boundary
62
5
39
2
10
81.851840
20
214.493848
11
83.422327
21
218.498805
0
LINE
8
boundary
62
5
39
2
10
83.422327
20
218.498805
11
83.799736
21
219.461911
0
LINE
8
boundary
62
5
39
2
10
83.799736
20
219.461911
11
85.007279
21
222.481334
0
LINE
8
boundary
62
5
39
2
10
85.007279
20
222.481334
11
85.648726
21
224.089523
0
LINE
8
boundary
62
5
39
2
10
85.648726
20
224.089523
11
86.763836
21
226.824217
0
LINE
8
boundary
62
5
39
2
10
86.763836
20
226.824217
11
87.911668
21
229.647565
0
LINE
8
boundary
62
5
39
2
10
87.911668
20
229.647565
11
88.628797
21
231.370208
0
LINE
8
boundary
62
5
39
2
10
88.628797
20
231.370208
11
90.222216
21
235.210209
0
LINE
8
boundary
62
5
39
2
10
90.222216
20
235.210209
11
90.490704
21
235.842270
0
LINE
8
boundary
62
5
39
2
10
90.490704
20
235.842270
11
91.490872
21
238.204977
0
LINE
8
boundary
62
5
39
2
10
91.490872
20
238.204977
11
92.352084
21
240.236945
0
LINE
8
boundary
62
5
39
2
10
92.352084
20
240.236945
11
92.583201
21
240.783891
0
LINE
8
boundary
62
5
39
2
10
92.583201
20
240.783891
11
94.206430
21
244.547111
0
LINE
8
boundary
62
5
39
2
10
94.206430
20
244.547111
11
94.987089
21
246.363070
0
LINE
8
boundary
62
5
39
2
10
94.987089
20
246.363070
11
96.032340
21
248.757370
0
LINE
8
boundary
62
5
39
2
10
96.032340
20
248.757370
11
97.407716
21
251.919362
0
LINE
8
boundary
62
5
39
2
10
97.407716
20
251.919362
11
97.822064
21
252.862362
0
LINE
8
boundary
62
5
39
2
10
97.822064
20
252.862362
11
98.911011
21
255.350293
0
LINE
8
boundary
62
5
39
2
10
98.911011
20
255.350293
11
99.575600
21
256.865103
0
LINE
8
boundary
62
5
39
2
10
99.575600
20
256.865103
11
99.827175
21
257.440821
0
LINE
8
boundary
62
5
39
2
10
99.827175
20
257.440821
11
101.288176
21
260.767995
0
LINE
8
boundary
62
5
39
2
10
101.288176
20
260.767995
11
102.225783
21
262.912641
0
LINE
8
boundary
62
5
39
2
10
102.225783
20
262.912641
11
102.943984
21
264.556054
0
LINE
8
boundary
62
5
39
2
10
102.943984
20
264.556054
11
104.474939
21
268.076124
0
LINE
8
boundary
62
5
39
2
10
104.474939
20
268.076124
11
105.708900
21
270.926838
0
LINE
8
boundary
62
5
39
2
10
105.708900
20
270.926838
11
106.105513
21
271.848437
0
LINE
8
boundary
62
5
39
2
10
106.105513
20
271.848437
11
106.834726
21
273.551556
0
LINE
8
boundary
62
5
39
2
10
106.834726
20
273.551556
11
107.597296
21
275.342650
0
LINE
8
boundary
62
5
39
2
10
107.597296
20
275.342650
11
107.925100
21
276.118663
0
LINE
8
boundary
62
5
39
2
10
107.925100
20
276.118663
11
108.809777
21
278.225705
0
LINE
8
boundary
62
5
39
2
10
108.809777
20
278.225705
11
109.042359
21
278.778190
0
LINE
8
boundary
62
5
39
2
10
109.042359
20
278.778190
11
109.998003
21
281.083741
0
LINE
8
boundary
62
5
39
2
10
109.998003
20
281.083741
11
110.441636
21
282.162292
0
LINE
8
boundary
62
5
39
2
10
110.441636
20
282.162292
11
110.874598
21
283.226563
0
LINE
8
boundary
62
5
39
2
10
110.874598
20
283.226563
11
111.449668
21
284.651052
0
LINE
8
boundary
62
5
39
2
10
111.449668
20
284.651052
11
111.638826
21
285.124721
0
LINE
8
boundary
62
5
39
2
10
111.638826
20
285.124721
11
112.238352
21
286.638360
0
LINE
8
boundary
62
5
39
2
10
112.238352
20
286.638360
11
113.089861
21
288.814940
0
LINE
8
boundary
62
5
39
2
10
113.089861
20
288.814940
11
113.357663
21
289.509421
0
LINE
8
boundary
62
5
39
2
10
113.357663
20
289.509421
11
113.774241
21
290.605770
0
LINE
8
boundary
62
5
39
2
10
113.774241
20
290.605770
11
114.249470
21
291.870323
0
LINE
8
boundary
62
5
39
2
10
114.249470
20
291.870323
11
114.430046
21
292.359349
0
LINE
8
boundary
62
5
39
2
10
114.430046
20
292.359349
11
114.946963
21
293.775899
0
LINE
8
boundary
62
5
39
2
10
114.946963
20
293.775899
11
115.654740
21
295.758235
0
LINE
8
boundary
62
5
39
2
10
115.654740
20
295.758235
11
115.895492
21
296.446742
0
LINE
8
boundary
62
5
39
2
10
115.895492
20
296.446742
11
116.221997
21
297.402940
0
LINE
8
boundary
62
5
39
2
10
116.221997
20
297.402940
11
116.642785
21
298.654916
0
LINE
8
boundary
62
5
39
2
10
116.642785
20
298.654916
11
117.067969
21
299.972642
0
LINE
8
boundary
62
5
39
2
10
117.067969
20
299.972642
11
117.264901
21
300.582525
0
LINE
8
boundary
62
5
39
2
10
117.264901
20
300.582525
11
117.738201
21
302.119455
0
LINE
8
boundary
62
5
39
2
10
117.738201
20
302.119455
11
117.973721
21
302.904358
0
LINE
8
boundary
62
5
39
2
10
117.973721
20
302.904358
11
118.180110
21
303.619991
0
LINE
8
boundary
62
5
39
2
10
118.180110
20
303.619991
11
118.551593
21
304.938172
0
LINE
8
boundary
62
5
39
2
10
118.551593
20
304.938172
11
118.691132
21
305.467307
0
LINE
8
boundary
62
5
39
2
10
118.691132
20
305.467307
11
118.967038
21
306.515692
0
LINE
8
boundary
62
5
39
2
10
118.967038
20
306.515692
11
119.309680
21
307.911991
0
LINE
8
boundary
62
5
39
2
10
119.309680
20
307.911991
11
119.522485
21
308.822308
0
LINE
8
boundary
62
5
39
2
10
119.522485
20
308.822308
11
119.863285
21
310.431443
0
LINE
8
boundary
62
5
39
2
10
119.863285
20
310.431443
11
120.138845
21
311.897618
0
LINE
8
boundary
62
5
39
2
10
120.138845
20
311.897618
11
120.235484
21
312.446958
0
LINE
8
boundary
62
5
39
2
10
120.235484
20
312.446958
11
120.346156
21
313.160239
0
LINE
8
boundary
62
5
39
2
10
120.346156
20
313.160239
11
120.493241
21
314.160643
0
LINE
8
boundary
62
5
39
2
10
120.493241
20
314.160643
11
120.641404
21
315.463377
0
LINE
8
boundary
62
5
39
2
10
120.641404
20
315.463377
11
120.716578
21
316.227812
0
LINE
8
boundary
62
5
39
2
10
120.716578
20
316.227812
11
120.832255
21
317.900392
0
LINE
8
boundary
62
5
39
2
10
120.832255
20
317.900392
11
120.848584
21
318.467284
0
LINE
8
boundary
62
5
39
2
10
120.848584
20
318.467284
11
120.873948
21
319.878983
0
LINE
8
boundary
62
5
39
2
10
120.873948
20
319.878983
11
120.825210
21
321.344072
0
LINE
8
boundary
62
5
39
2
10
120.825210
20
321.344072
11
120.724271
21
322.699032
0
LINE
8
boundary
62
5
39
2
10
120.724271
20
322.699032
11
120.648181
21
323.484737
0
LINE
8
boundary
62
5
39
2
10
120.648181
20
323.484737
11
120.574609
21
324.000046
0
LINE
8
boundary
62
5
39
2
10
120.574609
20
324.000046
11
120.403745
21
325.121152
0
LINE
8
boundary
62
5
39
2
10
120.403745
20
325.121152
11
120.285488
21
325.684441
0
LINE
8
boundary
62
5
39
2
10
120.285488
20
325.684441
11
120.122073
21
326.437522
0
LINE
8
boundary
62
5
39
2
10
120.122073
20
326.437522
11
119.814075
21
327.569118
0
LINE
8
boundary
62
5
39
2
10
119.814075
20
327.569118
11
119.463578
21
328.644337
0
LINE
8
boundary
62
5
39
2
10
119.463578
20
328.644337
11
119.207361
21
329.350364
0
LINE
8
boundary
62
5
39
2
10
119.207361
20
329.350364
11
118.681047
21
330.543423
0
LINE
8
boundary
62
5
39
2
10
118.681047
20
330.543423
11
118.155883
21
331.515747
0
LINE
8
boundary
62
5
39
2
10
118.155883
20
331.515747
11
117.626205
21
332.341698
0
LINE
8
boundary
62
5
39
2
10
117.626205
20
332.341698
11
117.059340
21
333.101754
0
LINE
8
boundary
62
5
39
2
10
117.059340
20
333.101754
11
116.455979
21
333.793373
0
LINE
8
boundary
62
5
39
2
10
116.455979
20
333.793373
11
116.059000
21
334.204282
0
LINE
8
boundary
62
5
39
2
10
116.059000
20
334.204282
11
115.301414
21
334.848720
0
LINE
8
boundary
62
5
39
2
10
115.301414
20
334.848720
11
114.510866
21
335.383997
0
LINE
8
boundary
62
5
39
2
10
114.510866
20
335.383997
11
113.690802
21
335.809227
0
LINE
8
boundary
62
5
39
2
10
113.690802
20
335.809227
11
112.902357
21
336.097890
0
LINE
8
boundary
62
5
39
2
10
112.902357
20
336.097890
11
112.084826
21
336.293366
0
LINE
8
boundary
62
5
39
2
10
112.084826
20
336.293366
11
111.237342
21
336.391541
0
LINE
8
boundary
62
5
39
2
10
111.237342
20
336.391541
11
110.360994
21
336.386723
0
LINE
8
boundary
62
5
39
2
10
110.360994
20
336.386723
11
109.457089
21
336.272757
0
LINE
8
boundary
62
5
39
2
10
109.457089
20
336.272757
11
108.527184
21
336.042925
0
LINE
8
boundary
62
5
39
2
10
108.527184
20
336.042925
11
107.573164
21
335.690017
0
LINE
8
boundary
62
5
39
2
10
107.573164
20
335.690017
11
106.597304
21
335.206203
0
LINE
8
boundary
62
5
39
2
10
106.597304
20
335.206203
11
105.601758
21
334.583753
0
LINE
8
boundary
62
5
39
2
10
105.601758
20
334.583753
11
104.586564
21
333.817890
0
LINE
8
boundary
62
5
39
2
10
104.586564
20
333.817890
11
103.643361
21
332.986027
0
LINE
8
boundary
62
5
39
2
10
103.643361
20
332.986027
11
102.705791
21
332.052881
0
LINE
8
boundary
62
5
39
2
10
102.705791
20
332.052881
11
101.768920
21
331.018746
0
LINE
8
boundary
62
5
39
2
10
101.768920
20
331.018746
11
101.392860
21
330.567982
0
LINE
8
boundary
62
5
39
2
10
101.392860
20
330.567982
11
100.833029
21
329.887584
0
LINE
8
boundary
62
5
39
2
10
100.833029
20
329.887584
11
100.283605
21
329.170998
0
LINE
8
boundary
62
5
39
2
10
100.283605
20
329.170998
11
99.898395
21
328.663057
0
LINE
8
boundary
62
5
39
2
10
99.898395
20
328.663057
11
99.151560
21
327.612778
0
LINE
8
boundary
62
5
39
2
10
99.151560
20
327.612778
11
98.189089
21
326.180475
0
LINE
8
boundary
62
5
39
2
10
98.189089
20
326.180475
11
97.102684
21
324.451785
0
LINE
8
boundary
62
5
39
2
10
97.102684
20
324.451785
11
96.814714
21
323.963674
0
LINE
8
boundary
62
5
39
2
10
96.814714
20
323.963674
11
96.174224
21
322.875981
0
LINE
8
boundary
62
5
39
2
10
96.174224
20
322.875981
11
95.853045
21
322.301761
0
LINE
8
boundary
62
5
39
2
10
95.853045
20
322.301761
11
107.772229
21
322.151761
0
LINE
8
boundary
62
5
39
2
10
107.772229
20
322.151761
11
107.772229
21
319.405761
0
LINE
8
boundary
62
5
39
2
10
107.772229
20
319.405761
11
94.283835
21
319.405761
0
LINE
8
boundary
62
5
39
2
10
94.283835
20
319.405761
11
93.406363
21
317.672153
0
LINE
8
boundary
62
5
39
2
10
93.406363
20
317.672153
11
93.151040
21
317.143174
0
LINE
8
boundary
62
5
39
2
10
93.151040
20
317.143174
11
92.489373
21
315.777754
0
LINE
8
boundary
62
5
39
2
10
92.489373
20
315.777754
11
91.894946
21
314.495328
0
LINE
8
boundary
62
5
39
2
10
91.894946
20
314.495328
11
91.575451
21
313.809469
0
LINE
8
boundary
62
5
39
2
10
91.575451
20
313.809469
11
90.773229
21
312.012369
0
LINE
8
boundary
62
5
39
2
10
90.773229
20
312.012369
11
89.755447
21
309.635749
0
LINE
8
boundary
62
5
39
2
10
89.755447
20
309.635749
11
89.474842
21
308.953693
0
LINE
8
boundary
62
5
39
2
10
89.474842
20
308.953693
11
89.074937
21
307.989462
0
LINE
8
boundary
62
5
39
2
10
89.074937
20
307.989462
11
88.598031
21
306.802276
0
LINE
8
boundary
62
5
39
2
10
88.598031
20
306.802276
11
88.395035
21
306.301260
0
LINE
8
boundary
62
5
39
2
10
88.395035
20
306.301260
11
87.715693
21
304.571575
0
LINE
8
boundary
62
5
39
2
10
87.715693
20
304.571575
11
87.279739
21
303.425007
0
LINE
8
boundary
62
5
39
2
10
87.279739
20
303.425007
11
102.117016
21
303.275007
0
LINE
8
boundary
62
5
39
2
10
102.117016
20
303.275007
11
102.117016
21
300.529008
0
LINE
8
boundary
62
5
39
2
10
102.117016
20
300.529008
11
86.202139
21
300.529007
0
LINE
8
boundary
62
5
39
2
10
86.202139
20
300.529007
11
85.945045
21
299.818993
0
LINE
8
boundary
62
5
39
2
10
85.945045
20
299.818993
11
85.675307
21
299.081257
0
LINE
8
boundary
62
5
39
2
10
85.675307
20
299.081257
11
85.048090
21
297.317512
0
LINE
8
boundary
62
5
39
2
10
85.048090
20
297.317512
11
84.467365
21
295.649613
0
LINE
8
boundary
62
5
39
2
10
84.467365
20
295.649613
11
83.943105
21
294.108306
0
LINE
8
boundary
62
5
39
2
10
83.943105
20
294.108306
11
83.622197
21
293.156776
0
LINE
8
boundary
62
5
39
2
10
83.622197
20
293.156776
11
83.382979
21
292.450386
0
LINE
8
boundary
62
5
39
2
10
83.382979
20
292.450386
11
82.932374
21
291.090312
0
LINE
8
boundary
62
5
39
2
10
82.932374
20
291.090312
11
82.239851
21
288.978893
0
LINE
8
boundary
62
5
39
2
10
82.239851
20
288.978893
11
82.000222
21
288.237379
0
LINE
8
boundary
62
5
39
2
10
82.000222
20
288.237379
11
81.612982
21
287.023059
0
LINE
8
boundary
62
5
39
2
10
81.612982
20
287.023059
11
81.020992
21
285.141695
0
LINE
8
boundary
62
5
39
2
10
81.020992
20
285.141695
11
80.850631
21
284.590254
0
LINE
8
boundary
62
5
39
2
10
80.850631
20
284.590254
11
95.415216
21
284.398254
0
LINE
8
boundary
62
5
39
2
10
95.415216
20
284.398254
11
95.415216
21
281.652254
0
LINE
8
boundary
62
5
39
2
10
95.415216
20
281.652254
11
79.944119
21
281.652254
0
LINE
8
boundary
62
5
39
2
10
79.944119
20
281.652254
11
79.452569
21
280.031062
0
LINE
8
boundary
62
5
39
2
10
79.452569
20
280.031062
11
79.238233
21
279.326860
0
LINE
8
boundary
62
5
39
2
10
79.238233
20
279.326860
11
78.750262
21
277.693807
0
LINE
8
boundary
62
5
39
2
10
78.750262
20
277.693807
11
78.045893
21
275.320114
0
LINE
8
boundary
62
5
39
2
10
78.045893
20
275.320114
11
77.445688
21
273.256421
0
LINE
8
boundary
62
5
39
2
10
77.445688
20
273.256421
11
76.846846
21
271.178048
0
LINE
8
boundary
62
5
39
2
10
76.846846
20
271.178048
11
76.634873
21
270.433035
0
LINE
8
boundary
62
5
39
2
10
76.634873
20
270.433035
11
76.246992
21
269.078322
0
LINE
8
boundary
62
5
39
2
10
76.246992
20
269.078322
11
75.926911
21
267.945623
0
LINE
8
boundary
62
5
39
2
10
75.926911
20
267.945623
11
75.646075
21
266.958138
0
LINE
8
boundary
62
5
39
2
10
75.646075
20
266.958138
11
75.284720
21
265.671500
0
LINE
8
boundary
62
5
39
2
10
75.284720
20
265.671500
11
88.619993
21
265.521499
0
LINE
8
boundary
62
5
39
2
10
88.619993
20
265.521499
11
88.619993
21
262.775500
0
LINE
8
boundary
62
5
39
2
10
88.619993
20
262.775500
11
74.473187
21
262.775500
0
LINE
8
boundary
62
5
39
2
10
74.473187
20
262.775500
11
74.071360
21
261.331279
0
LINE
8
boundary
62
5
39
2
10
74.071360
20
261.331279
11
73.834895
21
260.480514
0
LINE
8
boundary
62
5
39
2
10
73.834895
20
260.480514
11
73.225964
21
258.280939
0
LINE
8
boundary
62
5
39
2
10
73.225964
20
258.280939
11
73.074355
21
257.729656
0
LINE
8
boundary
62
5
39
2
10
73.074355
20
257.729656
11
72.099763
21
254.195411
0
LINE
8
boundary
62
5
39
2
10
72.099763
20
254.195411
11
71.154938
21
250.745724
0
LINE
8
boundary
62
5
39
2
10
71.154938
20
250.745724
11
70.791609
21
249.423148
0
LINE
8
boundary
62
5
39
2
10
70.791609
20
249.423148
11
70.072323
21
246.794746
0
LINE
8
boundary
62
5
39
2
10
70.072323
20
246.794746
11
81.897412
21
246.644746
0
LINE
8
boundary
62
5
39
2
10
81.897412
20
246.644746
11
81.897412
21
243.898746
0
LINE
8
boundary
62
5
39
2
10
81.897412
20
243.898746
11
69.271991
21
243.898746
0
LINE
8
boundary
62
5
39
2
10
69.271991
20
243.898746
11
68.325534
21
240.488900
0
LINE
8
boundary
62
5
39
2
10
68.325534
20
240.488900
11
67.746560
21
238.409766
0
LINE
8
boundary
62
5
39
2
10
67.746560
20
238.409766
11
67.224022
21
236.539374
0
LINE
8
boundary
62
5
39
2
10
67.224022
20
236.539374
11
66.275696
21
233.163025
0
LINE
8
boundary
62
5
39
2
10
66.275696
20
233.163025
11
66.113363
21
232.587301
0
LINE
8
boundary
62
5
39
2
10
66.113363
20
232.587301
11
65.595020
21
230.763229
0
LINE
8
boundary
62
5
39
2
10
65.595020
20
230.763229
11
65.104302
21
229.057325
0
LINE
8
boundary
62
5
39
2
10
65.104302
20
229.057325
11
64.790543
21
227.973625
0
LINE
8
boundary
62
5
39
2
10
64.790543
20
227.973625
11
75.294245
21
227.767992
0
LINE
8
boundary
62
5
39
2
10
75.294245
20
227.767992
11
75.294245
21
225.021992
0
LINE
8
boundary
62
5
39
2
10
75.294245
20
225.021992
11
63.928685
21
225.021992
0
LINE
8
boundary
62
5
39
2
10
63.928685
20
225.021992
11
63.294750
21
222.872953
0
LINE
8
boundary
62
5
39
2
10
63.294750
20
222.872953
11
63.148084
21
222.380147
0
LINE
8
boundary
62
5
39
2
10
63.148084
20
222.380147
11
62.676900
21
220.815765
0
LINE
8
boundary
62
5
39
2
10
62.676900
20
220.815765
11
62.087715
21
218.878597
0
LINE
8
boundary
62
5
39
2
10
62.087715
20
218.878597
11
61.782897
21
217.885400
0
LINE
8
boundary
62
5
39
2
10
61.782897
20
217.885400
11
61.495347
21
216.950907
0
LINE
8
boundary
62
5
39
2
10
61.495347
20
216.950907
11
61.027581
21
215.444434
0
LINE
8
boundary
62
5
39
2
10
61.027581
20
215.444434
11
60.404946
21
213.459134
0
LINE
8
boundary
62
5
39
2
10
60.404946
20
213.459134
11
59.690854
21
211.232622
0
LINE
8
boundary
62
5
39
2
10
59.690854
20
211.232622
11
59.508283
21
210.670240
0
LINE
8
boundary
62
5
39
2
10
59.508283
20
210.670240
11
59.079621
21
209.349837
0
LINE
8
boundary
62
5
39
2
10
59.079621
20
209.349837
11
68.694063
21
208.891238
0
LINE
8
boundary
62
5
39
2
10
68.694063
20
208.891238
11
68.694063
21
206.145238
0
LINE
8
boundary
62
5
39
2
10
68.694063
20
206.145238
11
58.023860
21
206.145238
0
LINE
8
boundary
62
5
39
2
10
58.023860
20
206.145238
11
57.849160
21
205.617339
0
LINE
8
boundary
62
5
39
2
10
57.849160
20
205.617339
11
57.230693
21
203.768687
0
LINE
8
boundary
62
5
39
2
10
57.230693
20
203.768687
11
56.297882
21
201.038883
0
LINE
8
boundary
62
5
39
2
10
56.297882
20
201.038883
11
55.957956
21
200.056967
0
LINE
8
boundary
62
5
39
2
10
55.957956
20
200.056967
11
55.358430
21
198.322622
0
LINE
8
boundary
62
5
39
2
10
55.358430
20
198.322622
11
54.694739
21
196.427513
0
LINE
8
boundary
62
5
39
2
10
54.694739
20
196.427513
11
54.412603
21
195.618742
0
LINE
8
boundary
62
5
39
2
10
54.412603
20
195.618742
11
53.523383
21
193.102505
0
LINE
8
boundary
62
5
39
2
10
53.523383
20
193.102505
11
52.504274
21
190.264875
0
LINE
8
boundary
62
5
39
2
10
52.504274
20
190.264875
11
61.993135
21
190.014485
0
LINE
8
boundary
62
5
39
2
10
61.993135
20
190.014485
11
61.993135
21
187.268484
0
LINE
8
boundary
62
5
39
2
10
61.993135
20
187.268484
11
51.419438
21
187.268485
0
LINE
8
boundary
62
5
39
2
10
51.419438
20
187.268485
11
50.944411
21
185.967161
0
LINE
8
boundary
62
5
39
2
10
50.944411
20
185.967161
11
50.588877
21
184.982335
0
LINE
8
boundary
62
5
39
2
10
50.588877
20
184.982335
11
49.720074
21
182.603900
0
LINE
8
boundary
62
5
39
2
10
49.720074
20
182.603900
11
49.322731
21
181.511047
0
LINE
8
boundary
62
5
39
2
10
49.322731
20
181.511047
11
48.682209
21
179.772624
0
LINE
8
boundary
62
5
39
2
10
48.682209
20
179.772624
11
48.503411
21
179.292583
0
LINE
8
boundary
62
5
39
2
10
48.503411
20
179.292583
11
47.736305
21
177.200414
0
LINE
8
boundary
62
5
39
2
10
47.736305
20
177.200414
11
47.302026
21
176.028026
0
LINE
8
boundary
62
5
39
2
10
47.302026
20
176.028026
11
46.799475
21
174.646541
0
LINE
8
boundary
62
5
39
2
10
46.799475
20
174.646541
11
46.123131
21
172.804901
0
LINE
8
boundary
62
5
39
2
10
46.123131
20
172.804901
11
45.873758
21
172.111792
0
LINE
8
boundary
62
5
39
2
10
45.873758
20
172.111792
11
45.574681
21
171.287730
0
LINE
8
boundary
62
5
39
2
10
45.574681
20
171.287730
11
55.365420
21
171.137731
0
LINE
8
boundary
62
5
39
2
10
55.365420
20
171.137731
11
55.365420
21
168.391731
0
LINE
8
boundary
62
5
39
2
10
55.365420
20
168.391731
11
44.524960
21
168.391731
0
LINE
8
boundary
62
5
39
2
10
44.524960
20
168.391731
11
44.060016
21
167.108355
0
LINE
8
boundary
62
5
39
2
10
44.060016
20
167.108355
11
43.824081
21
166.461906
0
LINE
8
boundary
62
5
39
2
10
43.824081
20
166.461906
11
43.457857
21
165.438231
0
LINE
8
boundary
62
5
39
2
10
43.457857
20
165.438231
11
43.262012
21
164.894065
0
LINE
8
boundary
62
5
39
2
10
43.262012
20
164.894065
11
42.966957
21
164.061213
0
LINE
8
boundary
62
5
39
2
10
42.966957
20
164.061213
11
42.707264
21
163.332187
0
LINE
8
boundary
62
5
39
2
10
42.707264
20
163.332187
11
42.482232
21
162.690149
0
LINE
8
boundary
62
5
39
2
10
42.482232
20
162.690149
11
42.160109
21
161.775681
0
LINE
8
boundary
62
5
39
2
10
42.160109
20
161.775681
11
41.620826
21
160.223976
0
LINE
8
boundary
62
5
39
2
10
41.620826
20
160.223976
11
41.089693
21
158.676491
0
LINE
8
boundary
62
5
39
2
10
41.089693
20
158.676491
11
40.917060
21
158.166441
0
LINE
8
boundary
62
5
39
2
10
40.917060
20
158.166441
11
40.605234
21
157.262094
0
LINE
8
boundary
62
5
39
2
10
40.605234
20
157.262094
11
40.147412
21
155.917313
0
LINE
8
boundary
62
5
39
2
10
40.147412
20
155.917313
11
39.697168
21
154.577765
0
LINE
8
boundary
62
5
39
2
10
39.697168
20
154.577765
11
39.521542
21
154.053912
0
LINE
8
boundary
62
5
39
2
10
39.521542
20
154.053912
11
39.254775
21
153.243442
0
LINE
8
boundary
62
5
39
2
10
39.254775
20
153.243442
11
39.015715
21
152.517977
0
LINE
8
boundary
62
5
39
2
10
39.015715
20
152.517977
11
49.141724
21
152.260977
0
LINE
8
boundary
62
5
39
2
10
49.141724
20
152.260977
11
49.141725
21
149.514977
0
LINE
8
boundary
62
5
39
2
10
49.141725
20
149.514977
11
38.053352
21
149.514977
0
LINE
8
boundary
62
5
39
2
10
38.053352
20
149.514977
11
37.643062
21
148.198108
0
LINE
8
boundary
62
5
39
2
10
37.643062
20
148.198108
11
37.154699
21
146.644634
0
LINE
8
boundary
62
5
39
2
10
37.154699
20
146.644634
11
36.750539
21
145.336162
0
LINE
8
boundary
62
5
39
2
10
36.750539
20
145.336162
11
36.353561
21
144.031700
0
LINE
8
boundary
62
5
39
2
10
36.353561
20
144.031700
11
36.139001
21
143.320390
0
LINE
8
boundary
62
5
39
2
10
36.139001
20
143.320390
11
35.963581
21
142.731095
0
LINE
8
boundary
62
5
39
2
10
35.963581
20
142.731095
11
35.683591
21
141.786452
0
LINE
8
boundary
62
5
39
2
10
35.683591
20
141.786452
11
35.235726
21
140.251187
0
LINE
8
boundary
62
5
39
2
10
35.235726
20
140.251187
11
35.039212
21
139.566100
0
LINE
8
boundary
62
5
39
2
10
35.039212
20
139.566100
11
34.826689
21
138.848454
0
LINE
8
boundary
62
5
39
2
10
34.826689
20
138.848454
11
34.449380
21
137.556596
0
LINE
8
boundary
62
5
39
2
10
34.449380
20
137.556596
11
34.077762
21
136.267686
0
LINE
8
boundary
62
5
39
2
10
34.077762
20
136.267686
11
33.897132
21
135.635187
0
LINE
8
boundary
62
5
39
2
10
33.897132
20
135.635187
11
33.581378
21
134.515689
0
LINE
8
boundary
62
5
39
2
10
33.581378
20
134.515689
11
33.307261
21
133.534223
0
LINE
8
boundary
62
5
39
2
10
33.307261
20
133.534223
11
43.655183
21
133.384223
0
LINE
8
boundary
62
5
39
2
10
43.655183
20
133.384223
11
43.655183
21
130.638223
0
LINE
8
boundary
62
5
39
2
10
43.655183
20
130.638223
11
32.496802
21
130.638223
0
LINE
8
boundary
62
5
39
2
10
32.496802
20
130.638223
11
32.330917
21
130.055376
0
LINE
8
boundary
62
5
39
2
10
32.330917
20
130.055376
11
32.160093
21
129.447549
0
LINE
8
boundary
62
5
39
2
10
32.160093
20
129.447549
11
31.691408
21
127.765087
0
LINE
8
boundary
62
5
39
2
10
31.691408
20
127.765087
11
31.299682
21
126.337827
0
LINE
8
boundary
62
5
39
2
10
31.299682
20
126.337827
11
31.068406
21
125.491808
0
LINE
8
boundary
62
5
39
2
10
31.068406
20
125.491808
11
30.477693
21
123.293590
0
LINE
8
boundary
62
5
39
2
10
30.477693
20
123.293590
11
29.974792
21
121.472797
0
LINE
8
boundary
62
5
39
2
10
29.974792
20
121.472797
11
29.596835
21
120.087249
0
LINE
8
boundary
62
5
39
2
10
29.596835
20
120.087249
11
29.374210
21
119.263758
0
LINE
8
boundary
62
5
39
2
10
29.374210
20
119.263758
11
29.013227
21
117.964536
0
LINE
8
boundary
62
5
39
2
10
29.013227
20
117.964536
11
28.735514
21
116.951783
0
LINE
8
boundary
62
5
39
2
10
28.735514
20
116.951783
11
28.535747
21
116.224928
0
LINE
8
boundary
62
5
39
2
10
28.535747
20
116.224928
11
28.298312
21
115.348241
0
LINE
8
boundary
62
5
39
2
10
28.298312
20
115.348241
11
28.104611
21
114.657469
0
LINE
8
boundary
62
5
39
2
10
28.104611
20
114.657469
11
38.611614
21
114.507469
0
LINE
8
boundary
62
5
39
2
10
38.611614
20
114.507469
11
38.611613
21
111.761469
0
LINE
8
boundary
62
5
39
2
10
38.611613
20
111.761469
11
27.304529
21
111.761470
0
LINE
8
boundary
62
5
39
2
10
27.304529
20
111.761470
11
27.107212
21
111.057611
0
LINE
8
boundary
62
5
39
2
10
27.107212
20
111.057611
11
26.625047
21
109.343334
0
LINE
8
boundary
62
5
39
2
10
26.625047
20
109.343334
11
26.195342
21
107.792166
0
LINE
8
boundary
62
5
39
2
10
26.195342
20
107.792166
11
25.506102
21
105.409251
0
LINE
8
boundary
62
5
39
2
10
25.506102
20
105.409251
11
25.232715
21
104.436569
0
LINE
8
boundary
62
5
39
2
10
25.232715
20
104.436569
11
24.884540
21
103.230588
0
LINE
8
boundary
62
5
39
2
10
24.884540
20
103.230588
11
24.355906
21
101.341180
0
LINE
8
boundary
62
5
39
2
10
24.355906
20
101.341180
11
24.126356
21
100.526816
0
LINE
8
boundary
62
5
39
2
10
24.126356
20
100.526816
11
23.761858
21
99.293065
0
LINE
8
boundary
62
5
39
2
10
23.761858
20
99.293065
11
23.226804
21
97.469002
0
LINE
8
boundary
62
5
39
2
10
23.226804
20
97.469002
11
22.936750
21
96.452997
0
LINE
8
boundary
62
5
39
2
10
22.936750
20
96.452997
11
22.737858
21
95.780715
0
LINE
8
boundary
62
5
39
2
10
22.737858
20
95.780715
11
33.754377
21
95.630715
0
LINE
8
boundary
62
5
39
2
10
33.754377
20
95.630715
11
33.754377
21
92.884716
0
LINE
8
boundary
62
5
39
2
10
33.754377
20
92.884716
11
21.899316
21
92.884716
0
LINE
8
boundary
62
5
39
2
10
21.899316
20
92.884716
11
21.669033
21
92.117421
0
LINE
8
boundary
62
5
39
2
10
21.669033
20
92.117421
11
21.144000
21
90.352966
0
LINE
8
boundary
62
5
39
2
10
21.144000
20
90.352966
11
20.845961
21
89.319727
0
LINE
8
boundary
62
5
39
2
10
20.845961
20
89.319727
11
20.635503
21
88.621077
0
LINE
8
boundary
62
5
39
2
10
20.635503
20
88.621077
11
20.171864
21
87.013769
0
LINE
8
boundary
62
5
39
2
10
20.171864
20
87.013769
11
19.634378
21
85.218181
0
LINE
8
boundary
62
5
39
2
10
19.634378
20
85.218181
11
19.137320
21
83.543018
0
LINE
8
boundary
62
5
39
2
10
19.137320
20
83.543018
11
18.852262
21
82.545065
0
LINE
8
boundary
62
5
39
2
10
18.852262
20
82.545065
11
18.661735
21
81.909741
0
LINE
8
boundary
62
5
39
2
10
18.661735
20
81.909741
11
18.229458
21
80.390382
0
LINE
8
boundary
62
5
39
2
10
18.229458
20
80.390382
11
17.739787
21
78.723233
0
LINE
8
boundary
62
5
39
2
10
17.739787
20
78.723233
11
17.210979
21
76.903961
0
LINE
8
boundary
62
5
39
2
10
17.210979
20
76.903961
11
29.108355
21
76.753962
0
LINE
8
boundary
62
5
39
2
10
29.108355
20
76.753962
11
29.108355
21
74.007962
0
LINE
8
boundary
62
5
39
2
10
29.108355
20
74.007962
11
16.410498
21
74.007962
0
LINE
8
boundary
62
5
39
2
10
16.410498
20
74.007962
11
15.705038
21
71.528167
0
LINE
8
boundary
62
5
39
2
10
15.705038
20
71.528167
11
15.436706
21
70.473186
0
LINE
8
boundary
62
5
39
2
10
15.436706
20
70.473186
11
15.037858
21
69.053265
0
LINE
8
boundary
62
5
39
2
10
15.037858
20
69.053265
11
14.500221
21
66.905091
0
LINE
8
boundary
62
5
39
2
10
14.500221
20
66.905091
11
14.222034
21
65.826758
0
LINE
8
boundary
62
5
39
2
10
14.222034
20
65.826758
11
13.982137
21
64.888846
0
LINE
8
boundary
62
5
39
2
10
13.982137
20
64.888846
11
13.850240
21
64.348546
0
LINE
8
boundary
62
5
39
2
10
13.850240
20
64.348546
11
13.543949
21
63.109428
0
LINE
8
boundary
62
5
39
2
10
13.543949
20
63.109428
11
13.312016
21
62.175355
0
LINE
8
boundary
62
5
39
2
10
13.312016
20
62.175355
11
13.096715
21
61.289654
0
LINE
8
boundary
62
5
39
2
10
13.096715
20
61.289654
11
12.955292
21
60.683002
0
LINE
8
boundary
62
5
39
2
10
12.955292
20
60.683002
11
12.736510
21
59.756857
0
LINE
8
boundary
62
5
39
2
10
12.736510
20
59.756857
11
12.508027
21
58.794556
0
LINE
8
boundary
62
5
39
2
10
12.508027
20
58.794556
11
12.330651
21
58.027206
0
LINE
8
boundary
62
5
39
2
10
12.330651
20
58.027206
11
24.893992
21
57.877208
0
LINE
8
boundary
62
5
39
2
10
24.893992
20
57.877208
11
24.893992
21
55.131208
0
LINE
8
boundary
62
5
39
2
10
24.893992
20
55.131208
11
11.671495
21
55.131208
0
LINE
8
boundary
62
5
39
2
10
11.671495
20
55.131208
11
11.467126
21
54.232423
0
LINE
8
boundary
62
5
39
2
10
11.467126
20
54.232423
11
11.302977
21
53.492128
0
LINE
8
boundary
62
5
39
2
10
11.302977
20
53.492128
11
11.140655
21
52.755284
0
LINE
8
boundary
62
5
39
2
10
11.140655
20
52.755284
11
10.976403
21
52.015056
0
LINE
8
boundary
62
5
39
2
10
10.976403
20
52.015056
11
10.867000
21
51.502887
0
LINE
8
boundary
62
5
39
2
10
10.867000
20
51.502887
11
10.735600
21
50.897661
0
LINE
8
boundary
62
5
39
2
10
10.735600
20
50.897661
11
10.626238
21
50.391191
0
LINE
8
boundary
62
5
39
2
10
10.626238
20
50.391191
11
10.506032
21
49.842632
0
LINE
8
boundary
62
5
39
2
10
10.506032
20
49.842632
11
10.389081
21
49.285434
0
LINE
8
boundary
62
5
39
2
10
10.389081
20
49.285434
11
10.206055
21
48.433339
0
LINE
8
boundary
62
5
39
2
10
10.206055
20
48.433339
11
10.049784
21
47.700284
0
LINE
8
boundary
62
5
39
2
10
10.049784
20
47.700284
11
9.921758
21
47.090832
0
LINE
8
boundary
62
5
39
2
10
9.921758
20
47.090832
11
9.798222
21
46.512601
0
LINE
8
boundary
62
5
39
2
10
9.798222
20
46.512601
11
9.687539
21
45.995756
0
LINE
8
boundary
62
5
39
2
10
9.687539
20
45.995756
11
9.548702
21
45.353240
0
LINE
8
boundary
62
5
39
2
10
9.548702
20
45.353240
11
9.378462
21
44.553865
0
LINE
8
boundary
62
5
39
2
10
9.378462
20
44.553865
11
9.220160
21
43.801993
0
LINE
8
boundary
62
5
39
2
10
9.220160
20
43.801993
11
9.036508
21
42.930550
0
LINE
8
boundary
62
5
39
2
10
9.036508
20
42.930550
11
8.866097
21
42.106885
0
LINE
8
boundary
62
5
39
2
10
8.866097
20
42.106885
11
8.763110
21
41.597103
0
LINE
8
boundary
62
5
39
2
10
8.763110
20
41.597103
11
8.544067
21
40.488955
0
LINE
8
boundary
62
5
39
2
10
8.544067
20
40.488955
11
8.371262
21
39.585202
0
LINE
8
boundary
62
5
39
2
10
8.371262
20
39.585202
11
8.301533
21
39.000454
0
LINE
8
boundary
62
5
39
2
10
8.301533
20
39.000454
11
20.904669
21
39.000454
0
LINE
8
boundary
62
5
39
2
10
20.904669
20
39.000454
11
20.904669
21
36.254454
0
LINE
8
boundary
62
5
39
2
10
20.904669
20
36.254454
11
7.794903
21
36.254455
0
LINE
8
boundary
62
5
39
2
10
7.794903
20
36.254455
11
7.651901
21
35.333395
0
LINE
8
boundary
62
5
39
2
10
7.651901
20
35.333395
11
7.493832
21
34.236716
0
LINE
8
boundary
62
5
39
2
10
7.493832
20
34.236716
11
7.372021
21
33.329900
0
LINE
8
boundary
62
5
39
2
10
7.372021
20
33.329900
11
7.284510
21
32.611412
0
LINE
8
boundary
62
5
39
2
10
7.284510
20
32.611412
11
7.212086
21
32.019855
0
LINE
8
boundary
62
5
39
2
10
7.212086
20
32.019855
11
7.091275
21
30.910298
0
LINE
8
boundary
62
5
39
2
10
7.091275
20
30.910298
11
7.020811
21
30.217865
0
LINE
8
boundary
62
5
39
2
10
7.020811
20
30.217865
11
6.891488
21
28.737762
0
LINE
8
boundary
62
5
39
2
10
6.891488
20
28.737762
11
6.808167
21
27.555611
0
LINE
8
boundary
62
5
39
2
10
6.808167
20
27.555611
11
6.774352
21
27.039474
0
LINE
8
boundary
62
5
39
2
10
6.774352
20
27.039474
11
6.746078
21
26.443613
0
LINE
8
boundary
62
5
39
2
10
6.746078
20
26.443613
11
6.701109
21
25.440782
0
LINE
8
boundary
62
5
39
2
10
6.701109
20
25.440782
11
6.675131
21
24.239201
0
LINE
8
boundary
62
5
39
2
10
6.675131
20
24.239201
11
6.671687
21
23.160172
0
LINE
8
boundary
62
5
39
2
10
6.671687
20
23.160172
11
6.677979
21
22.272081
0
LINE
8
boundary
62
5
39
2
10
6.677979
20
22.272081
11
6.700213
21
21.684862
0
LINE
8
boundary
62
5
39
2
10
6.700213
20
21.684862
11
6.725092
21
21.039461
0
LINE
8
boundary
62
5
39
2
10
6.725092
20
21.039461
11
6.771009
21
20.273666
0
LINE
8
boundary
62
5
39
2
10
6.771009
20
20.273666
11
17.731244
21
20.123701
0
LINE
8
boundary
62
5
39
2
10
17.731244
20
20.123701
11
17.731244
21
17.377701
0
LINE
8
boundary
62
5
39
2
10
17.731244
20
17.377701
11
7.117246
21
17.377700
0
LINE
8
boundary
62
5
39
2
10
7.117246
20
17.377700
11
7.254534
21
16.329893
0
LINE
8
boundary
62
5
39
2
10
7.254534
20
16.329893
11
7.486454
21
15.303153
0
LINE
8
boundary
62
5
39
2
10
7.486454
20
15.303153
11
7.638422
21
14.690770
0
LINE
8
boundary
62
5
39
2
10
7.638422
20
14.690770
11
7.789494
21
14.176707
0
LINE
8
boundary
62
5
39
2
10
7.789494
20
14.176707
11
8.034623
21
13.521426
0
LINE
8
boundary
62
5
39
2
10
8.034623
20
13.521426
11
8.246089
21
12.921104
0
LINE
8
boundary
62
5
39
2
10
8.246089
20
12.921104
11
8.646129
21
12.021839
0
LINE
8
boundary
62
5
39
2
10
8.646129
20
12.021839
11
8.916598
21
11.520269
0
LINE
8
boundary
62
5
39
2
10
8.916598
20
11.520269
11
9.363887
21
10.797885
0
LINE
8
boundary
62
5
39
2
10
9.363887
20
10.797885
11
10.028941
21
9.911387
0
LINE
8
boundary
62
5
39
2
10
10.028941
20
9.911387
11
10.621743
21
9.264160
0
LINE
8
boundary
62
5
39
2
10
10.621743
20
9.264160
11
11.049503
21
8.867095
0
LINE
8
boundary
62
5
39
2
10
11.049503
20
8.867095
11
11.705773
21
8.336961
0
LINE
8
boundary
62
5
39
2
10
11.705773
20
8.336961
11
12.271622
21
7.955159
0
LINE
8
boundary
62
5
39
2
10
12.271622
20
7.955159
11
12.741729
21
7.684071
0
LINE
8
boundary
62
5
39
2
10
12.741729
20
7.684071
11
12.848796
21
7.624503
0
LINE
8
annotation
62
1
39
211
10
24.923539
20
16.350661
11
22.791744
21
16.350661
0
LINE
8
annotation
62
1
39
211
10
22.791744
20
16.350661
11
24.761593
21
19.521864
0
LINE
8
annotation
62
1
39
211
10
24.761593
20
19.521864
11
24.761593
21
19.521864
0
LINE
8
annotation
62
1
39
211
10
24.761593
20
19.521864
11
24.763947
21
19.524778
0
LINE
8
annotation
62
1
39
211
10
24.763947
20
19.524778
11
24.766206
21
19.527717
0
LINE
8
annotation
62
1
39
211
10
24.766206
20
19.527717
11
24.768382
21
19.530705
0
LINE
8
annotation
62
1
39
211
10
24.768382
20
19.530705
11
24.770492
21
19.533768
0
LINE
8
annotation
62
1
39
211
10
24.770492
20
19.533768
11
24.772549
21
19.536930
0
LINE
8
annotation
62
1
39
211
10
24.772549
20
19.536930
11
24.774570
21
19.540215
0
LINE
8
annotation
62
1
39
211
10
24.774570
20
19.540215
11
24.776568
21
19.543649
0
LINE
8
annotation
62
1
39
211
10
24.776568
20
19.543649
11
24.778559
21
19.547257
0
LINE
8
annotation
62
1
39
211
10
24.778559
20
19.547257
11
24.780557
21
19.551063
0
LINE
8
annotation
62
1
39
211
10
24.780557
20
19.551063
11
24.780557
21
19.551063
0
LINE
8
annotation
62
1
39
211
10
24.780557
20
19.551063
11
24.861891
21
19.725695
0
LINE
8
annotation
62
1
39
211
10
24.861891
20
19.725695
11
24.909405
21
19.906717
0
LINE
8
annotation
62
1
39
211
10
24.909405
20
19.906717
11
24.924264
21
20.090037
0
LINE
8
annotation
62
1
39
211
10
24.924264
20
20.090037
11
24.907631
21
20.271567
0
LINE
8
annotation
62
1
39
211
10
24.907631
20
20.271567
11
24.860671
21
20.447215
0
LINE
8
annotation
62
1
39
211
10
24.860671
20
20.447215
11
24.784548
21
20.612891
0
LINE
8
annotation
62
1
39
211
10
24.784548
20
20.612891
11
24.680427
21
20.764505
0
LINE
8
annotation
62
1
39
211
10
24.680427
20
20.764505
11
24.549472
21
20.897966
0
LINE
8
annotation
62
1
39
211
10
24.549472
20
20.897966
11
24.392848
21
21.009184
0
LINE
8
annotation
62
1
39
211
10
24.392848
20
21.009184
11
24.392848
21
21.009184
0
LINE
8
annotation
62
1
39
211
10
24.392848
20
21.009184
11
24.217730
21
21.089363
0
LINE
8
annotation
62
1
39
211
10
24.217730
20
21.089363
11
24.036431
21
21.136145
0
LINE
8
annotation
62
1
39
211
10
24.036431
20
21.136145
11
23.853004
21
21.150583
0
LINE
8
annotation
62
1
39
211
10
23.853004
20
21.150583
11
23.671502
21
21.133731
0
LINE
8
annotation
62
1
39
211
10
23.671502
20
21.133731
11
23.495978
21
21.086641
0
LINE
8
annotation
62
1
39
211
10
23.495978
20
21.086641
11
23.330485
21
21.010366
0
LINE
8
annotation
62
1
39
211
10
23.330485
20
21.010366
11
23.179077
21
20.905959
0
LINE
8
annotation
62
1
39
211
10
23.179077
20
20.905959
11
23.045806
21
20.774472
0
LINE
8
annotation
62
1
39
211
10
23.045806
20
20.774472
11
22.934727
21
20.616960
0
LINE
8
annotation
62
1
39
211
10
22.934727
20
20.616960
11
22.794755
21
20.348454
0
LINE
8
annotation
62
1
39
211
10
25.965170
20
35.227605
11
27.031067
21
35.227605
0
LINE
8
annotation
62
1
39
211
10
27.031067
20
35.227605
11
27.031067
21
35.227605
0
LINE
8
annotation
62
1
39
211
10
27.031067
20
35.227605
11
27.222771
21
35.244802
0
LINE
8
annotation
62
1
39
211
10
27.222771
20
35.244802
11
27.403158
21
35.294365
0
LINE
8
annotation
62
1
39
211
10
27.403158
20
35.294365
11
27.569228
21
35.373252
0
LINE
8
annotation
62
1
39
211
10
27.569228
20
35.373252
11
27.717980
21
35.478420
0
LINE
8
annotation
62
1
39
211
10
27.717980
20
35.478420
11
27.846414
21
35.606827
0
LINE
8
annotation
62
1
39
211
10
27.846414
20
35.606827
11
27.951529
21
35.755431
0
LINE
8
annotation
62
1
39
211
10
27.951529
20
35.755431
11
28.030326
21
35.921188
0
LINE
8
annotation
62
1
39
211
10
28.030326
20
35.921188
11
28.079805
21
36.101058
0
LINE
8
annotation
62
1
39
211
10
28.079805
20
36.101058
11
28.096964
21
36.291997
0
LINE
8
annotation
62
1
39
211
10
28.096964
20
36.291997
11
28.096964
21
36.825698
0
LINE
8
annotation
62
1
39
211
10
28.096964
20
36.825698
11
28.096964
21
36.825698
0
LINE
8
annotation
62
1
39
211
10
28.096964
20
36.825698
11
28.079805
21
37.016558
0
LINE
8
annotation
62
1
39
211
10
28.079805
20
37.016558
11
28.030326
21
37.196386
0
LINE
8
annotation
62
1
39
211
10
28.030326
20
37.196386
11
27.951529
21
37.362131
0
LINE
8
annotation
62
1
39
211
10
27.951529
20
37.362131
11
27.846414
21
37.510745
0
LINE
8
annotation
62
1
39
211
10
27.846414
20
37.510745
11
27.717980
21
37.639176
0
LINE
8
annotation
62
1
39
211
10
27.717980
20
37.639176
11
27.569228
21
37.744377
0
LINE
8
annotation
62
1
39
211
10
27.569228
20
37.744377
11
27.403158
21
37.823296
0
LINE
8
annotation
62
1
39
211
10
27.403158
20
37.823296
11
27.222771
21
37.872884
0
LINE
8
annotation
62
1
39
211
10
27.222771
20
37.872884
11
27.031067
21
37.890091
0
LINE
8
annotation
62
1
39
211
10
27.031067
20
37.890091
11
26.497366
21
37.890091
0
LINE
8
annotation
62
1
39
211
10
26.497366
20
37.890091
11
27.031067
21
37.890091
0
LINE
8
annotation
62
1
39
211
10
27.031067
20
37.890091
11
27.031067
21
37.890091
0
LINE
8
annotation
62
1
39
211
10
27.031067
20
37.890091
11
27.222771
21
37.907302
0
LINE
8
annotation
62
1
39
211
10
27.222771
20
37.907302
11
27.403158
21
37.956919
0
LINE
8
annotation
62
1
39
211
10
27.403158
20
37.956919
11
27.569228
21
38.035916
0
LINE
8
annotation
62
1
39
211
10
27.569228
20
38.035916
11
27.717980
21
38.141269
0
LINE
8
annotation
62
1
39
211
10
27.717980
20
38.141269
11
27.846414
21
38.269953
0
LINE
8
annotation
62
1
39
211
10
27.846414
20
38.269953
11
27.951529
21
38.418942
0
LINE
8
annotation
62
1
39
211
10
27.951529
20
38.418942
11
28.030326
21
38.585212
0
LINE
8
annotation
62
1
39
211
10
28.030326
20
38.585212
11
28.079805
21
38.765737
0
LINE
8
annotation
62
1
39
211
10
28.079805
20
38.765737
11
28.096964
21
38.957493
0
LINE
8
annotation
62
1
39
211
10
28.096964
20
38.957493
11
28.096964
21
38.957493
0
LINE
8
annotation
62
1
39
211
10
28.096964
20
38.957493
11
28.079805
21
39.148353
0
LINE
8
annotation
62
1
39
211
10
28.079805
20
39.148353
11
28.030326
21
39.328180
0
LINE
8
annotation
62
1
39
211
10
28.030326
20
39.328180
11
27.951529
21
39.493926
0
LINE
8
annotation
62
1
39
211
10
27.951529
20
39.493926
11
27.846414
21
39.642539
0
LINE
8
annotation
62
1
39
211
10
27.846414
20
39.642539
11
27.717980
21
39.770971
0
LINE
8
annotation
62
1
39
211
10
27.717980
20
39.770971
11
27.569228
21
39.876171
0
LINE
8
annotation
62
1
39
211
10
27.569228
20
39.876171
11
27.403158
21
39.955090
0
LINE
8
annotation
62
1
39
211
10
27.403158
20
39.955090
11
27.222771
21
40.004678
0
LINE
8
annotation
62
1
39
211
10
27.222771
20
40.004678
11
27.031067
21
40.021885
0
LINE
8
annotation
62
1
39
211
10
27.031067
20
40.021885
11
25.965170
21
40.021885
0
LINE
8
annotation
62
1
39
211
10
32.352987
20
55.171310
11
29.687792
21
55.171310
0
LINE
8
annotation
62
1
39
211
10
29.687792
20
55.171310
11
30.752185
21
58.904208
0
LINE
8
annotation
62
1
39
211
10
31.554091
20
54.104208
11
31.554091
21
56.236003
0
LINE
8
annotation
62
1
39
211
10
34.168856
20
72.980962
11
35.234753
21
72.980962
0
LINE
8
annotation
62
1
39
211
10
35.234753
20
72.980962
11
35.234753
21
72.980962
0
LINE
8
annotation
62
1
39
211
10
35.234753
20
72.980962
11
35.426061
21
72.998163
0
LINE
8
annotation
62
1
39
211
10
35.426061
20
72.998163
11
35.606237
21
73.047752
0
LINE
8
annotation
62
1
39
211
10
35.606237
20
73.047752
11
35.772245
21
73.126709
0
LINE
8
annotation
62
1
39
211
10
35.772245
20
73.126709
11
35.921046
21
73.232015
0
LINE
8
annotation
62
1
39
211
10
35.921046
20
73.232015
11
36.049604
21
73.360649
0
LINE
8
annotation
62
1
39
211
10
36.049604
20
73.360649
11
36.154881
21
73.509590
0
LINE
8
annotation
62
1
39
211
10
36.154881
20
73.509590
11
36.233839
21
73.675820
0
LINE
8
annotation
62
1
39
211
10
36.233839
20
73.675820
11
36.283441
21
73.856318
0
LINE
8
annotation
62
1
39
211
10
36.283441
20
73.856318
11
36.300651
21
74.048063
0
LINE
8
annotation
62
1
39
211
10
36.300651
20
74.048063
11
36.300651
21
74.579055
0
LINE
8
annotation
62
1
39
211
10
36.300651
20
74.579055
11
36.300651
21
74.579055
0
LINE
8
annotation
62
1
39
211
10
36.300651
20
74.579055
11
36.283451
21
74.770708
0
LINE
8
annotation
62
1
39
211
10
36.283451
20
74.770708
11
36.233874
21
74.950957
0
LINE
8
annotation
62
1
39
211
10
36.233874
20
74.950957
11
36.154948
21
75.116826
0
LINE
8
annotation
62
1
39
211
10
36.154948
20
75.116826
11
36.049703
21
75.265340
0
LINE
8
annotation
62
1
39
211
10
36.049703
20
75.265340
11
35.921170
21
75.393524
0
LINE
8
annotation
62
1
39
211
10
35.921170
20
75.393524
11
35.772379
21
75.498403
0
LINE
8
annotation
62
1
39
211
10
35.772379
20
75.498403
11
35.606359
21
75.577000
0
LINE
8
annotation
62
1
39
211
10
35.606359
20
75.577000
11
35.426140
21
75.626340
0
LINE
8
annotation
62
1
39
211
10
35.426140
20
75.626340
11
35.234753
21
75.643448
0
LINE
8
annotation
62
1
39
211
10
35.234753
20
75.643448
11
34.168856
21
75.643448
0
LINE
8
annotation
62
1
39
211
10
34.168856
20
75.643448
11
34.168856
21
77.780962
0
LINE
8
annotation
62
1
39
211
10
34.168856
20
77.780962
11
36.300651
21
77.780962
0
LINE
8
annotation
62
1
39
211
10
40.415981
20
96.657716
11
40.415981
21
96.657716
0
LINE
8
annotation
62
1
39
211
10
40.415981
20
96.657716
11
40.110628
21
96.543227
0
LINE
8
annotation
62
1
39
211
10
40.110628
20
96.543227
11
39.830427
21
96.388967
0
LINE
8
annotation
62
1
39
211
10
39.830427
20
96.388967
11
39.578254
21
96.198800
0
LINE
8
annotation
62
1
39
211
10
39.578254
20
96.198800
11
39.356985
21
95.976592
0
LINE
8
annotation
62
1
39
211
10
39.356985
20
95.976592
11
39.169496
21
95.726208
0
LINE
8
annotation
62
1
39
211
10
39.169496
20
95.726208
11
39.018665
21
95.451511
0
LINE
8
annotation
62
1
39
211
10
39.018665
20
95.451511
11
38.907367
21
95.156368
0
LINE
8
annotation
62
1
39
211
10
38.907367
20
95.156368
11
38.838479
21
94.844643
0
LINE
8
annotation
62
1
39
211
10
38.838479
20
94.844643
11
38.814877
21
94.520202
0
LINE
8
annotation
62
1
39
211
10
38.814877
20
94.520202
11
38.814877
21
92.924817
0
LINE
8
annotation
62
1
39
211
10
38.814877
20
92.924817
11
38.814877
21
92.924817
0
LINE
8
annotation
62
1
39
211
10
38.814877
20
92.924817
11
38.832086
21
92.733072
0
LINE
8
annotation
62
1
39
211
10
38.832086
20
92.733072
11
38.881689
21
92.552574
0
LINE
8
annotation
62
1
39
211
10
38.881689
20
92.552574
11
38.960647
21
92.386344
0
LINE
8
annotation
62
1
39
211
10
38.960647
20
92.386344
11
39.065924
21
92.237402
0
LINE
8
annotation
62
1
39
211
10
39.065924
20
92.237402
11
39.194481
21
92.108769
0
LINE
8
annotation
62
1
39
211
10
39.194481
20
92.108769
11
39.343283
21
92.003463
0
LINE
8
annotation
62
1
39
211
10
39.343283
20
92.003463
11
39.509290
21
91.924506
0
LINE
8
annotation
62
1
39
211
10
39.509290
20
91.924506
11
39.689467
21
91.874916
0
LINE
8
annotation
62
1
39
211
10
39.689467
20
91.874916
11
39.880775
21
91.857716
0
LINE
8
annotation
62
1
39
211
10
39.880775
20
91.857716
11
39.880775
21
91.857716
0
LINE
8
annotation
62
1
39
211
10
39.880775
20
91.857716
11
40.072479
21
91.874916
0
LINE
8
annotation
62
1
39
211
10
40.072479
20
91.874916
11
40.252866
21
91.924506
0
LINE
8
annotation
62
1
39
211
10
40.252866
20
91.924506
11
40.418935
21
92.003463
0
LINE
8
annotation
62
1
39
211
10
40.418935
20
92.003463
11
40.567687
21
92.108769
0
LINE
8
annotation
62
1
39
211
10
40.567687
20
92.108769
11
40.696121
21
92.237402
0
LINE
8
annotation
62
1
39
211
10
40.696121
20
92.237402
11
40.801237
21
92.386344
0
LINE
8
annotation
62
1
39
211
10
40.801237
20
92.386344
11
40.880034
21
92.552574
0
LINE
8
annotation
62
1
39
211
10
40.880034
20
92.552574
11
40.929513
21
92.733072
0
LINE
8
annotation
62
1
39
211
10
40.929513
20
92.733072
11
40.946672
21
92.924817
0
LINE
8
annotation
62
1
39
211
10
40.946672
20
92.924817
11
40.946672
21
93.455809
0
LINE
8
annotation
62
1
39
211
10
40.946672
20
93.455809
11
40.946672
21
93.455809
0
LINE
8
annotation
62
1
39
211
10
40.946672
20
93.455809
11
40.929513
21
93.647462
0
LINE
8
annotation
62
1
39
211
10
40.929513
20
93.647462
11
40.880034
21
93.827710
0
LINE
8
annotation
62
1
39
211
10
40.880034
20
93.827710
11
40.801237
21
93.993580
0
LINE
8
annotation
62
1
39
211
10
40.801237
20
93.993580
11
40.696121
21
94.142094
0
LINE
8
annotation
62
1
39
211
10
40.696121
20
94.142094
11
40.567687
21
94.270278
0
LINE
8
annotation
62
1
39
211
10
40.567687
20
94.270278
11
40.418935
21
94.375156
0
LINE
8
annotation
62
1
39
211
10
40.418935
20
94.375156
11
40.252866
21
94.453753
0
LINE
8
annotation
62
1
39
211
10
40.252866
20
94.453753
11
40.072479
21
94.503094
0
LINE
8
annotation
62
1
39
211
10
40.072479
20
94.503094
11
39.880775
21
94.520202
0
LINE
8
annotation
62
1
39
211
10
39.880775
20
94.520202
11
38.814877
21
94.520202
0
LINE
8
annotation
62
1
39
211
10
38.681377
20
91.257716
11
41.081377
21
91.257716
0
LINE
8
annotation
62
1
39
211
10
44.738011
20
110.734469
11
45.805113
21
115.534469
0
LINE
8
annotation
62
1
39
211
10
45.805113
20
115.534469
11
43.670609
21
115.534469
0
LINE
8
annotation
62
1
39
211
10
45.805113
20
113.396955
11
44.738011
21
113.396955
0
LINE
8
annotation
62
1
39
211
10
48.715683
20
130.675465
11
48.715683
21
130.675465
0
LINE
8
annotation
62
1
39
211
10
48.715683
20
130.675465
11
48.732893
21
130.483812
0
LINE
8
annotation
62
1
39
211
10
48.732893
20
130.483812
11
48.782495
21
130.303564
0
LINE
8
annotation
62
1
39
211
10
48.782495
20
130.303564
11
48.861453
21
130.137695
0
LINE
8
annotation
62
1
39
211
10
48.861453
20
130.137695
11
48.966730
21
129.989180
0
LINE
8
annotation
62
1
39
211
10
48.966730
20
129.989180
11
49.095288
21
129.860996
0
LINE
8
annotation
62
1
39
211
10
49.095288
20
129.860996
11
49.244089
21
129.756118
0
LINE
8
annotation
62
1
39
211
10
49.244089
20
129.756118
11
49.410097
21
129.677521
0
LINE
8
annotation
62
1
39
211
10
49.410097
20
129.677521
11
49.590273
21
129.628181
0
LINE
8
annotation
62
1
39
211
10
49.590273
20
129.628181
11
49.781581
21
129.611073
0
LINE
8
annotation
62
1
39
211
10
49.781581
20
129.611073
11
49.781581
21
129.611073
0
LINE
8
annotation
62
1
39
211
10
49.781581
20
129.611073
11
49.972889
21
129.628181
0
LINE
8
annotation
62
1
39
211
10
49.972889
20
129.628181
11
50.153065
21
129.677521
0
LINE
8
annotation
62
1
39
211
10
50.153065
20
129.677521
11
50.319073
21
129.756118
0
LINE
8
annotation
62
1
39
211
10
50.319073
20
129.756118
11
50.467874
21
129.860996
0
LINE
8
annotation
62
1
39
211
10
50.467874
20
129.860996
11
50.596432
21
129.989180
0
LINE
8
annotation
62
1
39
211
10
50.596432
20
129.989180
11
50.701709
21
130.137695
0
LINE
8
annotation
62
1
39
211
10
50.701709
20
130.137695
11
50.780667
21
130.303564
0
LINE
8
annotation
62
1
39
211
10
50.780667
20
130.303564
11
50.830269
21
130.483812
0
LINE
8
annotation
62
1
39
211
10
50.830269
20
130.483812
11
50.847478
21
130.675465
0
LINE
8
annotation
62
1
39
211
10
50.847478
20
130.675465
11
50.847478
21
131.206457
0
LINE
8
annotation
62
1
39
211
10
50.847478
20
131.206457
11
50.847478
21
131.206457
0
LINE
8
annotation
62
1
39
211
10
50.847478
20
131.206457
11
50.830279
21
131.398203
0
LINE
8
annotation
62
1
39
211
10
50.830279
20
131.398203
11
50.780701
21
131.578700
0
LINE
8
annotation
62
1
39
211
10
50.780701
20
131.578700
11
50.701775
21
131.744930
0
LINE
8
annotation
62
1
39
211
10
50.701775
20
131.744930
11
50.596531
21
131.893872
0
LINE
8
annotation
62
1
39
211
10
50.596531
20
131.893872
11
50.467998
21
132.022506
0
LINE
8
annotation
62
1
39
211
10
50.467998
20
132.022506
11
50.319206
21
132.127811
0
LINE
8
annotation
62
1
39
211
10
50.319206
20
132.127811
11
50.153186
21
132.206769
0
LINE
8
annotation
62
1
39
211
10
50.153186
20
132.206769
11
49.972968
21
132.256358
0
LINE
8
annotation
62
1
39
211
10
49.972968
20
132.256358
11
49.781581
21
132.273559
0
LINE
8
annotation
62
1
39
211
10
49.781581
20
132.273559
11
49.781581
21
132.273559
0
LINE
8
annotation
62
1
39
211
10
49.781581
20
132.273559
11
49.590194
21
132.256348
0
LINE
8
annotation
62
1
39
211
10
49.590194
20
132.256348
11
49.409975
21
132.206734
0
LINE
8
annotation
62
1
39
211
10
49.409975
20
132.206734
11
49.243955
21
132.127744
0
LINE
8
annotation
62
1
39
211
10
49.243955
20
132.127744
11
49.095164
21
132.022406
0
LINE
8
annotation
62
1
39
211
10
49.095164
20
132.022406
11
48.966631
21
131.893748
0
LINE
8
annotation
62
1
39
211
10
48.966631
20
131.893748
11
48.861386
21
131.744796
0
LINE
8
annotation
62
1
39
211
10
48.861386
20
131.744796
11
48.782460
21
131.578579
0
LINE
8
annotation
62
1
39
211
10
48.782460
20
131.578579
11
48.732883
21
131.398123
0
LINE
8
annotation
62
1
39
211
10
48.732883
20
131.398123
11
48.715683
21
131.206457
0
LINE
8
annotation
62
1
39
211
10
48.715683
20
131.206457
11
48.715683
21
130.675465
0
LINE
8
annotation
62
1
39
211
10
50.847478
20
133.340961
11
50.847478
21
133.340961
0
LINE
8
annotation
62
1
39
211
10
50.847478
20
133.340961
11
50.830279
21
133.531821
0
LINE
8
annotation
62
1
39
211
10
50.830279
20
133.531821
11
50.780701
21
133.711648
0
LINE
8
annotation
62
1
39
211
10
50.780701
20
133.711648
11
50.701775
21
133.877394
0
LINE
8
annotation
62
1
39
211
10
50.701775
20
133.877394
11
50.596531
21
134.026007
0
LINE
8
annotation
62
1
39
211
10
50.596531
20
134.026007
11
50.467998
21
134.154439
0
LINE
8
annotation
62
1
39
211
10
50.467998
20
134.154439
11
50.319206
21
134.259639
0
LINE
8
annotation
62
1
39
211
10
50.319206
20
134.259639
11
50.153186
21
134.338558
0
LINE
8
annotation
62
1
39
211
10
50.153186
20
134.338558
11
49.972968
21
134.388146
0
LINE
8
annotation
62
1
39
211
10
49.972968
20
134.388146
11
49.781581
21
134.405353
0
LINE
8
annotation
62
1
39
211
10
49.781581
20
134.405353
11
49.781581
21
134.405353
0
LINE
8
annotation
62
1
39
211
10
49.781581
20
134.405353
11
49.590194
21
134.388146
0
LINE
8
annotation
62
1
39
211
10
49.590194
20
134.388146
11
49.409975
21
134.338558
0
LINE
8
annotation
62
1
39
211
10
49.409975
20
134.338558
11
49.243955
21
134.259639
0
LINE
8
annotation
62
1
39
211
10
49.243955
20
134.259639
11
49.095164
21
134.154439
0
LINE
8
annotation
62
1
39
211
10
49.095164
20
134.154439
11
48.966631
21
134.026007
0
LINE
8
annotation
62
1
39
211
10
48.966631
20
134.026007
11
48.861386
21
133.877394
0
LINE
8
annotation
62
1
39
211
10
48.861386
20
133.877394
11
48.782460
21
133.711648
0
LINE
8
annotation
62
1
39
211
10
48.782460
20
133.711648
11
48.732883
21
133.531821
0
LINE
8
annotation
62
1
39
211
10
48.732883
20
133.531821
11
48.715683
21
133.340961
0
LINE
8
annotation
62
1
39
211
10
48.715683
20
133.340961
11
48.715683
21
133.340961
0
LINE
8
annotation
62
1
39
211
10
48.715683
20
133.340961
11
48.732893
21
133.149205
0
LINE
8
annotation
62
1
39
211
10
48.732893
20
133.149205
11
48.782495
21
132.968680
0
LINE
8
annotation
62
1
39
211
10
48.782495
20
132.968680
11
48.861453
21
132.802410
0
LINE
8
annotation
62
1
39
211
10
48.861453
20
132.802410
11
48.966730
21
132.653421
0
LINE
8
annotation
62
1
39
211
10
48.966730
20
132.653421
11
49.095288
21
132.524737
0
LINE
8
annotation
62
1
39
211
10
49.095288
20
132.524737
11
49.244089
21
132.419384
0
LINE
8
annotation
62
1
39
211
10
49.244089
20
132.419384
11
49.410097
21
132.340387
0
LINE
8
annotation
62
1
39
211
10
49.410097
20
132.340387
11
49.590273
21
132.290770
0
LINE
8
annotation
62
1
39
211
10
49.590273
20
132.290770
11
49.781581
21
132.273559
0
LINE
8
annotation
62
1
39
211
10
49.781581
20
132.273559
11
49.781581
21
132.273559
0
LINE
8
annotation
62
1
39
211
10
49.781581
20
132.273559
11
49.972889
21
132.290770
0
LINE
8
annotation
62
1
39
211
10
49.972889
20
132.290770
11
50.153065
21
132.340387
0
LINE
8
annotation
62
1
39
211
10
50.153065
20
132.340387
11
50.319073
21
132.419384
0
LINE
8
annotation
62
1
39
211
10
50.319073
20
132.419384
11
50.467874
21
132.524737
0
LINE
8
annotation
62
1
39
211
10
50.467874
20
132.524737
11
50.596432
21
132.653421
0
LINE
8
annotation
62
1
39
211
10
50.596432
20
132.653421
11
50.701709
21
132.802410
0
LINE
8
annotation
62
1
39
211
10
50.701709
20
132.802410
11
50.780667
21
132.968680
0
LINE
8
annotation
62
1
39
211
10
50.780667
20
132.968680
11
50.830269
21
133.149205
0
LINE
8
annotation
62
1
39
211
10
50.830269
20
133.149205
11
50.847478
21
133.340961
0
LINE
8
annotation
62
1
39
211
10
54.734421
20
148.487977
11
54.734421
21
148.487977
0
LINE
8
annotation
62
1
39
211
10
54.734421
20
148.487977
11
55.039236
21
148.601566
0
LINE
8
annotation
62
1
39
211
10
55.039236
20
148.601566
11
55.319019
21
148.755102
0
LINE
8
annotation
62
1
39
211
10
55.319019
20
148.755102
11
55.570878
21
148.944674
0
LINE
8
annotation
62
1
39
211
10
55.570878
20
148.944674
11
55.791921
21
149.166369
0
LINE
8
annotation
62
1
39
211
10
55.791921
20
149.166369
11
55.979258
21
149.416275
0
LINE
8
annotation
62
1
39
211
10
55.979258
20
149.416275
11
56.129998
21
149.690480
0
LINE
8
annotation
62
1
39
211
10
56.129998
20
149.690480
11
56.241249
21
149.985073
0
LINE
8
annotation
62
1
39
211
10
56.241249
20
149.985073
11
56.310119
21
150.296140
0
LINE
8
annotation
62
1
39
211
10
56.310119
20
150.296140
11
56.333719
21
150.619772
0
LINE
8
annotation
62
1
39
211
10
56.333719
20
150.619772
11
56.333719
21
152.220575
0
LINE
8
annotation
62
1
39
211
10
56.333719
20
152.220575
11
56.333719
21
152.220575
0
LINE
8
annotation
62
1
39
211
10
56.333719
20
152.220575
11
56.316559
21
152.412330
0
LINE
8
annotation
62
1
39
211
10
56.316559
20
152.412330
11
56.267081
21
152.592856
0
LINE
8
annotation
62
1
39
211
10
56.267081
20
152.592856
11
56.188283
21
152.759125
0
LINE
8
annotation
62
1
39
211
10
56.188283
20
152.759125
11
56.083168
21
152.908115
0
LINE
8
annotation
62
1
39
211
10
56.083168
20
152.908115
11
55.954734
21
153.036798
0
LINE
8
annotation
62
1
39
211
10
55.954734
20
153.036798
11
55.805982
21
153.142152
0
LINE
8
annotation
62
1
39
211
10
55.805982
20
153.142152
11
55.639913
21
153.221149
0
LINE
8
annotation
62
1
39
211
10
55.639913
20
153.221149
11
55.459526
21
153.270766
0
LINE
8
annotation
62
1
39
211
10
55.459526
20
153.270766
11
55.267821
21
153.287977
0
LINE
8
annotation
62
1
39
211
10
55.267821
20
153.287977
11
55.267821
21
153.287977
0
LINE
8
annotation
62
1
39
211
10
55.267821
20
153.287977
11
55.076514
21
153.270766
0
LINE
8
annotation
62
1
39
211
10
55.076514
20
153.270766
11
54.896337
21
153.221149
0
LINE
8
annotation
62
1
39
211
10
54.896337
20
153.221149
11
54.730330
21
153.142152
0
LINE
8
annotation
62
1
39
211
10
54.730330
20
153.142152
11
54.581528
21
153.036798
0
LINE
8
annotation
62
1
39
211
10
54.581528
20
153.036798
11
54.452970
21
152.908115
0
LINE
8
annotation
62
1
39
211
10
54.452970
20
152.908115
11
54.347694
21
152.759125
0
LINE
8
annotation
62
1
39
211
10
54.347694
20
152.759125
11
54.268735
21
152.592856
0
LINE
8
annotation
62
1
39
211
10
54.268735
20
152.592856
11
54.219133
21
152.412330
0
LINE
8
annotation
62
1
39
211
10
54.219133
20
152.412330
11
54.201924
21
152.220575
0
LINE
8
annotation
62
1
39
211
10
54.201924
20
152.220575
11
54.201924
21
151.686873
0
LINE
8
annotation
62
1
39
211
10
54.201924
20
151.686873
11
54.201924
21
151.686873
0
LINE
8
annotation
62
1
39
211
10
54.201924
20
151.686873
11
54.219133
21
151.495128
0
LINE
8
annotation
62
1
39
211
10
54.219133
20
151.495128
11
54.268735
21
151.314630
0
LINE
8
annotation
62
1
39
211
10
54.268735
20
151.314630
11
54.347694
21
151.148400
0
LINE
8
annotation
62
1
39
211
10
54.347694
20
151.148400
11
54.452970
21
150.999459
0
LINE
8
annotation
62
1
39
211
10
54.452970
20
150.999459
11
54.581528
21
150.870825
0
LINE
8
annotation
62
1
39
211
10
54.581528
20
150.870825
11
54.730330
21
150.765519
0
LINE
8
annotation
62
1
39
211
10
54.730330
20
150.765519
11
54.896337
21
150.686562
0
LINE
8
annotation
62
1
39
211
10
54.896337
20
150.686562
11
55.076514
21
150.636973
0
LINE
8
annotation
62
1
39
211
10
55.076514
20
150.636973
11
55.267821
21
150.619772
0
LINE
8
annotation
62
1
39
211
10
55.267821
20
150.619772
11
56.333719
21
150.619772
0
LINE
8
annotation
62
1
39
211
10
54.068724
20
147.887977
11
56.468724
21
147.887977
0
LINE
8
annotation
62
1
39
211
10
60.118564
20
167.455871
11
60.118564
21
172.073591
0
LINE
8
annotation
62
1
39
211
10
60.118564
20
172.073591
11
59.091986
21
171.046723
0
LINE
8
annotation
62
1
39
211
10
62.591793
20
167.516780
11
62.591793
21
167.516780
0
LINE
8
annotation
62
1
39
211
10
62.591793
20
167.516780
11
62.699114
21
167.476661
0
LINE
8
annotation
62
1
39
211
10
62.699114
20
167.476661
11
62.809182
21
167.456729
0
LINE
8
annotation
62
1
39
211
10
62.809182
20
167.456729
11
62.919506
21
167.456171
0
LINE
8
annotation
62
1
39
211
10
62.919506
20
167.456171
11
63.027600
21
167.474176
0
LINE
8
annotation
62
1
39
211
10
63.027600
20
167.474176
11
63.130975
21
167.509930
0
LINE
8
annotation
62
1
39
211
10
63.130975
20
167.509930
11
63.227142
21
167.562620
0
LINE
8
annotation
62
1
39
211
10
63.227142
20
167.562620
11
63.313613
21
167.631435
0
LINE
8
annotation
62
1
39
211
10
63.313613
20
167.631435
11
63.387901
21
167.715560
0
LINE
8
annotation
62
1
39
211
10
63.387901
20
167.715560
11
63.447516
21
167.814184
0
LINE
8
annotation
62
1
39
211
10
63.447516
20
167.814184
11
63.447516
21
167.814184
0
LINE
8
annotation
62
1
39
211
10
63.447516
20
167.814184
11
63.625385
21
168.230531
0
LINE
8
annotation
62
1
39
211
10
63.625385
20
168.230531
11
63.758788
21
168.658929
0
LINE
8
annotation
62
1
39
211
10
63.758788
20
168.658929
11
63.847722
21
169.095961
0
LINE
8
annotation
62
1
39
211
10
63.847722
20
169.095961
11
63.892190
21
169.538214
0
LINE
8
annotation
62
1
39
211
10
63.892190
20
169.538214
11
63.892190
21
169.982271
0
LINE
8
annotation
62
1
39
211
10
63.892190
20
169.982271
11
63.847722
21
170.424716
0
LINE
8
annotation
62
1
39
211
10
63.847722
20
170.424716
11
63.758788
21
170.862135
0
LINE
8
annotation
62
1
39
211
10
63.758788
20
170.862135
11
63.625385
21
171.291112
0
LINE
8
annotation
62
1
39
211
10
63.625385
20
171.291112
11
63.447516
21
171.708231
0
LINE
8
annotation
62
1
39
211
10
63.447516
20
171.708231
11
63.447516
21
171.708231
0
LINE
8
annotation
62
1
39
211
10
63.447516
20
171.708231
11
63.424896
21
171.750327
0
LINE
8
annotation
62
1
39
211
10
63.424896
20
171.750327
11
63.399252
21
171.790574
0
LINE
8
annotation
62
1
39
211
10
63.399252
20
171.790574
11
63.370776
21
171.828774
0
LINE
8
annotation
62
1
39
211
10
63.370776
20
171.828774
11
63.339662
21
171.864728
0
LINE
8
annotation
62
1
39
211
10
63.339662
20
171.864728
11
63.306102
21
171.898239
0
LINE
8
annotation
62
1
39
211
10
63.306102
20
171.898239
11
63.270290
21
171.929109
0
LINE
8
annotation
62
1
39
211
10
63.270290
20
171.929109
11
63.232419
21
171.957141
0
LINE
8
annotation
62
1
39
211
10
63.232419
20
171.957141
11
63.192681
21
171.982136
0
LINE
8
annotation
62
1
39
211
10
63.192681
20
171.982136
11
63.151271
21
172.003897
0
LINE
8
annotation
62
1
39
211
10
63.151271
20
172.003897
11
63.151271
21
172.003897
0
LINE
8
annotation
62
1
39
211
10
63.151271
20
172.003897
11
63.043097
21
172.044886
0
LINE
8
annotation
62
1
39
211
10
63.043097
20
172.044886
11
62.932385
21
172.065500
0
LINE
8
annotation
62
1
39
211
10
62.932385
20
172.065500
11
62.821594
21
172.066555
0
LINE
8
annotation
62
1
39
211
10
62.821594
20
172.066555
11
62.713185
21
172.048869
0
LINE
8
annotation
62
1
39
211
10
62.713185
20
172.048869
11
62.609616
21
172.013260
0
LINE
8
annotation
62
1
39
211
10
62.609616
20
172.013260
11
62.513347
21
171.960545
0
LINE
8
annotation
62
1
39
211
10
62.513347
20
171.960545
11
62.426839
21
171.891542
0
LINE
8
annotation
62
1
39
211
10
62.426839
20
171.891542
11
62.352550
21
171.807069
0
LINE
8
annotation
62
1
39
211
10
62.352550
20
171.807069
11
62.292941
21
171.707942
0
LINE
8
annotation
62
1
39
211
10
62.292941
20
171.707942
11
62.292941
21
171.707942
0
LINE
8
annotation
62
1
39
211
10
62.292941
20
171.707942
11
62.115930
21
171.291680
0
LINE
8
annotation
62
1
39
211
10
62.115930
20
171.291680
11
61.983171
21
170.863347
0
LINE
8
annotation
62
1
39
211
10
61.983171
20
170.863347
11
61.894666
21
170.426357
0
LINE
8
annotation
62
1
39
211
10
61.894666
20
170.426357
11
61.850413
21
169.984126
0
LINE
8
annotation
62
1
39
211
10
61.850413
20
169.984126
11
61.850413
21
169.540069
0
LINE
8
annotation
62
1
39
211
10
61.850413
20
169.540069
11
61.894666
21
169.097602
0
LINE
8
annotation
62
1
39
211
10
61.894666
20
169.097602
11
61.983171
21
168.660141
0
LINE
8
annotation
62
1
39
211
10
61.983171
20
168.660141
11
62.115930
21
168.231099
0
LINE
8
annotation
62
1
39
211
10
62.115930
20
168.231099
11
62.292941
21
167.813894
0
LINE
8
annotation
62
1
39
211
10
62.292941
20
167.813894
11
62.292941
21
167.813894
0
LINE
8
annotation
62
1
39
211
10
62.292941
20
167.813894
11
62.315479
21
167.771882
0
LINE
8
annotation
62
1
39
211
10
62.315479
20
167.771882
11
62.340934
21
167.731836
0
LINE
8
annotation
62
1
39
211
10
62.340934
20
167.731836
11
62.369199
21
167.693877
0
LINE
8
annotation
62
1
39
211
10
62.369199
20
167.693877
11
62.400166
21
167.658129
0
LINE
8
annotation
62
1
39
211
10
62.400166
20
167.658129
11
62.433730
21
167.624711
0
LINE
8
annotation
62
1
39
211
10
62.433730
20
167.624711
11
62.469781
21
167.593745
0
LINE
8
annotation
62
1
39
211
10
62.469781
20
167.593745
11
62.508214
21
167.565354
0
LINE
8
annotation
62
1
39
211
10
62.508214
20
167.565354
11
62.548920
21
167.539659
0
LINE
8
annotation
62
1
39
211
10
62.548920
20
167.539659
11
62.591793
21
167.516780
0
LINE
8
annotation
62
1
39
211
10
67.219684
20
186.241485
11
67.219684
21
191.041485
0
LINE
8
annotation
62
1
39
211
10
67.219684
20
191.041485
11
66.152582
21
189.974082
0
LINE
8
annotation
62
1
39
211
10
70.086785
20
186.241485
11
70.086785
21
191.041485
0
LINE
8
annotation
62
1
39
211
10
70.086785
20
191.041485
11
69.019684
21
189.974082
0
LINE
8
annotation
62
1
39
211
10
73.344698
20
205.264106
11
73.344698
21
209.772371
0
LINE
8
annotation
62
1
39
211
10
73.344698
20
209.772371
11
72.342453
21
208.769843
0
LINE
8
annotation
62
1
39
211
10
77.037724
20
205.264069
11
75.035496
21
205.264069
0
LINE
8
annotation
62
1
39
211
10
75.035496
20
205.264069
11
76.885621
21
208.242532
0
LINE
8
annotation
62
1
39
211
10
76.885621
20
208.242532
11
76.885621
21
208.242532
0
LINE
8
annotation
62
1
39
211
10
76.885621
20
208.242532
11
76.887832
21
208.245269
0
LINE
8
annotation
62
1
39
211
10
76.887832
20
208.245269
11
76.889953
21
208.248029
0
LINE
8
annotation
62
1
39
211
10
76.889953
20
208.248029
11
76.891998
21
208.250836
0
LINE
8
annotation
62
1
39
211
10
76.891998
20
208.250836
11
76.893979
21
208.253712
0
LINE
8
annotation
62
1
39
211
10
76.893979
20
208.253712
11
76.895911
21
208.256682
0
LINE
8
annotation
62
1
39
211
10
76.895911
20
208.256682
11
76.897809
21
208.259768
0
LINE
8
annotation
62
1
39
211
10
76.897809
20
208.259768
11
76.899686
21
208.262993
0
LINE
8
annotation
62
1
39
211
10
76.899686
20
208.262993
11
76.901555
21
208.266382
0
LINE
8
annotation
62
1
39
211
10
76.901555
20
208.266382
11
76.903432
21
208.269956
0
LINE
8
annotation
62
1
39
211
10
76.903432
20
208.269956
11
76.903432
21
208.269956
0
LINE
8
annotation
62
1
39
211
10
76.903432
20
208.269956
11
76.979823
21
208.433974
0
LINE
8
annotation
62
1
39
211
10
76.979823
20
208.433974
11
77.024450
21
208.603994
0
LINE
8
annotation
62
1
39
211
10
77.024450
20
208.603994
11
77.038405
21
208.776173
0
LINE
8
annotation
62
1
39
211
10
77.038405
20
208.776173
11
77.022783
21
208.946669
0
LINE
8
annotation
62
1
39
211
10
77.022783
20
208.946669
11
76.978677
21
209.111642
0
LINE
8
annotation
62
1
39
211
10
76.978677
20
209.111642
11
76.907181
21
209.267248
0
LINE
8
annotation
62
1
39
211
10
76.907181
20
209.267248
11
76.809388
21
209.409647
0
LINE
8
annotation
62
1
39
211
10
76.809388
20
209.409647
11
76.686393
21
209.534997
0
LINE
8
annotation
62
1
39
211
10
76.686393
20
209.534997
11
76.539288
21
209.639455
0
LINE
8
annotation
62
1
39
211
10
76.539288
20
209.639455
11
76.539288
21
209.639455
0
LINE
8
annotation
62
1
39
211
10
76.539288
20
209.639455
11
76.374813
21
209.714761
0
LINE
8
annotation
62
1
39
211
10
76.374813
20
209.714761
11
76.204533
21
209.758700
0
LINE
8
annotation
62
1
39
211
10
76.204533
20
209.758700
11
76.032254
21
209.772261
0
LINE
8
annotation
62
1
39
211
10
76.032254
20
209.772261
11
75.861783
21
209.756433
0
LINE
8
annotation
62
1
39
211
10
75.861783
20
209.756433
11
75.696927
21
209.712204
0
LINE
8
annotation
62
1
39
211
10
75.696927
20
209.712204
11
75.541493
21
209.640565
0
LINE
8
annotation
62
1
39
211
10
75.541493
20
209.640565
11
75.399287
21
209.542504
0
LINE
8
annotation
62
1
39
211
10
75.399287
20
209.542504
11
75.274117
21
209.419009
0
LINE
8
annotation
62
1
39
211
10
75.274117
20
209.419009
11
75.169789
21
209.271070
0
LINE
8
annotation
62
1
39
211
10
75.169789
20
209.271070
11
75.038323
21
209.018883
0
LINE
8
annotation
62
1
39
211
10
80.045455
20
224.090483
11
80.045455
21
228.699501
0
LINE
8
annotation
62
1
39
211
10
80.045455
20
228.699501
11
79.020812
21
227.674568
0
LINE
8
annotation
62
1
39
211
10
81.773692
20
224.090628
11
82.797180
21
224.090628
0
LINE
8
annotation
62
1
39
211
10
82.797180
20
224.090628
11
82.797180
21
224.090628
0
LINE
8
annotation
62
1
39
211
10
82.797180
20
224.090628
11
82.981256
21
224.107141
0
LINE
8
annotation
62
1
39
211
10
82.981256
20
224.107141
11
83.154466
21
224.154732
0
LINE
8
annotation
62
1
39
211
10
83.154466
20
224.154732
11
83.313928
21
224.230480
0
LINE
8
annotation
62
1
39
211
10
83.313928
20
224.230480
11
83.456761
21
224.331464
0
LINE
8
annotation
62
1
39
211
10
83.456761
20
224.331464
11
83.580085
21
224.454762
0
LINE
8
annotation
62
1
39
211
10
83.580085
20
224.454762
11
83.681018
21
224.597453
0
LINE
8
annotation
62
1
39
211
10
83.681018
20
224.597453
11
83.756680
21
224.756615
0
LINE
8
annotation
62
1
39
211
10
83.756680
20
224.756615
11
83.804190
21
224.929328
0
LINE
8
annotation
62
1
39
211
10
83.804190
20
224.929328
11
83.820667
21
225.112670
0
LINE
8
annotation
62
1
39
211
10
83.820667
20
225.112670
11
83.820667
21
225.625137
0
LINE
8
annotation
62
1
39
211
10
83.820667
20
225.625137
11
83.820667
21
225.625137
0
LINE
8
annotation
62
1
39
211
10
83.820667
20
225.625137
11
83.804190
21
225.808402
0
LINE
8
annotation
62
1
39
211
10
83.804190
20
225.808402
11
83.756680
21
225.981075
0
LINE
8
annotation
62
1
39
211
10
83.756680
20
225.981075
11
83.681018
21
226.140226
0
LINE
8
annotation
62
1
39
211
10
83.681018
20
226.140226
11
83.580085
21
226.282926
0
LINE
8
annotation
62
1
39
211
10
83.580085
20
226.282926
11
83.456761
21
226.406248
0
LINE
8
annotation
62
1
39
211
10
83.456761
20
226.406248
11
83.313928
21
226.507262
0
LINE
8
annotation
62
1
39
211
10
83.313928
20
226.507262
11
83.154466
21
226.583041
0
LINE
8
annotation
62
1
39
211
10
83.154466
20
226.583041
11
82.981256
21
226.630656
0
LINE
8
annotation
62
1
39
211
10
82.981256
20
226.630656
11
82.797180
21
226.647179
0
LINE
8
annotation
62
1
39
211
10
82.797180
20
226.647179
11
82.284713
21
226.647179
0
LINE
8
annotation
62
1
39
211
10
82.284713
20
226.647179
11
82.797180
21
226.647179
0
LINE
8
annotation
62
1
39
211
10
82.797180
20
226.647179
11
82.797180
21
226.647179
0
LINE
8
annotation
62
1
39
211
10
82.797180
20
226.647179
11
82.981256
21
226.663705
0
LINE
8
annotation
62
1
39
211
10
82.981256
20
226.663705
11
83.154466
21
226.711348
0
LINE
8
annotation
62
1
39
211
10
83.154466
20
226.711348
11
83.313928
21
226.787202
0
LINE
8
annotation
62
1
39
211
10
83.313928
20
226.787202
11
83.456761
21
226.888363
0
LINE
8
annotation
62
1
39
211
10
83.456761
20
226.888363
11
83.580085
21
227.011927
0
LINE
8
annotation
62
1
39
211
10
83.580085
20
227.011927
11
83.681018
21
227.154988
0
LINE
8
annotation
62
1
39
211
10
83.681018
20
227.154988
11
83.756680
21
227.314643
0
LINE
8
annotation
62
1
39
211
10
83.756680
20
227.314643
11
83.804190
21
227.487985
0
LINE
8
annotation
62
1
39
211
10
83.804190
20
227.487985
11
83.820667
21
227.672111
0
LINE
8
annotation
62
1
39
211
10
83.820667
20
227.672111
11
83.820667
21
227.672111
0
LINE
8
annotation
62
1
39
211
10
83.820667
20
227.672111
11
83.804190
21
227.855377
0
LINE
8
annotation
62
1
39
211
10
83.804190
20
227.855377
11
83.756680
21
228.028050
0
LINE
8
annotation
62
1
39
211
10
83.756680
20
228.028050
11
83.681018
21
228.187200
0
LINE
8
annotation
62
1
39
211
10
83.681018
20
228.187200
11
83.580085
21
228.329901
0
LINE
8
annotation
62
1
39
211
10
83.580085
20
228.329901
11
83.456761
21
228.453223
0
LINE
8
annotation
62
1
39
211
10
83.456761
20
228.453223
11
83.313928
21
228.554237
0
LINE
8
annotation
62
1
39
211
10
83.313928
20
228.554237
11
83.154466
21
228.630016
0
LINE
8
annotation
62
1
39
211
10
83.154466
20
228.630016
11
82.981256
21
228.677631
0
LINE
8
annotation
62
1
39
211
10
82.981256
20
228.677631
11
82.797180
21
228.694154
0
LINE
8
annotation
62
1
39
211
10
82.797180
20
228.694154
11
81.773692
21
228.694154
0
LINE
8
annotation
62
1
39
211
10
86.549872
20
243.189428
11
86.549872
21
247.354064
0
LINE
8
annotation
62
1
39
211
10
86.549872
20
247.354064
11
85.624020
21
246.427951
0
LINE
8
annotation
62
1
39
211
10
90.423889
20
244.115280
11
88.111480
21
244.115280
0
LINE
8
annotation
62
1
39
211
10
88.111480
20
244.115280
11
89.034981
21
247.354064
0
LINE
8
annotation
62
1
39
211
10
89.730741
20
243.189428
11
89.730741
21
245.039042
0
LINE
8
annotation
62
1
39
211
10
93.371203
20
261.843991
11
93.371203
21
266.453008
0
LINE
8
annotation
62
1
39
211
10
93.371203
20
266.453008
11
92.346560
21
265.428076
0
LINE
8
annotation
62
1
39
211
10
95.099440
20
261.843991
11
96.122928
21
261.843991
0
LINE
8
annotation
62
1
39
211
10
96.122928
20
261.843991
11
96.122928
21
261.843991
0
LINE
8
annotation
62
1
39
211
10
96.122928
20
261.843991
11
96.306624
21
261.860508
0
LINE
8
annotation
62
1
39
211
10
96.306624
20
261.860508
11
96.479631
21
261.908124
0
LINE
8
annotation
62
1
39
211
10
96.479631
20
261.908124
11
96.639034
21
261.983939
0
LINE
8
annotation
62
1
39
211
10
96.639034
20
261.983939
11
96.781915
21
262.085055
0
LINE
8
annotation
62
1
39
211
10
96.781915
20
262.085055
11
96.905357
21
262.208571
0
LINE
8
annotation
62
1
39
211
10
96.905357
20
262.208571
11
97.006445
21
262.351587
0
LINE
8
annotation
62
1
39
211
10
97.006445
20
262.351587
11
97.082262
21
262.511202
0
LINE
8
annotation
62
1
39
211
10
97.082262
20
262.511202
11
97.129891
21
262.684518
0
LINE
8
annotation
62
1
39
211
10
97.129891
20
262.684518
11
97.146415
21
262.868635
0
LINE
8
annotation
62
1
39
211
10
97.146415
20
262.868635
11
97.146415
21
263.378500
0
LINE
8
annotation
62
1
39
211
10
97.146415
20
263.378500
11
97.146415
21
263.378500
0
LINE
8
annotation
62
1
39
211
10
97.146415
20
263.378500
11
97.129900
21
263.562527
0
LINE
8
annotation
62
1
39
211
10
97.129900
20
263.562527
11
97.082295
21
263.735604
0
LINE
8
annotation
62
1
39
211
10
97.082295
20
263.735604
11
97.006509
21
263.894873
0
LINE
8
annotation
62
1
39
211
10
97.006509
20
263.894873
11
96.905452
21
264.037479
0
LINE
8
annotation
62
1
39
211
10
96.905452
20
264.037479
11
96.782034
21
264.160562
0
LINE
8
annotation
62
1
39
211
10
96.782034
20
264.160562
11
96.639162
21
264.261268
0
LINE
8
annotation
62
1
39
211
10
96.639162
20
264.261268
11
96.479748
21
264.336738
0
LINE
8
annotation
62
1
39
211
10
96.479748
20
264.336738
11
96.306700
21
264.384115
0
LINE
8
annotation
62
1
39
211
10
96.306700
20
264.384115
11
96.122928
21
264.400542
0
LINE
8
annotation
62
1
39
211
10
96.122928
20
264.400542
11
95.099440
21
264.400542
0
LINE
8
annotation
62
1
39
211
10
95.099440
20
264.400542
11
95.099440
21
266.453008
0
LINE
8
annotation
62
1
39
211
10
95.099440
20
266.453008
11
97.146415
21
266.453008
0
LINE
8
annotation
62
1
39
211
10
100.166426
20
280.720745
11
100.166426
21
285.329762
0
LINE
8
annotation
62
1
39
211
10
100.166426
20
285.329762
11
99.141782
21
284.304830
0
LINE
8
annotation
62
1
39
211
10
103.432062
20
285.329762
11
103.432062
21
285.329762
0
LINE
8
annotation
62
1
39
211
10
103.432062
20
285.329762
11
103.138858
21
285.219829
0
LINE
8
annotation
62
1
39
211
10
103.138858
20
285.219829
11
102.869806
21
285.071706
0
LINE
8
annotation
62
1
39
211
10
102.869806
20
285.071706
11
102.627666
21
284.889106
0
LINE
8
annotation
62
1
39
211
10
102.627666
20
284.889106
11
102.415201
21
284.675739
0
LINE
8
annotation
62
1
39
211
10
102.415201
20
284.675739
11
102.235172
21
284.435317
0
LINE
8
annotation
62
1
39
211
10
102.235172
20
284.435317
11
102.090342
21
284.171550
0
LINE
8
annotation
62
1
39
211
10
102.090342
20
284.171550
11
101.983473
21
283.888151
0
LINE
8
annotation
62
1
39
211
10
101.983473
20
283.888151
11
101.917326
21
283.588829
0
LINE
8
annotation
62
1
39
211
10
101.917326
20
283.588829
11
101.894663
21
283.277296
0
LINE
8
annotation
62
1
39
211
10
101.894663
20
283.277296
11
101.894663
21
281.745388
0
LINE
8
annotation
62
1
39
211
10
101.894663
20
281.745388
11
101.894663
21
281.745388
0
LINE
8
annotation
62
1
39
211
10
101.894663
20
281.745388
11
101.911187
21
281.561272
0
LINE
8
annotation
62
1
39
211
10
101.911187
20
281.561272
11
101.958816
21
281.387956
0
LINE
8
annotation
62
1
39
211
10
101.958816
20
281.387956
11
102.034633
21
281.228340
0
LINE
8
annotation
62
1
39
211
10
102.034633
20
281.228340
11
102.135721
21
281.085325
0
LINE
8
annotation
62
1
39
211
10
102.135721
20
281.085325
11
102.259163
21
280.961809
0
LINE
8
annotation
62
1
39
211
10
102.259163
20
280.961809
11
102.402044
21
280.860693
0
LINE
8
annotation
62
1
39
211
10
102.402044
20
280.860693
11
102.561447
21
280.784877
0
LINE
8
annotation
62
1
39
211
10
102.561447
20
280.784877
11
102.734454
21
280.737261
0
LINE
8
annotation
62
1
39
211
10
102.734454
20
280.737261
11
102.918150
21
280.720745
0
LINE
8
annotation
62
1
39
211
10
102.918150
20
280.720745
11
102.918150
21
280.720745
0
LINE
8
annotation
62
1
39
211
10
102.918150
20
280.720745
11
103.102227
21
280.737261
0
LINE
8
annotation
62
1
39
211
10
103.102227
20
280.737261
11
103.275437
21
280.784877
0
LINE
8
annotation
62
1
39
211
10
103.275437
20
280.784877
11
103.434899
21
280.860693
0
LINE
8
annotation
62
1
39
211
10
103.434899
20
280.860693
11
103.577732
21
280.961809
0
LINE
8
annotation
62
1
39
211
10
103.577732
20
280.961809
11
103.701056
21
281.085325
0
LINE
8
annotation
62
1
39
211
10
103.701056
20
281.085325
11
103.801989
21
281.228340
0
LINE
8
annotation
62
1
39
211
10
103.801989
20
281.228340
11
103.877651
21
281.387956
0
LINE
8
annotation
62
1
39
211
10
103.877651
20
281.387956
11
103.925161
21
281.561272
0
LINE
8
annotation
62
1
39
211
10
103.925161
20
281.561272
11
103.941638
21
281.745388
0
LINE
8
annotation
62
1
39
211
10
103.941638
20
281.745388
11
103.941638
21
282.255253
0
LINE
8
annotation
62
1
39
211
10
103.941638
20
282.255253
11
103.941638
21
282.255253
0
LINE
8
annotation
62
1
39
211
10
103.941638
20
282.255253
11
103.925161
21
282.439281
0
LINE
8
annotation
62
1
39
211
10
103.925161
20
282.439281
11
103.877651
21
282.612357
0
LINE
8
annotation
62
1
39
211
10
103.877651
20
282.612357
11
103.801989
21
282.771627
0
LINE
8
annotation
62
1
39
211
10
103.801989
20
282.771627
11
103.701056
21
282.914232
0
LINE
8
annotation
62
1
39
211
10
103.701056
20
282.914232
11
103.577732
21
283.037316
0
LINE
8
annotation
62
1
39
211
10
103.577732
20
283.037316
11
103.434899
21
283.138022
0
LINE
8
annotation
62
1
39
211
10
103.434899
20
283.138022
11
103.275437
21
283.213491
0
LINE
8
annotation
62
1
39
211
10
103.275437
20
283.213491
11
103.102227
21
283.260868
0
LINE
8
annotation
62
1
39
211
10
103.102227
20
283.260868
11
102.918150
21
283.277296
0
LINE
8
annotation
62
1
39
211
10
102.918150
20
283.277296
11
101.894663
21
283.277296
0
LINE
8
annotation
62
1
39
211
10
101.766474
20
280.144618
11
104.070983
21
280.144618
0
LINE
8
annotation
62
1
39
211
10
106.867672
20
299.598747
11
106.867672
21
304.205268
0
LINE
8
annotation
62
1
39
211
10
106.867672
20
304.205268
11
105.843583
21
303.180890
0
LINE
8
annotation
62
1
39
211
10
109.619206
20
299.598747
11
110.643294
21
304.205268
0
LINE
8
annotation
62
1
39
211
10
110.643294
20
304.205268
11
108.594828
21
304.205268
0
LINE
8
annotation
62
1
39
211
10
110.643294
20
302.153913
11
109.619206
21
302.153913
0
LINE
8
annotation
62
1
39
211
10
112.523439
20
318.474252
11
112.523439
21
323.083270
0
LINE
8
annotation
62
1
39
211
10
112.523439
20
323.083270
11
111.498796
21
322.058337
0
LINE
8
annotation
62
1
39
211
10
114.251676
20
319.496150
11
114.251676
21
319.496150
0
LINE
8
annotation
62
1
39
211
10
114.251676
20
319.496150
11
114.268201
21
319.312123
0
LINE
8
annotation
62
1
39
211
10
114.268201
20
319.312123
11
114.315830
21
319.139046
0
LINE
8
annotation
62
1
39
211
10
114.315830
20
319.139046
11
114.391646
21
318.979776
0
LINE
8
annotation
62
1
39
211
10
114.391646
20
318.979776
11
114.492734
21
318.837171
0
LINE
8
annotation
62
1
39
211
10
114.492734
20
318.837171
11
114.616177
21
318.714087
0
LINE
8
annotation
62
1
39
211
10
114.616177
20
318.714087
11
114.759058
21
318.613382
0
LINE
8
annotation
62
1
39
211
10
114.759058
20
318.613382
11
114.918460
21
318.537912
0
LINE
8
annotation
62
1
39
211
10
114.918460
20
318.537912
11
115.091468
21
318.490535
0
LINE
8
annotation
62
1
39
211
10
115.091468
20
318.490535
11
115.275164
21
318.474108
0
LINE
8
annotation
62
1
39
211
10
115.275164
20
318.474108
11
115.275164
21
318.474108
0
LINE
8
annotation
62
1
39
211
10
115.275164
20
318.474108
11
115.458860
21
318.490535
0
LINE
8
annotation
62
1
39
211
10
115.458860
20
318.490535
11
115.631867
21
318.537912
0
LINE
8
annotation
62
1
39
211
10
115.631867
20
318.537912
11
115.791270
21
318.613382
0
LINE
8
annotation
62
1
39
211
10
115.791270
20
318.613382
11
115.934151
21
318.714087
0
LINE
8
annotation
62
1
39
211
10
115.934151
20
318.714087
11
116.057593
21
318.837171
0
LINE
8
annotation
62
1
39
211
10
116.057593
20
318.837171
11
116.158681
21
318.979776
0
LINE
8
annotation
62
1
39
211
10
116.158681
20
318.979776
11
116.234498
21
319.139046
0
LINE
8
annotation
62
1
39
211
10
116.234498
20
319.139046
11
116.282127
21
319.312123
0
LINE
8
annotation
62
1
39
211
10
116.282127
20
319.312123
11
116.298651
21
319.496150
0
LINE
8
annotation
62
1
39
211
10
116.298651
20
319.496150
11
116.298651
21
320.006015
0
LINE
8
annotation
62
1
39
211
10
116.298651
20
320.006015
11
116.298651
21
320.006015
0
LINE
8
annotation
62
1
39
211
10
116.298651
20
320.006015
11
116.282136
21
320.190131
0
LINE
8
annotation
62
1
39
211
10
116.282136
20
320.190131
11
116.234531
21
320.363447
0
LINE
8
annotation
62
1
39
211
10
116.234531
20
320.363447
11
116.158746
21
320.523063
0
LINE
8
annotation
62
1
39
211
10
116.158746
20
320.523063
11
116.057689
21
320.666079
0
LINE
8
annotation
62
1
39
211
10
116.057689
20
320.666079
11
115.934270
21
320.789595
0
LINE
8
annotation
62
1
39
211
10
115.934270
20
320.789595
11
115.791398
21
320.890710
0
LINE
8
annotation
62
1
39
211
10
115.791398
20
320.890710
11
115.631984
21
320.966526
0
LINE
8
annotation
62
1
39
211
10
115.631984
20
320.966526
11
115.458936
21
321.014142
0
LINE
8
annotation
62
1
39
211
10
115.458936
20
321.014142
11
115.275164
21
321.030659
0
LINE
8
annotation
62
1
39
211
10
115.275164
20
321.030659
11
115.275164
21
321.030659
0
LINE
8
annotation
62
1
39
211
10
115.275164
20
321.030659
11
115.091392
21
321.014133
0
LINE
8
annotation
62
1
39
211
10
115.091392
20
321.014133
11
114.918344
21
320.966493
0
LINE
8
annotation
62
1
39
211
10
114.918344
20
320.966493
11
114.758929
21
320.890646
0
LINE
8
annotation
62
1
39
211
10
114.758929
20
320.890646
11
114.616058
21
320.789499
0
LINE
8
annotation
62
1
39
211
10
114.616058
20
320.789499
11
114.492639
21
320.665960
0
LINE
8
annotation
62
1
39
211
10
114.492639
20
320.665960
11
114.391582
21
320.522935
0
LINE
8
annotation
62
1
39
211
10
114.391582
20
320.522935
11
114.315796
21
320.363331
0
LINE
8
annotation
62
1
39
211
10
114.315796
20
320.363331
11
114.268191
21
320.190055
0
LINE
8
annotation
62
1
39
211
10
114.268191
20
320.190055
11
114.251676
21
320.006015
0
LINE
8
annotation
62
1
39
211
10
114.251676
20
320.006015
11
114.251676
21
319.496150
0
LINE
8
annotation
62
1
39
211
10
116.298651
20
322.055591
11
116.298651
21
322.055591
0
LINE
8
annotation
62
1
39
211
10
116.298651
20
322.055591
11
116.282136
21
322.238857
0
LINE
8
annotation
62
1
39
211
10
116.282136
20
322.238857
11
116.234531
21
322.411530
0
LINE
8
annotation
62
1
39
211
10
116.234531
20
322.411530
11
116.158746
21
322.570680
0
LINE
8
annotation
62
1
39
211
10
116.158746
20
322.570680
11
116.057689
21
322.713381
0
LINE
8
annotation
62
1
39
211
10
116.057689
20
322.713381
11
115.934270
21
322.836703
0
LINE
8
annotation
62
1
39
211
10
115.934270
20
322.836703
11
115.791398
21
322.937717
0
LINE
8
annotation
62
1
39
211
10
115.791398
20
322.937717
11
115.631984
21
323.013496
0
LINE
8
annotation
62
1
39
211
10
115.631984
20
323.013496
11
115.458936
21
323.061111
0
LINE
8
annotation
62
1
39
211
10
115.458936
20
323.061111
11
115.275164
21
323.077634
0
LINE
8
annotation
62
1
39
211
10
115.275164
20
323.077634
11
115.275164
21
323.077634
0
LINE
8
annotation
62
1
39
211
10
115.275164
20
323.077634
11
115.091392
21
323.061111
0
LINE
8
annotation
62
1
39
211
10
115.091392
20
323.061111
11
114.918344
21
323.013496
0
LINE
8
annotation
62
1
39
211
10
114.918344
20
323.013496
11
114.758929
21
322.937717
0
LINE
8
annotation
62
1
39
211
10
114.758929
20
322.937717
11
114.616058
21
322.836703
0
LINE
8
annotation
62
1
39
211
10
114.616058
20
322.836703
11
114.492639
21
322.713381
0
LINE
8
annotation
62
1
39
211
10
114.492639
20
322.713381
11
114.391582
21
322.570680
0
LINE
8
annotation
62
1
39
211
10
114.391582
20
322.570680
11
114.315796
21
322.411530
0
LINE
8
annotation
62
1
39
211
10
114.315796
20
322.411530
11
114.268191
21
322.238857
0
LINE
8
annotation
62
1
39
211
10
114.268191
20
322.238857
11
114.251676
21
322.055591
0
LINE
8
annotation
62
1
39
211
10
114.251676
20
322.055591
11
114.251676
21
322.055591
0
LINE
8
annotation
62
1
39
211
10
114.251676
20
322.055591
11
114.268201
21
321.871465
0
LINE
8
annotation
62
1
39
211
10
114.268201
20
321.871465
11
114.315830
21
321.698123
0
LINE
8
annotation
62
1
39
211
10
114.315830
20
321.698123
11
114.391646
21
321.538468
0
LINE
8
annotation
62
1
39
211
10
114.391646
20
321.538468
11
114.492734
21
321.395407
0
LINE
8
annotation
62
1
39
211
10
114.492734
20
321.395407
11
114.616177
21
321.271843
0
LINE
8
annotation
62
1
39
211
10
114.616177
20
321.271843
11
114.759058
21
321.170682
0
LINE
8
annotation
62
1
39
211
10
114.759058
20
321.170682
11
114.918460
21
321.094828
0
LINE
8
annotation
62
1
39
211
10
114.918460
20
321.094828
11
115.091468
21
321.047185
0
LINE
8
annotation
62
1
39
211
10
115.091468
20
321.047185
11
115.275164
21
321.030659
0
LINE
8
annotation
62
1
39
211
10
115.275164
20
321.030659
11
115.275164
21
321.030659
0
LINE
8
annotation
62
1
39
211
10
115.275164
20
321.030659
11
115.458860
21
321.047185
0
LINE
8
annotation
62
1
39
211
10
115.458860
20
321.047185
11
115.631867
21
321.094828
0
LINE
8
annotation
62
1
39
211
10
115.631867
20
321.094828
11
115.791270
21
321.170682
0
LINE
8
annotation
62
1
39
211
10
115.791270
20
321.170682
11
115.934151
21
321.271843
0
LINE
8
annotation
62
1
39
211
10
115.934151
20
321.271843
11
116.057593
21
321.395407
0
LINE
8
annotation
62
1
39
211
10
116.057593
20
321.395407
11
116.158681
21
321.538468
0
LINE
8
annotation
62
1
39
211
10
116.158681
20
321.538468
11
116.234498
21
321.698123
0
LINE
8
annotation
62
1
39
211
10
116.234498
20
321.698123
11
116.282127
21
321.871465
0
LINE
8
annotation
62
1
39
211
10
116.282127
20
321.871465
11
116.298651
21
322.055591
0
LINE
8
annotation
62
1
39
211
10
94.876777
20
295.590980
11
92.897168
21
292.727657
0
LINE
8
annotation
62
1
39
211
10
92.897168
20
292.727657
11
90.917187
21
295.590980
0
LINE
8
annotation
62
1
39
211
10
92.897168
20
292.958078
11
92.897168
21
289.654759
0
LINE
8
annotation
62
1
39
211
10
100.349085
20
292.622869
11
97.103465
21
292.622869
0
LINE
8
annotation
62
1
39
211
10
103.894271
20
289.654945
11
103.894271
21
295.590794
0
LINE
8
annotation
62
1
39
211
10
103.894271
20
295.590794
11
102.574656
21
294.270806
0
LINE
8
annotation
62
1
39
211
10
107.439829
20
289.654945
11
108.759444
21
295.590794
0
LINE
8
annotation
62
1
39
211
10
108.759444
20
295.590794
11
106.119842
21
295.590794
0
LINE
8
annotation
62
1
39
211
10
108.759444
20
292.947469
11
107.439829
21
292.947469
0
LINE
8
boundary
62
5
39
2
10
139.512225
20
9.660691
11
140.542821
21
10.413693
0
LINE
8
boundary
62
5
39
2
10
140.542821
20
10.413693
11
141.533396
21
11.209460
0
LINE
8
boundary
62
5
39
2
10
141.533396
20
11.209460
11
141.965399
21
11.576807
0
LINE
8
boundary
62
5
39
2
10
141.965399
20
11.576807
11
143.084117
21
12.614133
0
LINE
8
boundary
62
5
39
2
10
143.084117
20
12.614133
11
144.269854
21
13.835747
0
LINE
8
boundary
62
5
39
2
10
144.269854
20
13.835747
11
144.927581
21
14.587537
0
LINE
8
boundary
62
5
39
2
10
144.927581
20
14.587537
11
145.444362
21
15.173971
0
LINE
8
boundary
62
5
39
2
10
145.444362
20
15.173971
11
146.440321
21
16.426771
0
LINE
8
boundary
62
5
39
2
10
146.440321
20
16.426771
11
147.080181
21
17.290538
0
LINE
8
boundary
62
5
39
2
10
147.080181
20
17.290538
11
147.736982
21
18.206205
0
LINE
8
boundary
62
5
39
2
10
147.736982
20
18.206205
11
148.842860
21
19.901519
0
LINE
8
boundary
62
5
39
2
10
148.842860
20
19.901519
11
149.456461
21
20.937132
0
LINE
8
boundary
62
5
39
2
10
149.456461
20
20.937132
11
149.915203
21
21.711330
0
LINE
8
boundary
62
5
39
2
10
149.915203
20
21.711330
11
150.924585
21
23.590520
0
LINE
8
boundary
62
5
39
2
10
150.924585
20
23.590520
11
151.933359
21
25.670974
0
LINE
8
boundary
62
5
39
2
10
151.933359
20
25.670974
11
152.249037
21
26.394763
0
LINE
8
boundary
62
5
39
2
10
152.249037
20
26.394763
11
152.865719
21
27.814268
0
LINE
8
boundary
62
5
39
2
10
152.865719
20
27.814268
11
153.248871
21
28.782057
0
LINE
8
boundary
62
5
39
2
10
153.248871
20
28.782057
11
153.530919
21
29.493548
0
LINE
8
boundary
62
5
39
2
10
153.530919
20
29.493548
11
153.736935
21
30.060971
0
LINE
8
boundary
62
5
39
2
10
153.736935
20
30.060971
11
154.163097
21
31.227873
0
LINE
8
boundary
62
5
39
2
10
154.163097
20
31.227873
11
154.352223
21
31.789644
0
LINE
8
boundary
62
5
39
2
10
154.352223
20
31.789644
11
154.659029
21
32.703120
0
LINE
8
boundary
62
5
39
2
10
154.659029
20
32.703120
11
155.090007
21
34.062866
0
LINE
8
boundary
62
5
39
2
10
155.090007
20
34.062866
11
155.335592
21
34.847544
0
LINE
8
boundary
62
5
39
2
10
155.335592
20
34.847544
11
155.508699
21
35.448772
0
LINE
8
boundary
62
5
39
2
10
155.508699
20
35.448772
11
155.880361
21
36.729666
0
LINE
8
boundary
62
5
39
2
10
155.880361
20
36.729666
11
156.019655
21
37.247509
0
LINE
8
boundary
62
5
39
2
10
156.019655
20
37.247509
11
156.300225
21
38.293091
0
LINE
8
boundary
62
5
39
2
10
156.300225
20
38.293091
11
156.670843
21
39.747268
0
LINE
8
boundary
62
5
39
2
10
156.670843
20
39.747268
11
156.889084
21
40.613538
0
LINE
8
boundary
62
5
39
2
10
156.889084
20
40.613538
11
157.031430
21
41.225004
0
LINE
8
boundary
62
5
39
2
10
157.031430
20
41.225004
11
157.357987
21
42.614929
0
LINE
8
boundary
62
5
39
2
10
157.357987
20
42.614929
11
157.713761
21
44.241863
0
LINE
8
boundary
62
5
39
2
10
157.713761
20
44.241863
11
158.034309
21
45.776370
0
LINE
8
boundary
62
5
39
2
10
158.034309
20
45.776370
11
158.227265
21
46.709468
0
LINE
8
boundary
62
5
39
2
10
158.227265
20
46.709468
11
158.346888
21
47.332177
0
LINE
8
boundary
62
5
39
2
10
158.346888
20
47.332177
11
158.632927
21
48.805323
0
LINE
8
boundary
62
5
39
2
10
158.632927
20
48.805323
11
158.940535
21
50.495021
0
LINE
8
boundary
62
5
39
2
10
158.940535
20
50.495021
11
159.221020
21
52.097040
0
LINE
8
boundary
62
5
39
2
10
159.221020
20
52.097040
11
159.389419
21
53.065446
0
LINE
8
boundary
62
5
39
2
10
159.389419
20
53.065446
11
159.495651
21
53.718386
0
LINE
8
boundary
62
5
39
2
10
159.495651
20
53.718386
11
159.745522
21
55.235117
0
LINE
8
boundary
62
5
39
2
10
159.745522
20
55.235117
11
159.824705
21
55.742209
0
LINE
8
boundary
62
5
39
2
10
159.824705
20
55.742209
11
160.021624
21
57.003965
0
LINE
8
boundary
62
5
39
2
10
160.021624
20
57.003965
11
160.272462
21
58.661920
0
LINE
8
boundary
62
5
39
2
10
160.272462
20
58.661920
11
160.417971
21
59.624881
0
LINE
8
boundary
62
5
39
2
10
160.417971
20
59.624881
11
160.552333
21
60.575932
0
LINE
8
boundary
62
5
39
2
10
160.552333
20
60.575932
11
160.842739
21
62.597963
0
LINE
8
boundary
62
5
39
2
10
160.842739
20
62.597963
11
161.188019
21
65.117465
0
LINE
8
boundary
62
5
39
2
10
161.188019
20
65.117465
11
161.357744
21
66.344322
0
LINE
8
boundary
62
5
39
2
10
161.357744
20
66.344322
11
161.498156
21
67.421177
0
LINE
8
boundary
62
5
39
2
10
161.498156
20
67.421177
11
161.808803
21
69.760080
0
LINE
8
boundary
62
5
39
2
10
161.808803
20
69.760080
11
162.108790
21
72.082959
0
LINE
8
boundary
62
5
39
2
10
162.108790
20
72.082959
11
162.254973
21
73.192873
0
LINE
8
boundary
62
5
39
2
10
162.254973
20
73.192873
11
162.413394
21
74.438665
0
LINE
8
boundary
62
5
39
2
10
162.413394
20
74.438665
11
162.701807
21
76.663854
0
LINE
8
boundary
62
5
39
2
10
162.701807
20
76.663854
11
162.770814
21
77.201306
0
LINE
8
boundary
62
5
39
2
10
162.770814
20
77.201306
11
163.030935
21
79.204454
0
LINE
8
boundary
62
5
39
2
10
163.030935
20
79.204454
11
163.156242
21
80.151424
0
LINE
8
boundary
62
5
39
2
10
163.156242
20
80.151424
11
163.346450
21
81.602941
0
LINE
8
boundary
62
5
39
2
10
163.346450
20
81.602941
11
163.622254
21
83.671815
0
LINE
8
boundary
62
5
39
2
10
163.622254
20
83.671815
11
163.783452
21
84.864676
0
LINE
8
boundary
62
5
39
2
10
163.783452
20
84.864676
11
164.002848
21
86.462392
0
LINE
8
boundary
62
5
39
2
10
164.002848
20
86.462392
11
164.107395
21
87.212443
0
LINE
8
boundary
62
5
39
2
10
164.107395
20
87.212443
11
164.345584
21
88.897397
0
LINE
8
boundary
62
5
39
2
10
164.345584
20
88.897397
11
164.615319
21
90.782405
0
LINE
8
boundary
62
5
39
2
10
164.615319
20
90.782405
11
164.701813
21
91.371679
0
LINE
8
boundary
62
5
39
2
10
164.701813
20
91.371679
11
164.900417
21
92.712323
0
LINE
8
boundary
62
5
39
2
10
164.900417
20
92.712323
11
165.071275
21
93.847684
0
LINE
8
boundary
62
5
39
2
10
165.071275
20
93.847684
11
165.152065
21
94.380343
0
LINE
8
boundary
62
5
39
2
10
165.152065
20
94.380343
11
165.456278
21
96.318026
0
LINE
8
boundary
62
5
39
2
10
165.456278
20
96.318026
11
165.722552
21
98.006985
0
LINE
8
boundary
62
5
39
2
10
165.722552
20
98.006985
11
165.858037
21
98.832076
0
LINE
8
boundary
62
5
39
2
10
165.858037
20
98.832076
11
166.168278
21
100.720177
0
LINE
8
boundary
62
5
39
2
10
166.168278
20
100.720177
11
166.276577
21
101.369726
0
LINE
8
boundary
62
5
39
2
10
166.276577
20
101.369726
11
166.711733
21
103.891524
0
LINE
8
boundary
62
5
39
2
10
166.711733
20
103.891524
11
166.968420
21
105.378996
0
LINE
8
boundary
62
5
39
2
10
166.968420
20
105.378996
11
167.163887
21
106.465936
0
LINE
8
boundary
62
5
39
2
10
167.163887
20
106.465936
11
167.613620
21
108.985468
0
LINE
8
boundary
62
5
39
2
10
167.613620
20
108.985468
11
168.117444
21
111.693541
0
LINE
8
boundary
62
5
39
2
10
168.117444
20
111.693541
11
168.349125
21
112.951404
0
LINE
8
boundary
62
5
39
2
10
168.349125
20
112.951404
11
168.618785
21
114.355270
0
LINE
8
boundary
62
5
39
2
10
168.618785
20
114.355270
11
169.087538
21
116.829266
0
LINE
8
boundary
62
5
39
2
10
169.087538
20
116.829266
11
169.251831
21
117.669262
0
LINE
8
boundary
62
5
39
2
10
169.251831
20
117.669262
11
169.670040
21
119.800458
0
LINE
8
boundary
62
5
39
2
10
169.670040
20
119.800458
11
169.856914
21
120.769142
0
LINE
8
boundary
62
5
39
2
10
169.856914
20
120.769142
11
170.219555
21
122.569926
0
LINE
8
boundary
62
5
39
2
10
170.219555
20
122.569926
11
170.656855
21
124.780356
0
LINE
8
boundary
62
5
39
2
10
170.656855
20
124.780356
11
170.785748
21
125.404487
0
LINE
8
boundary
62
5
39
2
10
170.785748
20
125.404487
11
171.093629
21
126.922452
0
LINE
8
boundary
62
5
39
2
10
171.093629
20
126.922452
11
171.367663
21
128.268095
0
LINE
8
boundary
62
5
39
2
10
171.367663
20
128.268095
11
171.486538
21
128.863526
0
LINE
8
boundary
62
5
39
2
10
171.486538
20
128.863526
11
171.965209
21
131.158209
0
LINE
8
boundary
62
5
39
2
10
171.965209
20
131.158209
11
172.345931
21
133.019626
0
LINE
8
boundary
62
5
39
2
10
172.345931
20
133.019626
11
172.579837
21
134.114362
0
LINE
8
boundary
62
5
39
2
10
172.579837
20
134.114362
11
173.151419
21
136.841431
0
LINE
8
boundary
62
5
39
2
10
173.151419
20
136.841431
11
173.858254
21
140.143999
0
LINE
8
boundary
62
5
39
2
10
173.858254
20
140.143999
11
174.156088
21
141.557986
0
LINE
8
boundary
62
5
39
2
10
174.156088
20
141.557986
11
174.522839
21
143.223839
0
LINE
8
boundary
62
5
39
2
10
174.522839
20
143.223839
11
175.109697
21
145.939420
0
LINE
8
boundary
62
5
39
2
10
175.109697
20
145.939420
11
175.446476
21
147.449868
0
LINE
8
boundary
62
5
39
2
10
175.446476
20
147.449868
11
175.905373
21
149.525119
0
LINE
8
boundary
62
5
39
2
10
175.905373
20
149.525119
11
176.094211
21
150.394638
0
LINE
8
boundary
62
5
39
2
10
176.094211
20
150.394638
11
176.622803
21
152.722556
0
LINE
8
boundary
62
5
39
2
10
176.622803
20
152.722556
11
177.114091
21
154.921968
0
LINE
8
boundary
62
5
39
2
10
177.114091
20
154.921968
11
177.360159
21
155.976508
0
LINE
8
boundary
62
5
39
2
10
177.360159
20
155.976508
11
177.981060
21
158.676519
0
LINE
8
boundary
62
5
39
2
10
177.981060
20
158.676519
11
178.117305
21
159.272750
0
LINE
8
boundary
62
5
39
2
10
178.117305
20
159.272750
11
178.891682
21
162.573769
0
LINE
8
boundary
62
5
39
2
10
178.891682
20
162.573769
11
179.266155
21
164.185732
0
LINE
8
boundary
62
5
39
2
10
179.266155
20
164.185732
11
179.510308
21
165.200744
0
LINE
8
boundary
62
5
39
2
10
179.510308
20
165.200744
11
179.830096
21
166.543280
0
LINE
8
boundary
62
5
39
2
10
179.830096
20
166.543280
11
179.983053
21
167.169365
0
LINE
8
boundary
62
5
39
2
10
179.983053
20
167.169365
11
180.406190
21
168.916729
0
LINE
8
boundary
62
5
39
2
10
180.406190
20
168.916729
11
180.754330
21
170.328669
0
LINE
8
boundary
62
5
39
2
10
180.754330
20
170.328669
11
180.951527
21
171.138094
0
LINE
8
boundary
62
5
39
2
10
180.951527
20
171.138094
11
181.443788
21
173.128844
0
LINE
8
boundary
62
5
39
2
10
181.443788
20
173.128844
11
181.587008
21
173.710888
0
LINE
8
boundary
62
5
39
2
10
181.587008
20
173.710888
11
181.944961
21
175.130806
0
LINE
8
boundary
62
5
39
2
10
181.944961
20
175.130806
11
182.195458
21
176.130412
0
LINE
8
boundary
62
5
39
2
10
182.195458
20
176.130412
11
182.455321
21
177.143398
0
LINE
8
boundary
62
5
39
2
10
182.455321
20
177.143398
11
182.818046
21
178.564300
0
LINE
8
boundary
62
5
39
2
10
182.818046
20
178.564300
11
182.975170
21
179.166030
0
LINE
8
boundary
62
5
39
2
10
182.975170
20
179.166030
11
183.455385
21
181.012175
0
LINE
8
boundary
62
5
39
2
10
183.455385
20
181.012175
11
183.743928
21
182.100000
0
LINE
8
boundary
62
5
39
2
10
183.743928
20
182.100000
11
184.040184
21
183.231592
0
LINE
8
boundary
62
5
39
2
10
184.040184
20
183.231592
11
184.582211
21
185.267645
0
LINE
8
boundary
62
5
39
2
10
184.582211
20
185.267645
11
184.763768
21
185.949001
0
LINE
8
boundary
62
5
39
2
10
184.763768
20
185.949001
11
185.134582
21
187.311366
0
LINE
8
boundary
62
5
39
2
10
185.134582
20
187.311366
11
185.440712
21
188.436725
0
LINE
8
boundary
62
5
39
2
10
185.440712
20
188.436725
11
185.720892
21
189.444978
0
LINE
8
boundary
62
5
39
2
10
185.720892
20
189.444978
11
186.213173
21
191.215411
0
LINE
8
boundary
62
5
39
2
10
186.213173
20
191.215411
11
186.899219
21
193.629164
0
LINE
8
boundary
62
5
39
2
10
186.899219
20
193.629164
11
187.624975
21
196.171971
0
LINE
8
boundary
62
5
39
2
10
187.624975
20
196.171971
11
187.809885
21
196.816021
0
LINE
8
boundary
62
5
39
2
10
187.809885
20
196.816021
11
188.277420
21
198.416019
0
LINE
8
boundary
62
5
39
2
10
188.277420
20
198.416019
11
188.635428
21
199.636617
0
LINE
8
boundary
62
5
39
2
10
188.635428
20
199.636617
11
188.941592
21
200.664022
0
LINE
8
boundary
62
5
39
2
10
188.941592
20
200.664022
11
189.482315
21
202.470297
0
LINE
8
boundary
62
5
39
2
10
189.482315
20
202.470297
11
190.133835
21
204.606857
0
LINE
8
boundary
62
5
39
2
10
190.133835
20
204.606857
11
190.301561
21
205.165232
0
LINE
8
boundary
62
5
39
2
10
190.301561
20
205.165232
11
190.987017
21
207.406768
0
LINE
8
boundary
62
5
39
2
10
190.987017
20
207.406768
11
191.222507
21
208.171591
0
LINE
8
boundary
62
5
39
2
10
191.222507
20
208.171591
11
191.682982
21
209.649221
0
LINE
8
boundary
62
5
39
2
10
191.682982
20
209.649221
11
192.118657
21
211.038121
0
LINE
8
boundary
62
5
39
2
10
192.118657
20
211.038121
11
192.389320
21
211.891784
0
LINE
8
boundary
62
5
39
2
10
192.389320
20
211.891784
11
193.035443
21
213.915222
0
LINE
8
boundary
62
5
39
2
10
193.035443
20
213.915222
11
193.352305
21
214.892380
0
LINE
8
boundary
62
5
39
2
10
193.352305
20
214.892380
11
193.822377
21
216.365760
0
LINE
8
boundary
62
5
39
2
10
193.822377
20
216.365760
11
194.542931
21
218.591416
0
LINE
8
boundary
62
5
39
2
10
194.542931
20
218.591416
11
194.901623
21
219.688687
0
LINE
8
boundary
62
5
39
2
10
194.901623
20
219.688687
11
195.272456
21
220.814341
0
LINE
8
boundary
62
5
39
2
10
195.272456
20
220.814341
11
195.861175
21
222.586596
0
LINE
8
boundary
62
5
39
2
10
195.861175
20
222.586596
11
196.495883
21
224.471982
0
LINE
8
boundary
62
5
39
2
10
196.495883
20
224.471982
11
196.751528
21
225.244947
0
LINE
8
boundary
62
5
39
2
10
196.751528
20
225.244947
11
197.488850
21
227.443166
0
LINE
8
boundary
62
5
39
2
10
197.488850
20
227.443166
11
197.809441
21
228.389913
0
LINE
8
boundary
62
5
39
2
10
197.809441
20
228.389913
11
198.493814
21
230.388998
0
LINE
8
boundary
62
5
39
2
10
198.493814
20
230.388998
11
199.534994
21
233.395730
0
LINE
8
boundary
62
5
39
2
10
199.534994
20
233.395730
11
199.698448
21
233.879154
0
LINE
8
boundary
62
5
39
2
10
199.698448
20
233.879154
11
200.890900
21
237.319762
0
LINE
8
boundary
62
5
39
2
10
200.890900
20
237.319762
11
201.830523
21
239.995226
0
LINE
8
boundary
62
5
39
2
10
201.830523
20
239.995226
11
202.091062
21
240.728344
0
LINE
8
boundary
62
5
39
2
10
202.091062
20
240.728344
11
202.458086
21
241.748635
0
LINE
8
boundary
62
5
39
2
10
202.458086
20
241.748635
11
203.278543
21
244.089194
0
LINE
8
boundary
62
5
39
2
10
203.278543
20
244.089194
11
203.870221
21
245.756687
0
LINE
8
boundary
62
5
39
2
10
203.870221
20
245.756687
11
204.462369
21
247.409969
0
LINE
8
boundary
62
5
39
2
10
204.462369
20
247.409969
11
205.265833
21
249.625849
0
LINE
8
boundary
62
5
39
2
10
205.265833
20
249.625849
11
205.559832
21
250.455547
0
LINE
8
boundary
62
5
39
2
10
205.559832
20
250.455547
11
205.923609
21
251.472424
0
LINE
8
boundary
62
5
39
2
10
205.923609
20
251.472424
11
206.466734
21
252.976139
0
LINE
8
boundary
62
5
39
2
10
206.466734
20
252.976139
11
206.897440
21
254.157290
0
LINE
8
boundary
62
5
39
2
10
206.897440
20
254.157290
11
207.366059
21
255.467486
0
LINE
8
boundary
62
5
39
2
10
207.366059
20
255.467486
11
207.957912
21
257.106340
0
LINE
8
boundary
62
5
39
2
10
207.957912
20
257.106340
11
208.258125
21
257.931881
0
LINE
8
boundary
62
5
39
2
10
208.258125
20
257.931881
11
208.492125
21
258.569250
0
LINE
8
boundary
62
5
39
2
10
208.492125
20
258.569250
11
209.138298
21
260.364595
0
LINE
8
boundary
62
5
39
2
10
209.138298
20
260.364595
11
209.965403
21
262.640543
0
LINE
8
boundary
62
5
39
2
10
209.965403
20
262.640543
11
210.873307
21
265.152003
0
LINE
8
boundary
62
5
39
2
10
210.873307
20
265.152003
11
211.577919
21
267.085156
0
LINE
8
boundary
62
5
39
2
10
211.577919
20
267.085156
11
211.921900
21
268.043472
0
LINE
8
boundary
62
5
39
2
10
211.921900
20
268.043472
11
212.568255
21
269.834913
0
LINE
8
boundary
62
5
39
2
10
212.568255
20
269.834913
11
213.071978
21
271.217734
0
LINE
8
boundary
62
5
39
2
10
213.071978
20
271.217734
11
213.400552
21
272.139053
0
LINE
8
boundary
62
5
39
2
10
213.400552
20
272.139053
11
213.817860
21
273.297602
0
LINE
8
boundary
62
5
39
2
10
213.817860
20
273.297602
11
214.220513
21
274.418366
0
LINE
8
boundary
62
5
39
2
10
214.220513
20
274.418366
11
214.537506
21
275.292389
0
LINE
8
boundary
62
5
39
2
10
214.537506
20
275.292389
11
215.027331
21
276.671745
0
LINE
8
boundary
62
5
39
2
10
215.027331
20
276.671745
11
215.642515
21
278.387013
0
LINE
8
boundary
62
5
39
2
10
215.642515
20
278.387013
11
215.841332
21
278.945178
0
LINE
8
boundary
62
5
39
2
10
215.841332
20
278.945178
11
216.680690
21
281.320885
0
LINE
8
boundary
62
5
39
2
10
216.680690
20
281.320885
11
217.378111
21
283.280175
0
LINE
8
boundary
62
5
39
2
10
217.378111
20
283.280175
11
217.720682
21
284.257331
0
LINE
8
boundary
62
5
39
2
10
217.720682
20
284.257331
11
218.325770
21
285.999647
0
LINE
8
boundary
62
5
39
2
10
218.325770
20
285.999647
11
218.744711
21
287.193292
0
LINE
8
boundary
62
5
39
2
10
218.744711
20
287.193292
11
219.123294
21
288.295771
0
LINE
8
boundary
62
5
39
2
10
219.123294
20
288.295771
11
219.666569
21
289.860129
0
LINE
8
boundary
62
5
39
2
10
219.666569
20
289.860129
11
219.906698
21
290.566752
0
LINE
8
boundary
62
5
39
2
10
219.906698
20
290.566752
11
220.077750
21
291.065027
0
LINE
8
boundary
62
5
39
2
10
220.077750
20
291.065027
11
220.891473
21
293.506881
0
LINE
8
boundary
62
5
39
2
10
220.891473
20
293.506881
11
221.458080
21
295.179941
0
LINE
8
boundary
62
5
39
2
10
221.458080
20
295.179941
11
221.920433
21
296.593071
0
LINE
8
boundary
62
5
39
2
10
221.920433
20
296.593071
11
222.605375
21
298.655946
0
LINE
8
boundary
62
5
39
2
10
222.605375
20
298.655946
11
222.910972
21
299.612747
0
LINE
8
boundary
62
5
39
2
10
222.910972
20
299.612747
11
223.116508
21
300.245085
0
LINE
8
boundary
62
5
39
2
10
223.116508
20
300.245085
11
223.834443
21
302.549782
0
LINE
8
boundary
62
5
39
2
10
223.834443
20
302.549782
11
224.626513
21
305.050263
0
LINE
8
boundary
62
5
39
2
10
224.626513
20
305.050263
11
224.927874
21
306.038022
0
LINE
8
boundary
62
5
39
2
10
224.927874
20
306.038022
11
225.573762
21
308.232512
0
LINE
8
boundary
62
5
39
2
10
225.573762
20
308.232512
11
225.985647
21
309.604245
0
LINE
8
boundary
62
5
39
2
10
225.985647
20
309.604245
11
226.371717
21
310.967599
0
LINE
8
boundary
62
5
39
2
10
226.371717
20
310.967599
11
227.005199
21
313.159688
0
LINE
8
boundary
62
5
39
2
10
227.005199
20
313.159688
11
227.222660
21
313.936156
0
LINE
8
boundary
62
5
39
2
10
227.222660
20
313.936156
11
227.700672
21
315.742430
0
LINE
8
boundary
62
5
39
2
10
227.700672
20
315.742430
11
228.237398
21
317.730635
0
LINE
8
boundary
62
5
39
2
10
228.237398
20
317.730635
11
228.697589
21
319.567860
0
LINE
8
boundary
62
5
39
2
10
228.697589
20
319.567860
11
228.969480
21
320.642085
0
LINE
8
boundary
62
5
39
2
10
228.969480
20
320.642085
11
229.099201
21
321.188738
0
LINE
8
boundary
62
5
39
2
10
229.099201
20
321.188738
11
229.324943
21
322.120091
0
LINE
8
boundary
62
5
39
2
10
229.324943
20
322.120091
11
229.476735
21
322.773003
0
LINE
8
boundary
62
5
39
2
10
229.476735
20
322.773003
11
229.823871
21
324.316006
0
LINE
8
boundary
62
5
39
2
10
229.823871
20
324.316006
11
230.106292
21
325.563713
0
LINE
8
boundary
62
5
39
2
10
230.106292
20
325.563713
11
230.260645
21
326.294032
0
LINE
8
boundary
62
5
39
2
10
230.260645
20
326.294032
11
230.464291
21
327.298694
0
LINE
8
boundary
62
5
39
2
10
230.464291
20
327.298694
11
230.583997
21
327.871832
0
LINE
8
boundary
62
5
39
2
10
230.583997
20
327.871832
11
230.719246
21
328.580910
0
LINE
8
boundary
62
5
39
2
10
230.719246
20
328.580910
11
230.907154
21
329.537501
0
LINE
8
boundary
62
5
39
2
10
230.907154
20
329.537501
11
231.029841
21
330.205282
0
LINE
8
boundary
62
5
39
2
10
231.029841
20
330.205282
11
231.135091
21
330.804659
0
LINE
8
boundary
62
5
39
2
10
231.135091
20
330.804659
11
231.304498
21
331.804438
0
LINE
8
boundary
62
5
39
2
10
231.304498
20
331.804438
11
231.454727
21
332.694286
0
LINE
8
boundary
62
5
39
2
10
231.454727
20
332.694286
11
231.609149
21
333.735496
0
LINE
8
boundary
62
5
39
2
10
231.609149
20
333.735496
11
231.740703
21
334.663851
0
LINE
8
boundary
62
5
39
2
10
231.740703
20
334.663851
11
231.855356
21
335.496785
0
LINE
8
boundary
62
5
39
2
10
231.855356
20
335.496785
11
231.963352
21
336.444844
0
LINE
8
boundary
62
5
39
2
10
231.963352
20
336.444844
11
232.025654
21
336.976344
0
LINE
8
boundary
62
5
39
2
10
232.025654
20
336.976344
11
232.111587
21
337.851329
0
LINE
8
boundary
62
5
39
2
10
232.111587
20
337.851329
11
232.195490
21
338.921644
0
LINE
8
boundary
62
5
39
2
10
232.195490
20
338.921644
11
232.240684
21
339.517390
0
LINE
8
boundary
62
5
39
2
10
232.240684
20
339.517390
11
232.285395
21
340.441604
0
LINE
8
boundary
62
5
39
2
10
232.285395
20
340.441604
11
232.307250
21
341.160353
0
LINE
8
boundary
62
5
39
2
10
232.307250
20
341.160353
11
232.324615
21
341.795372
0
LINE
8
boundary
62
5
39
2
10
232.324615
20
341.795372
11
232.318445
21
342.519804
0
LINE
8
boundary
62
5
39
2
10
232.318445
20
342.519804
11
232.304903
21
343.158651
0
LINE
8
boundary
62
5
39
2
10
232.304903
20
343.158651
11
232.288258
21
343.707478
0
LINE
8
boundary
62
5
39
2
10
232.288258
20
343.707478
11
232.242019
21
344.353020
0
LINE
8
boundary
62
5
39
2
10
232.242019
20
344.353020
11
232.195890
21
344.907905
0
LINE
8
boundary
62
5
39
2
10
232.195890
20
344.907905
11
232.138302
21
345.433336
0
LINE
8
boundary
62
5
39
2
10
232.138302
20
345.433336
11
232.005174
21
346.329258
0
LINE
8
boundary
62
5
39
2
10
232.005174
20
346.329258
11
231.901534
21
346.827995
0
LINE
8
boundary
62
5
39
2
10
231.901534
20
346.827995
11
231.778536
21
347.344870
0
LINE
8
boundary
62
5
39
2
10
231.778536
20
347.344870
11
231.631483
21
347.894281
0
LINE
8
boundary
62
5
39
2
10
231.631483
20
347.894281
11
231.395149
21
348.575777
0
LINE
8
boundary
62
5
39
2
10
231.395149
20
348.575777
11
231.154035
21
349.142224
0
LINE
8
boundary
62
5
39
2
10
231.154035
20
349.142224
11
230.884944
21
349.682580
0
LINE
8
boundary
62
5
39
2
10
230.884944
20
349.682580
11
230.586901
21
350.192369
0
LINE
8
boundary
62
5
39
2
10
230.586901
20
350.192369
11
230.298569
21
350.618882
0
LINE
8
boundary
62
5
39
2
10
230.298569
20
350.618882
11
229.896629
21
351.094824
0
LINE
8
boundary
62
5
39
2
10
229.896629
20
351.094824
11
229.497999
21
351.471062
0
LINE
8
boundary
62
5
39
2
10
229.497999
20
351.471062
11
229.067624
21
351.799391
0
LINE
8
boundary
62
5
39
2
10
229.067624
20
351.799391
11
228.605569
21
352.076399
0
LINE
8
boundary
62
5
39
2
10
228.605569
20
352.076399
11
228.112550
21
352.299972
0
LINE
8
boundary
62
5
39
2
10
228.112550
20
352.299972
11
227.589666
21
352.469111
0
LINE
8
boundary
62
5
39
2
10
227.589666
20
352.469111
11
227.039458
21
352.583665
0
LINE
8
boundary
62
5
39
2
10
227.039458
20
352.583665
11
226.453140
21
352.628702
0
LINE
8
boundary
62
5
39
2
10
226.453140
20
352.628702
11
225.842830
21
352.616413
0
LINE
8
boundary
62
5
39
2
10
225.842830
20
352.616413
11
225.209448
21
352.546534
0
LINE
8
boundary
62
5
39
2
10
225.209448
20
352.546534
11
224.555218
21
352.418962
0
LINE
8
boundary
62
5
39
2
10
224.555218
20
352.418962
11
224.017577
21
352.280552
0
LINE
8
boundary
62
5
39
2
10
224.017577
20
352.280552
11
223.283827
21
352.025676
0
LINE
8
boundary
62
5
39
2
10
223.283827
20
352.025676
11
222.481476
21
351.679864
0
LINE
8
boundary
62
5
39
2
10
222.481476
20
351.679864
11
221.758570
21
351.314158
0
LINE
8
boundary
62
5
39
2
10
221.758570
20
351.314158
11
221.025508
21
350.897250
0
LINE
8
boundary
62
5
39
2
10
221.025508
20
350.897250
11
220.446852
21
350.541836
0
LINE
8
boundary
62
5
39
2
10
220.446852
20
350.541836
11
219.692648
21
350.021004
0
LINE
8
boundary
62
5
39
2
10
219.692648
20
350.021004
11
218.775974
21
349.326812
0
LINE
8
boundary
62
5
39
2
10
218.775974
20
349.326812
11
218.014126
21
348.696835
0
LINE
8
boundary
62
5
39
2
10
218.014126
20
348.696835
11
217.520825
21
348.273482
0
LINE
8
boundary
62
5
39
2
10
217.520825
20
348.273482
11
216.518903
21
347.336956
0
LINE
8
boundary
62
5
39
2
10
216.518903
20
347.336956
11
215.724378
21
346.528090
0
LINE
8
boundary
62
5
39
2
10
215.724378
20
346.528090
11
214.961899
21
345.706172
0
LINE
8
boundary
62
5
39
2
10
214.961899
20
345.706172
11
214.483356
21
345.176571
0
LINE
8
boundary
62
5
39
2
10
214.483356
20
345.176571
11
213.465181
21
343.971496
0
LINE
8
boundary
62
5
39
2
10
213.465181
20
343.971496
11
212.441136
21
342.679578
0
LINE
8
boundary
62
5
39
2
10
212.441136
20
342.679578
11
211.952873
21
342.029623
0
LINE
8
boundary
62
5
39
2
10
211.952873
20
342.029623
11
211.245357
21
341.065144
0
LINE
8
boundary
62
5
39
2
10
211.245357
20
341.065144
11
221.049313
21
340.915144
0
LINE
8
boundary
62
5
39
2
10
221.049313
20
340.915144
11
221.049313
21
338.169144
0
LINE
8
boundary
62
5
39
2
10
221.049313
20
338.169144
11
209.250649
21
338.169144
0
LINE
8
boundary
62
5
39
2
10
209.250649
20
338.169144
11
208.662574
21
337.258922
0
LINE
8
boundary
62
5
39
2
10
208.662574
20
337.258922
11
208.360613
21
336.790310
0
LINE
8
boundary
62
5
39
2
10
208.360613
20
336.790310
11
208.034204
21
336.262368
0
LINE
8
boundary
62
5
39
2
10
208.034204
20
336.262368
11
207.449273
21
335.317829
0
LINE
8
boundary
62
5
39
2
10
207.449273
20
335.317829
11
207.097365
21
334.724697
0
LINE
8
boundary
62
5
39
2
10
207.097365
20
334.724697
11
206.494028
21
333.711858
0
LINE
8
boundary
62
5
39
2
10
206.494028
20
333.711858
11
205.594334
21
332.137920
0
LINE
8
boundary
62
5
39
2
10
205.594334
20
332.137920
11
204.652832
21
330.430659
0
LINE
8
boundary
62
5
39
2
10
204.652832
20
330.430659
11
204.169483
21
329.517903
0
LINE
8
boundary
62
5
39
2
10
204.169483
20
329.517903
11
203.771264
21
328.769438
0
LINE
8
boundary
62
5
39
2
10
203.771264
20
328.769438
11
203.075463
21
327.416174
0
LINE
8
boundary
62
5
39
2
10
203.075463
20
327.416174
11
202.835245
21
326.942249
0
LINE
8
boundary
62
5
39
2
10
202.835245
20
326.942249
11
202.095063
21
325.460836
0
LINE
8
boundary
62
5
39
2
10
202.095063
20
325.460836
11
201.578451
21
324.390407
0
LINE
8
boundary
62
5
39
2
10
201.578451
20
324.390407
11
201.300627
21
323.819163
0
LINE
8
boundary
62
5
39
2
10
201.300627
20
323.819163
11
200.798913
21
322.750094
0
LINE
8
boundary
62
5
39
2
10
200.798913
20
322.750094
11
200.536448
21
322.188390
0
LINE
8
boundary
62
5
39
2
10
200.536448
20
322.188390
11
214.358515
21
322.038390
0
LINE
8
boundary
62
5
39
2
10
214.358515
20
322.038390
11
214.358515
21
319.292390
0
LINE
8
boundary
62
5
39
2
10
214.358515
20
319.292390
11
199.240739
21
319.292390
0
LINE
8
boundary
62
5
39
2
10
199.240739
20
319.292390
11
198.813837
21
318.305079
0
LINE
8
boundary
62
5
39
2
10
198.813837
20
318.305079
11
198.035984
21
316.472022
0
LINE
8
boundary
62
5
39
2
10
198.035984
20
316.472022
11
197.181029
21
314.398531
0
LINE
8
boundary
62
5
39
2
10
197.181029
20
314.398531
11
196.546818
21
312.828009
0
LINE
8
boundary
62
5
39
2
10
196.546818
20
312.828009
11
196.023634
21
311.528500
0
LINE
8
boundary
62
5
39
2
10
196.023634
20
311.528500
11
195.016593
21
308.962845
0
LINE
8
boundary
62
5
39
2
10
195.016593
20
308.962845
11
194.560894
21
307.778999
0
LINE
8
boundary
62
5
39
2
10
194.560894
20
307.778999
11
194.261376
21
306.982789
0
LINE
8
boundary
62
5
39
2
10
194.261376
20
306.982789
11
193.988424
21
306.249608
0
LINE
8
boundary
62
5
39
2
10
193.988424
20
306.249608
11
193.751594
21
305.612537
0
LINE
8
boundary
62
5
39
2
10
193.751594
20
305.612537
11
193.339177
21
304.485013
0
LINE
8
boundary
62
5
39
2
10
193.339177
20
304.485013
11
192.945629
21
303.391563
0
LINE
8
boundary
62
5
39
2
10
192.945629
20
303.391563
11
207.855047
21
303.161636
0
LINE
8
boundary
62
5
39
2
10
207.855047
20
303.161636
11
207.855047
21
300.415636
0
LINE
8
boundary
62
5
39
2
10
207.855047
20
300.415636
11
191.894041
21
300.415636
0
LINE
8
boundary
62
5
39
2
10
191.894041
20
300.415636
11
191.659937
21
299.746225
0
LINE
8
boundary
62
5
39
2
10
191.659937
20
299.746225
11
191.493215
21
299.261811
0
LINE
8
boundary
62
5
39
2
10
191.493215
20
299.261811
11
191.243625
21
298.535827
0
LINE
8
boundary
62
5
39
2
10
191.243625
20
298.535827
11
190.869901
21
297.430534
0
LINE
8
boundary
62
5
39
2
10
190.869901
20
297.430534
11
190.415558
21
296.079446
0
LINE
8
boundary
62
5
39
2
10
190.415558
20
296.079446
11
190.108224
21
295.148761
0
LINE
8
boundary
62
5
39
2
10
190.108224
20
295.148761
11
189.844837
21
294.341849
0
LINE
8
boundary
62
5
39
2
10
189.844837
20
294.341849
11
189.594437
21
293.579353
0
LINE
8
boundary
62
5
39
2
10
189.594437
20
293.579353
11
189.426800
21
293.061587
0
LINE
8
boundary
62
5
39
2
10
189.426800
20
293.061587
11
189.046554
21
291.871365
0
LINE
8
boundary
62
5
39
2
10
189.046554
20
291.871365
11
188.828196
21
291.172046
0
LINE
8
boundary
62
5
39
2
10
188.828196
20
291.172046
11
188.398530
21
289.824993
0
LINE
8
boundary
62
5
39
2
10
188.398530
20
289.824993
11
187.795062
21
287.895484
0
LINE
8
boundary
62
5
39
2
10
187.795062
20
287.895484
11
187.641595
21
287.409090
0
LINE
8
boundary
62
5
39
2
10
187.641595
20
287.409090
11
187.090011
21
285.603070
0
LINE
8
boundary
62
5
39
2
10
187.090011
20
285.603070
11
186.749487
21
284.470602
0
LINE
8
boundary
62
5
39
2
10
186.749487
20
284.470602
11
201.582447
21
284.284883
0
LINE
8
boundary
62
5
39
2
10
201.582447
20
284.284883
11
201.582448
21
281.538883
0
LINE
8
boundary
62
5
39
2
10
201.582448
20
281.538883
11
185.859330
21
281.538882
0
LINE
8
boundary
62
5
39
2
10
185.859330
20
281.538882
11
185.628135
21
280.756320
0
LINE
8
boundary
62
5
39
2
10
185.628135
20
280.756320
11
185.297075
21
279.623175
0
LINE
8
boundary
62
5
39
2
10
185.297075
20
279.623175
11
184.943545
21
278.433685
0
LINE
8
boundary
62
5
39
2
10
184.943545
20
278.433685
11
184.641577
21
277.408664
0
LINE
8
boundary
62
5
39
2
10
184.641577
20
277.408664
11
184.253656
21
276.064413
0
LINE
8
boundary
62
5
39
2
10
184.253656
20
276.064413
11
183.757786
21
274.333342
0
LINE
8
boundary
62
5
39
2
10
183.757786
20
274.333342
11
183.581992
21
273.727905
0
LINE
8
boundary
62
5
39
2
10
183.581992
20
273.727905
11
183.396989
21
273.087476
0
LINE
8
boundary
62
5
39
2
10
183.396989
20
273.087476
11
182.969226
21
271.571937
0
LINE
8
boundary
62
5
39
2
10
182.969226
20
271.571937
11
182.524788
21
269.991499
0
LINE
8
boundary
62
5
39
2
10
182.524788
20
269.991499
11
182.346401
21
269.363545
0
LINE
8
boundary
62
5
39
2
10
182.346401
20
269.363545
11
182.172222
21
268.748574
0
LINE
8
boundary
62
5
39
2
10
182.172222
20
268.748574
11
181.872550
21
267.671411
0
LINE
8
boundary
62
5
39
2
10
181.872550
20
267.671411
11
181.566385
21
266.569434
0
LINE
8
boundary
62
5
39
2
10
181.566385
20
266.569434
11
181.288983
21
265.558128
0
LINE
8
boundary
62
5
39
2
10
181.288983
20
265.558128
11
195.476562
21
265.408128
0
LINE
8
boundary
62
5
39
2
10
195.476562
20
265.408128
11
195.476562
21
262.662128
0
LINE
8
boundary
62
5
39
2
10
195.476562
20
262.662128
11
180.495395
21
262.662128
0
LINE
8
boundary
62
5
39
2
10
180.495395
20
262.662128
11
180.201037
21
261.575026
0
LINE
8
boundary
62
5
39
2
10
180.201037
20
261.575026
11
179.795561
21
260.070187
0
LINE
8
boundary
62
5
39
2
10
179.795561
20
260.070187
11
179.356958
21
258.433125
0
LINE
8
boundary
62
5
39
2
10
179.356958
20
258.433125
11
179.181370
21
257.778763
0
LINE
8
boundary
62
5
39
2
10
179.181370
20
257.778763
11
178.932999
21
256.839350
0
LINE
8
boundary
62
5
39
2
10
178.932999
20
256.839350
11
178.595143
21
255.565347
0
LINE
8
boundary
62
5
39
2
10
178.595143
20
255.565347
11
178.271414
21
254.329683
0
LINE
8
boundary
62
5
39
2
10
178.271414
20
254.329683
11
178.081996
21
253.610924
0
LINE
8
boundary
62
5
39
2
10
178.081996
20
253.610924
11
177.654232
21
251.974521
0
LINE
8
boundary
62
5
39
2
10
177.654232
20
251.974521
11
177.429790
21
251.118069
0
LINE
8
boundary
62
5
39
2
10
177.429790
20
251.118069
11
177.225523
21
250.327099
0
LINE
8
boundary
62
5
39
2
10
177.225523
20
250.327099
11
176.852183
21
248.889464
0
LINE
8
boundary
62
5
39
2
10
176.852183
20
248.889464
11
176.629050
21
248.021614
0
LINE
8
boundary
62
5
39
2
10
176.629050
20
248.021614
11
176.364748
21
246.998799
0
LINE
8
boundary
62
5
39
2
10
176.364748
20
246.998799
11
189.583145
21
246.531375
0
LINE
8
boundary
62
5
39
2
10
189.583145
20
246.531375
11
189.583145
21
243.785375
0
LINE
8
boundary
62
5
39
2
10
189.583145
20
243.785375
11
175.539608
21
243.785374
0
LINE
8
boundary
62
5
39
2
10
175.539608
20
243.785374
11
175.316674
21
242.920836
0
LINE
8
boundary
62
5
39
2
10
175.316674
20
242.920836
11
175.161359
21
242.306454
0
LINE
8
boundary
62
5
39
2
10
175.161359
20
242.306454
11
174.860910
21
241.129400
0
LINE
8
boundary
62
5
39
2
10
174.860910
20
241.129400
11
174.533809
21
239.849337
0
LINE
8
boundary
62
5
39
2
10
174.533809
20
239.849337
11
174.362043
21
239.183952
0
LINE
8
boundary
62
5
39
2
10
174.362043
20
239.183952
11
173.901496
21
237.366172
0
LINE
8
boundary
62
5
39
2
10
173.901496
20
237.366172
11
173.410079
21
235.447852
0
LINE
8
boundary
62
5
39
2
10
173.410079
20
235.447852
11
173.264505
21
234.869294
0
LINE
8
boundary
62
5
39
2
10
173.264505
20
234.869294
11
172.960557
21
233.675291
0
LINE
8
boundary
62
5
39
2
10
172.960557
20
233.675291
11
172.623612
21
232.352031
0
LINE
8
boundary
62
5
39
2
10
172.623612
20
232.352031
11
172.459957
21
231.717146
0
LINE
8
boundary
62
5
39
2
10
172.459957
20
231.717146
11
171.977922
21
229.815057
0
LINE
8
boundary
62
5
39
2
10
171.977922
20
229.815057
11
171.511135
21
227.996291
0
LINE
8
boundary
62
5
39
2
10
171.511135
20
227.996291
11
183.912743
21
227.654621
0
LINE
8
boundary
62
5
39
2
10
183.912743
20
227.654621
11
183.912743
21
224.908621
0
LINE
8
boundary
62
5
39
2
10
183.912743
20
224.908621
11
170.723675
21
224.908621
0
LINE
8
boundary
62
5
39
2
10
170.723675
20
224.908621
11
170.564240
21
224.290782
0
LINE
8
boundary
62
5
39
2
10
170.564240
20
224.290782
11
170.067367
21
222.343968
0
LINE
8
boundary
62
5
39
2
10
170.067367
20
222.343968
11
169.617341
21
220.601294
0
LINE
8
boundary
62
5
39
2
10
169.617341
20
220.601294
11
169.442251
21
219.914769
0
LINE
8
boundary
62
5
39
2
10
169.442251
20
219.914769
11
169.093409
21
218.562491
0
LINE
8
boundary
62
5
39
2
10
169.093409
20
218.562491
11
168.813215
21
217.475336
0
LINE
8
boundary
62
5
39
2
10
168.813215
20
217.475336
11
168.671643
21
216.932484
0
LINE
8
boundary
62
5
39
2
10
168.671643
20
216.932484
11
168.179481
21
215.023125
0
LINE
8
boundary
62
5
39
2
10
168.179481
20
215.023125
11
167.726540
21
213.285579
0
LINE
8
boundary
62
5
39
2
10
167.726540
20
213.285579
11
167.541956
21
212.570188
0
LINE
8
boundary
62
5
39
2
10
167.541956
20
212.570188
11
167.150483
21
211.068754
0
LINE
8
boundary
62
5
39
2
10
167.150483
20
211.068754
11
166.852558
21
209.926659
0
LINE
8
boundary
62
5
39
2
10
166.852558
20
209.926659
11
166.590501
21
208.927867
0
LINE
8
boundary
62
5
39
2
10
166.590501
20
208.927867
11
178.439137
21
208.777867
0
LINE
8
boundary
62
5
39
2
10
178.439137
20
208.777867
11
178.439137
21
206.031867
0
LINE
8
boundary
62
5
39
2
10
178.439137
20
206.031867
11
165.830041
21
206.031867
0
LINE
8
boundary
62
5
39
2
10
165.830041
20
206.031867
11
165.549630
21
204.960377
0
LINE
8
boundary
62
5
39
2
10
165.549630
20
204.960377
11
165.367336
21
204.273337
0
LINE
8
boundary
62
5
39
2
10
165.367336
20
204.273337
11
165.125935
21
203.351794
0
LINE
8
boundary
62
5
39
2
10
165.125935
20
203.351794
11
164.897302
21
202.490058
0
LINE
8
boundary
62
5
39
2
10
164.897302
20
202.490058
11
164.702413
21
201.746899
0
LINE
8
boundary
62
5
39
2
10
164.702413
20
201.746899
11
164.428146
21
200.713128
0
LINE
8
boundary
62
5
39
2
10
164.428146
20
200.713128
11
164.279154
21
200.145674
0
LINE
8
boundary
62
5
39
2
10
164.279154
20
200.145674
11
163.959919
21
198.942387
0
LINE
8
boundary
62
5
39
2
10
163.959919
20
198.942387
11
163.492673
21
197.177683
0
LINE
8
boundary
62
5
39
2
10
163.492673
20
197.177683
11
163.026465
21
195.418781
0
LINE
8
boundary
62
5
39
2
10
163.026465
20
195.418781
11
162.871343
21
194.833798
0
LINE
8
boundary
62
5
39
2
10
162.871343
20
194.833798
11
162.588458
21
193.771444
0
LINE
8
boundary
62
5
39
2
10
162.588458
20
193.771444
11
162.164570
21
192.180508
0
LINE
8
boundary
62
5
39
2
10
162.164570
20
192.180508
11
161.741306
21
190.592793
0
LINE
8
boundary
62
5
39
2
10
161.741306
20
190.592793
11
161.596677
21
190.051113
0
LINE
8
boundary
62
5
39
2
10
161.596677
20
190.051113
11
173.209341
21
189.901114
0
LINE
8
boundary
62
5
39
2
10
173.209341
20
189.901114
11
173.209341
21
187.155114
0
LINE
8
boundary
62
5
39
2
10
173.209341
20
187.155114
11
160.824958
21
187.155113
0
LINE
8
boundary
62
5
39
2
10
160.824958
20
187.155113
11
160.476641
21
185.847367
0
LINE
8
boundary
62
5
39
2
10
160.476641
20
185.847367
11
160.245007
21
184.975390
0
LINE
8
boundary
62
5
39
2
10
160.245007
20
184.975390
11
160.057398
21
184.270893
0
LINE
8
boundary
62
5
39
2
10
160.057398
20
184.270893
11
159.787122
21
183.251045
0
LINE
8
boundary
62
5
39
2
10
159.787122
20
183.251045
11
159.639633
21
182.696734
0
LINE
8
boundary
62
5
39
2
10
159.639633
20
182.696734
11
159.331348
21
181.530439
0
LINE
8
boundary
62
5
39
2
10
159.331348
20
181.530439
11
158.877798
21
179.813191
0
LINE
8
boundary
62
5
39
2
10
158.877798
20
179.813191
11
158.426620
21
178.098933
0
LINE
8
boundary
62
5
39
2
10
158.426620
20
178.098933
11
158.075797
21
176.760991
0
LINE
8
boundary
62
5
39
2
10
158.075797
20
176.760991
11
157.573822
21
174.846440
0
LINE
8
boundary
62
5
39
2
10
157.573822
20
174.846440
11
157.164216
21
173.276252
0
LINE
8
boundary
62
5
39
2
10
157.164216
20
173.276252
11
156.756778
21
171.706844
0
LINE
8
boundary
62
5
39
2
10
156.756778
20
171.706844
11
156.620231
21
171.174360
0
LINE
8
boundary
62
5
39
2
10
156.620231
20
171.174360
11
168.272484
21
171.024359
0
LINE
8
boundary
62
5
39
2
10
168.272484
20
171.024359
11
168.272484
21
168.278359
0
LINE
8
boundary
62
5
39
2
10
168.272484
20
168.278359
11
155.875150
21
168.278359
0
LINE
8
boundary
62
5
39
2
10
155.875150
20
168.278359
11
155.360511
21
166.268829
0
LINE
8
boundary
62
5
39
2
10
155.360511
20
166.268829
11
154.902586
21
164.445633
0
LINE
8
boundary
62
5
39
2
10
154.902586
20
164.445633
11
154.626451
21
163.360463
0
LINE
8
boundary
62
5
39
2
10
154.626451
20
163.360463
11
154.047707
21
161.031867
0
LINE
8
boundary
62
5
39
2
10
154.047707
20
161.031867
11
153.900702
21
160.448772
0
LINE
8
boundary
62
5
39
2
10
153.900702
20
160.448772
11
153.202504
21
157.609830
0
LINE
8
boundary
62
5
39
2
10
153.202504
20
157.609830
11
153.073752
21
157.082818
0
LINE
8
boundary
62
5
39
2
10
153.073752
20
157.082818
11
152.464735
21
154.593302
0
LINE
8
boundary
62
5
39
2
10
152.464735
20
154.593302
11
151.910673
21
152.297604
0
LINE
8
boundary
62
5
39
2
10
151.910673
20
152.297604
11
163.728606
21
152.147606
0
LINE
8
boundary
62
5
39
2
10
163.728606
20
152.147606
11
163.728606
21
149.401606
0
LINE
8
boundary
62
5
39
2
10
163.728606
20
149.401606
11
151.218962
21
149.401606
0
LINE
8
boundary
62
5
39
2
10
151.218962
20
149.401606
11
151.047274
21
148.685159
0
LINE
8
boundary
62
5
39
2
10
151.047274
20
148.685159
11
150.712509
21
147.248851
0
LINE
8
boundary
62
5
39
2
10
150.712509
20
147.248851
11
150.348610
21
145.715088
0
LINE
8
boundary
62
5
39
2
10
150.348610
20
145.715088
11
149.894277
21
143.747771
0
LINE
8
boundary
62
5
39
2
10
149.894277
20
143.747771
11
149.655534
21
142.731753
0
LINE
8
boundary
62
5
39
2
10
149.655534
20
142.731753
11
149.078910
21
140.214162
0
LINE
8
boundary
62
5
39
2
10
149.078910
20
140.214162
11
148.371498
21
137.114507
0
LINE
8
boundary
62
5
39
2
10
148.371498
20
137.114507
11
147.588914
21
133.662760
0
LINE
8
boundary
62
5
39
2
10
147.588914
20
133.662760
11
159.515978
21
133.270852
0
LINE
8
boundary
62
5
39
2
10
159.515978
20
133.270852
11
159.515978
21
130.524852
0
LINE
8
boundary
62
5
39
2
10
159.515978
20
130.524852
11
146.886346
21
130.524852
0
LINE
8
boundary
62
5
39
2
10
146.886346
20
130.524852
11
146.424500
21
128.461023
0
LINE
8
boundary
62
5
39
2
10
146.424500
20
128.461023
11
146.129717
21
127.125917
0
LINE
8
boundary
62
5
39
2
10
146.129717
20
127.125917
11
145.852440
21
125.887113
0
LINE
8
boundary
62
5
39
2
10
145.852440
20
125.887113
11
145.462049
21
124.119269
0
LINE
8
boundary
62
5
39
2
10
145.462049
20
124.119269
11
145.277380
21
123.292365
0
LINE
8
boundary
62
5
39
2
10
145.277380
20
123.292365
11
144.785724
21
121.068694
0
LINE
8
boundary
62
5
39
2
10
144.785724
20
121.068694
11
144.191982
21
118.391531
0
LINE
8
boundary
62
5
39
2
10
144.191982
20
118.391531
11
143.521774
21
115.364652
0
LINE
8
boundary
62
5
39
2
10
143.521774
20
115.364652
11
143.402753
21
114.824805
0
LINE
8
boundary
62
5
39
2
10
143.402753
20
114.824805
11
155.535529
21
114.394098
0
LINE
8
boundary
62
5
39
2
10
155.535529
20
114.394098
11
155.535529
21
111.648098
0
LINE
8
boundary
62
5
39
2
10
155.535529
20
111.648098
11
142.698916
21
111.648098
0
LINE
8
boundary
62
5
39
2
10
142.698916
20
111.648098
11
142.327625
21
109.973649
0
LINE
8
boundary
62
5
39
2
10
142.327625
20
109.973649
11
141.979806
21
108.407691
0
LINE
8
boundary
62
5
39
2
10
141.979806
20
108.407691
11
141.723945
21
107.253825
0
LINE
8
boundary
62
5
39
2
10
141.723945
20
107.253825
11
141.253462
21
105.141584
0
LINE
8
boundary
62
5
39
2
10
141.253462
20
105.141584
11
141.115602
21
104.519640
0
LINE
8
boundary
62
5
39
2
10
141.115602
20
104.519640
11
140.517587
21
101.840948
0
LINE
8
boundary
62
5
39
2
10
140.517587
20
101.840948
11
139.446289
21
97.014458
0
LINE
8
boundary
62
5
39
2
10
139.446289
20
97.014458
11
139.144664
21
95.667344
0
LINE
8
boundary
62
5
39
2
10
139.144664
20
95.667344
11
151.789080
21
95.517345
0
LINE
8
boundary
62
5
39
2
10
151.789080
20
95.517345
11
151.789080
21
92.771344
0
LINE
8
boundary
62
5
39
2
10
151.789080
20
92.771344
11
138.501585
21
92.771344
0
LINE
8
boundary
62
5
39
2
10
138.501585
20
92.771344
11
137.518427
21
88.391810
0
LINE
8
boundary
62
5
39
2
10
137.518427
20
88.391810
11
137.354346
21
87.649262
0
LINE
8
boundary
62
5
39
2
10
137.354346
20
87.649262
11
136.991266
21
86.036197
0
LINE
8
boundary
62
5
39
2
10
136.991266
20
86.036197
11
136.317880
21
83.002351
0
LINE
8
boundary
62
5
39
2
10
136.317880
20
83.002351
11
136.002409
21
81.600572
0
LINE
8
boundary
62
5
39
2
10
136.002409
20
81.600572
11
135.669574
21
80.099298
0
LINE
8
boundary
62
5
39
2
10
135.669574
20
80.099298
11
135.435720
21
79.058160
0
LINE
8
boundary
62
5
39
2
10
135.435720
20
79.058160
11
135.189184
21
77.943861
0
LINE
8
boundary
62
5
39
2
10
135.189184
20
77.943861
11
134.930414
21
76.790590
0
LINE
8
boundary
62
5
39
2
10
134.930414
20
76.790590
11
148.364574
21
76.640591
0
LINE
8
boundary
62
5
39
2
10
148.364574
20
76.640591
11
148.364573
21
73.894591
0
LINE
8
boundary
62
5
39
2
10
148.364573
20
73.894591
11
134.284355
21
73.894591
0
LINE
8
boundary
62
5
39
2
10
134.284355
20
73.894591
11
133.820475
21
71.815560
0
LINE
8
boundary
62
5
39
2
10
133.820475
20
71.815560
11
133.290097
21
69.422666
0
LINE
8
boundary
62
5
39
2
10
133.290097
20
69.422666
11
132.828234
21
67.335265
0
LINE
8
boundary
62
5
39
2
10
132.828234
20
67.335265
11
132.647297
21
66.525278
0
LINE
8
boundary
62
5
39
2
10
132.647297
20
66.525278
11
132.370384
21
65.262936
0
LINE
8
boundary
62
5
39
2
10
132.370384
20
65.262936
11
132.107733
21
64.081968
0
LINE
8
boundary
62
5
39
2
10
132.107733
20
64.081968
11
131.916935
21
63.206972
0
LINE
8
boundary
62
5
39
2
10
131.916935
20
63.206972
11
131.575111
21
61.661944
0
LINE
8
boundary
62
5
39
2
10
131.575111
20
61.661944
11
131.050358
21
59.267954
0
LINE
8
boundary
62
5
39
2
10
131.050358
20
59.267954
11
130.884915
21
58.508262
0
LINE
8
boundary
62
5
39
2
10
130.884915
20
58.508262
11
130.755111
21
57.913837
0
LINE
8
boundary
62
5
39
2
10
130.755111
20
57.913837
11
145.005123
21
57.763837
0
LINE
8
boundary
62
5
39
2
10
145.005123
20
57.763837
11
145.005124
21
55.017837
0
LINE
8
boundary
62
5
39
2
10
145.005124
20
55.017837
11
130.125561
21
55.017837
0
LINE
8
boundary
62
5
39
2
10
130.125561
20
55.017837
11
129.757858
21
53.308095
0
LINE
8
boundary
62
5
39
2
10
129.757858
20
53.308095
11
129.559598
21
52.392712
0
LINE
8
boundary
62
5
39
2
10
129.559598
20
52.392712
11
129.353018
21
51.415759
0
LINE
8
boundary
62
5
39
2
10
129.353018
20
51.415759
11
129.088547
21
50.180557
0
LINE
8
boundary
62
5
39
2
10
129.088547
20
50.180557
11
128.957352
21
49.551544
0
LINE
8
boundary
62
5
39
2
10
128.957352
20
49.551544
11
128.631643
21
48.010284
0
LINE
8
boundary
62
5
39
2
10
128.631643
20
48.010284
11
128.229673
21
46.075466
0
LINE
8
boundary
62
5
39
2
10
128.229673
20
46.075466
11
127.775053
21
43.872195
0
LINE
8
boundary
62
5
39
2
10
127.775053
20
43.872195
11
127.482072
21
42.409096
0
LINE
8
boundary
62
5
39
2
10
127.482072
20
42.409096
11
127.371577
21
41.866855
0
LINE
8
boundary
62
5
39
2
10
127.371577
20
41.866855
11
127.134447
21
40.664260
0
LINE
8
boundary
62
5
39
2
10
127.134447
20
40.664260
11
126.991644
21
39.945402
0
LINE
8
boundary
62
5
39
2
10
126.991644
20
39.945402
11
126.836266
21
39.135431
0
LINE
8
boundary
62
5
39
2
10
126.836266
20
39.135431
11
141.236126
21
38.887083
0
LINE
8
boundary
62
5
39
2
10
141.236126
20
38.887083
11
141.236127
21
36.141083
0
LINE
8
boundary
62
5
39
2
10
141.236127
20
36.141083
11
126.270183
21
36.141083
0
LINE
8
boundary
62
5
39
2
10
126.270183
20
36.141083
11
126.017861
21
34.752972
0
LINE
8
boundary
62
5
39
2
10
126.017861
20
34.752972
11
125.775303
21
33.374591
0
LINE
8
boundary
62
5
39
2
10
125.775303
20
33.374591
11
125.680038
21
32.832897
0
LINE
8
boundary
62
5
39
2
10
125.680038
20
32.832897
11
125.546193
21
32.026623
0
LINE
8
boundary
62
5
39
2
10
125.546193
20
32.026623
11
125.407997
21
31.202016
0
LINE
8
boundary
62
5
39
2
10
125.407997
20
31.202016
11
125.158348
21
29.620554
0
LINE
8
boundary
62
5
39
2
10
125.158348
20
29.620554
11
124.997205
21
28.516836
0
LINE
8
boundary
62
5
39
2
10
124.997205
20
28.516836
11
124.893159
21
27.810688
0
LINE
8
boundary
62
5
39
2
10
124.893159
20
27.810688
11
124.693732
21
26.317856
0
LINE
8
boundary
62
5
39
2
10
124.693732
20
26.317856
11
124.613628
21
25.717362
0
LINE
8
boundary
62
5
39
2
10
124.613628
20
25.717362
11
124.518113
21
24.869912
0
LINE
8
boundary
62
5
39
2
10
124.518113
20
24.869912
11
124.407030
21
23.906948
0
LINE
8
boundary
62
5
39
2
10
124.407030
20
23.906948
11
124.245064
21
22.180679
0
LINE
8
boundary
62
5
39
2
10
124.245064
20
22.180679
11
124.150061
21
20.823776
0
LINE
8
boundary
62
5
39
2
10
124.150061
20
20.823776
11
124.114386
21
20.160329
0
LINE
8
boundary
62
5
39
2
10
124.114386
20
20.160329
11
135.955346
21
20.010329
0
LINE
8
boundary
62
5
39
2
10
135.955346
20
20.010329
11
135.955346
21
17.264330
0
LINE
8
boundary
62
5
39
2
10
135.955346
20
17.264330
11
124.073342
21
17.264329
0
LINE
8
boundary
62
5
39
2
10
124.073342
20
17.264329
11
124.082148
21
16.266472
0
LINE
8
boundary
62
5
39
2
10
124.082148
20
16.266472
11
124.120819
21
15.694765
0
LINE
8
boundary
62
5
39
2
10
124.120819
20
15.694765
11
124.160570
21
15.132629
0
LINE
8
boundary
62
5
39
2
10
124.160570
20
15.132629
11
124.273000
21
14.163035
0
LINE
8
boundary
62
5
39
2
10
124.273000
20
14.163035
11
124.422317
21
13.238912
0
LINE
8
boundary
62
5
39
2
10
124.422317
20
13.238912
11
124.610460
21
12.361441
0
LINE
8
boundary
62
5
39
2
10
124.610460
20
12.361441
11
124.753973
21
11.771732
0
LINE
8
boundary
62
5
39
2
10
124.753973
20
11.771732
11
125.065002
21
10.852672
0
LINE
8
boundary
62
5
39
2
10
125.065002
20
10.852672
11
125.402932
21
10.094883
0
LINE
8
boundary
62
5
39
2
10
125.402932
20
10.094883
11
125.816890
21
9.389897
0
LINE
8
boundary
62
5
39
2
10
125.816890
20
9.389897
11
126.254629
21
8.807236
0
LINE
8
boundary
62
5
39
2
10
126.254629
20
8.807236
11
126.750182
21
8.284875
0
LINE
8
boundary
62
5
39
2
10
126.750182
20
8.284875
11
127.307971
21
7.826963
0
LINE
8
boundary
62
5
39
2
10
127.307971
20
7.826963
11
127.932331
21
7.438178
0
LINE
8
boundary
62
5
39
2
10
127.932331
20
7.438178
11
128.625572
21
7.123470
0
LINE
8
boundary
62
5
39
2
10
128.625572
20
7.123470
11
129.387709
21
6.887926
0
LINE
8
boundary
62
5
39
2
10
129.387709
20
6.887926
11
129.926578
21
6.758799
0
LINE
8
boundary
62
5
39
2
10
129.926578
20
6.758799
11
130.829774
21
6.667500
0
LINE
8
boundary
62
5
39
2
10
130.829774
20
6.667500
11
131.785788
21
6.675548
0
LINE
8
boundary
62
5
39
2
10
131.785788
20
6.675548
11
132.789348
21
6.784706
0
LINE
8
boundary
62
5
39
2
10
132.789348
20
6.784706
11
133.835171
21
6.996750
0
LINE
8
boundary
62
5
39
2
10
133.835171
20
6.996750
11
134.917948
21
7.313436
0
LINE
8
boundary
62
5
39
2
10
134.917948
20
7.313436
11
136.032369
21
7.736486
0
LINE
8
boundary
62
5
39
2
10
136.032369
20
7.736486
11
136.571716
21
7.993800
0
LINE
8
boundary
62
5
39
2
10
136.571716
20
7.993800
11
137.173105
21
8.267608
0
LINE
8
boundary
62
5
39
2
10
137.173105
20
8.267608
11
137.843159
21
8.642947
0
LINE
8
boundary
62
5
39
2
10
137.843159
20
8.642947
11
138.334830
21
8.908472
0
LINE
8
boundary
62
5
39
2
10
138.334830
20
8.908472
11
139.168202
21
9.445420
0
LINE
8
boundary
62
5
39
2
10
139.168202
20
9.445420
11
139.512225
21
9.660691
0
LINE
8
annotation
62
1
39
211
10
142.616950
20
21.037329
11
142.616950
21
21.037329
0
LINE
8
annotation
62
1
39
211
10
142.616950
20
21.037329
11
142.311597
21
20.922840
0
LINE
8
annotation
62
1
39
211
10
142.311597
20
20.922840
11
142.031396
21
20.768580
0
LINE
8
annotation
62
1
39
211
10
142.031396
20
20.768580
11
141.779223
21
20.578414
0
LINE
8
annotation
62
1
39
211
10
141.779223
20
20.578414
11
141.557954
21
20.356206
0
LINE
8
annotation
62
1
39
211
10
141.557954
20
20.356206
11
141.370465
21
20.105821
0
LINE
8
annotation
62
1
39
211
10
141.370465
20
20.105821
11
141.219634
21
19.831125
0
LINE
8
annotation
62
1
39
211
10
141.219634
20
19.831125
11
141.108336
21
19.535982
0
LINE
8
annotation
62
1
39
211
10
141.108336
20
19.535982
11
141.039448
21
19.224257
0
LINE
8
annotation
62
1
39
211
10
141.039448
20
19.224257
11
141.015846
21
18.899815
0
LINE
8
annotation
62
1
39
211
10
141.015846
20
18.899815
11
141.015846
21
17.304431
0
LINE
8
annotation
62
1
39
211
10
141.015846
20
17.304431
11
141.015846
21
17.304431
0
LINE
8
annotation
62
1
39
211
10
141.015846
20
17.304431
11
141.033055
21
17.112685
0
LINE
8
annotation
62
1
39
211
10
141.033055
20
17.112685
11
141.082658
21
16.932188
0
LINE
8
annotation
62
1
39
211
10
141.082658
20
16.932188
11
141.161616
21
16.765958
0
LINE
8
annotation
62
1
39
211
10
141.161616
20
16.765958
11
141.266893
21
16.617016
0
LINE
8
annotation
62
1
39
211
10
141.266893
20
16.617016
11
141.395450
21
16.488382
0
LINE
8
annotation
62
1
39
211
10
141.395450
20
16.488382
11
141.544252
21
16.383077
0
LINE
8
annotation
62
1
39
211
10
141.544252
20
16.383077
11
141.710259
21
16.304119
0
LINE
8
annotation
62
1
39
211
10
141.710259
20
16.304119
11
141.890436
21
16.254530
0
LINE
8
annotation
62
1
39
211
10
141.890436
20
16.254530
11
142.081744
21
16.237329
0
LINE
8
annotation
62
1
39
211
10
142.081744
20
16.237329
11
142.081744
21
16.237329
0
LINE
8
annotation
62
1
39
211
10
142.081744
20
16.237329
11
142.273448
21
16.254530
0
LINE
8
annotation
62
1
39
211
10
142.273448
20
16.254530
11
142.453835
21
16.304119
0
LINE
8
annotation
62
1
39
211
10
142.453835
20
16.304119
11
142.619904
21
16.383077
0
LINE
8
annotation
62
1
39
211
10
142.619904
20
16.383077
11
142.768656
21
16.488382
0
LINE
8
annotation
62
1
39
211
10
142.768656
20
16.488382
11
142.897090
21
16.617016
0
LINE
8
annotation
62
1
39
211
10
142.897090
20
16.617016
11
143.002206
21
16.765958
0
LINE
8
annotation
62
1
39
211
10
143.002206
20
16.765958
11
143.081003
21
16.932188
0
LINE
8
annotation
62
1
39
211
10
143.081003
20
16.932188
11
143.130481
21
17.112685
0
LINE
8
annotation
62
1
39
211
10
143.130481
20
17.112685
11
143.147641
21
17.304431
0
LINE
8
annotation
62
1
39
211
10
143.147641
20
17.304431
11
143.147641
21
17.835423
0
LINE
8
annotation
62
1
39
211
10
143.147641
20
17.835423
11
143.147641
21
17.835423
0
LINE
8
annotation
62
1
39
211
10
143.147641
20
17.835423
11
143.130481
21
18.027075
0
LINE
8
annotation
62
1
39
211
10
143.130481
20
18.027075
11
143.081003
21
18.207324
0
LINE
8
annotation
62
1
39
211
10
143.081003
20
18.207324
11
143.002206
21
18.373193
0
LINE
8
annotation
62
1
39
211
10
143.002206
20
18.373193
11
142.897090
21
18.521708
0
LINE
8
annotation
62
1
39
211
10
142.897090
20
18.521708
11
142.768656
21
18.649892
0
LINE
8
annotation
62
1
39
211
10
142.768656
20
18.649892
11
142.619904
21
18.754770
0
LINE
8
annotation
62
1
39
211
10
142.619904
20
18.754770
11
142.453835
21
18.833367
0
LINE
8
annotation
62
1
39
211
10
142.453835
20
18.833367
11
142.273448
21
18.882707
0
LINE
8
annotation
62
1
39
211
10
142.273448
20
18.882707
11
142.081744
21
18.899815
0
LINE
8
annotation
62
1
39
211
10
142.081744
20
18.899815
11
141.015846
21
18.899815
0
LINE
8
annotation
62
1
39
211
10
140.882346
20
15.637329
11
143.282346
21
15.637329
0
LINE
8
annotation
62
1
39
211
10
147.362524
20
35.114083
11
148.429626
21
39.914083
0
LINE
8
annotation
62
1
39
211
10
148.429626
20
39.914083
11
146.295122
21
39.914083
0
LINE
8
annotation
62
1
39
211
10
148.429626
20
37.776569
11
147.362524
21
37.776569
0
LINE
8
annotation
62
1
39
211
10
150.065624
20
55.055079
11
150.065624
21
55.055079
0
LINE
8
annotation
62
1
39
211
10
150.065624
20
55.055079
11
150.082833
21
54.863426
0
LINE
8
annotation
62
1
39
211
10
150.082833
20
54.863426
11
150.132436
21
54.683177
0
LINE
8
annotation
62
1
39
211
10
150.132436
20
54.683177
11
150.211394
21
54.517308
0
LINE
8
annotation
62
1
39
211
10
150.211394
20
54.517308
11
150.316671
21
54.368794
0
LINE
8
annotation
62
1
39
211
10
150.316671
20
54.368794
11
150.445228
21
54.240610
0
LINE
8
annotation
62
1
39
211
10
150.445228
20
54.240610
11
150.594030
21
54.135731
0
LINE
8
annotation
62
1
39
211
10
150.594030
20
54.135731
11
150.760037
21
54.057134
0
LINE
8
annotation
62
1
39
211
10
150.760037
20
54.057134
11
150.940214
21
54.007794
0
LINE
8
annotation
62
1
39
211
10
150.940214
20
54.007794
11
151.131522
21
53.990686
0
LINE
8
annotation
62
1
39
211
10
151.131522
20
53.990686
11
151.131522
21
53.990686
0
LINE
8
annotation
62
1
39
211
10
151.131522
20
53.990686
11
151.322829
21
54.007794
0
LINE
8
annotation
62
1
39
211
10
151.322829
20
54.007794
11
151.503006
21
54.057134
0
LINE
8
annotation
62
1
39
211
10
151.503006
20
54.057134
11
151.669013
21
54.135731
0
LINE
8
annotation
62
1
39
211
10
151.669013
20
54.135731
11
151.817815
21
54.240610
0
LINE
8
annotation
62
1
39
211
10
151.817815
20
54.240610
11
151.946372
21
54.368794
0
LINE
8
annotation
62
1
39
211
10
151.946372
20
54.368794
11
152.051649
21
54.517308
0
LINE
8
annotation
62
1
39
211
10
152.051649
20
54.517308
11
152.130607
21
54.683177
0
LINE
8
annotation
62
1
39
211
10
152.130607
20
54.683177
11
152.180210
21
54.863426
0
LINE
8
annotation
62
1
39
211
10
152.180210
20
54.863426
11
152.197419
21
55.055079
0
LINE
8
annotation
62
1
39
211
10
152.197419
20
55.055079
11
152.197419
21
55.586071
0
LINE
8
annotation
62
1
39
211
10
152.197419
20
55.586071
11
152.197419
21
55.586071
0
LINE
8
annotation
62
1
39
211
10
152.197419
20
55.586071
11
152.180220
21
55.777816
0
LINE
8
annotation
62
1
39
211
10
152.180220
20
55.777816
11
152.130642
21
55.958314
0
LINE
8
annotation
62
1
39
211
10
152.130642
20
55.958314
11
152.051716
21
56.124544
0
LINE
8
annotation
62
1
39
211
10
152.051716
20
56.124544
11
151.946472
21
56.273485
0
LINE
8
annotation
62
1
39
211
10
151.946472
20
56.273485
11
151.817939
21
56.402119
0
LINE
8
annotation
62
1
39
211
10
151.817939
20
56.402119
11
151.669147
21
56.507425
0
LINE
8
annotation
62
1
39
211
10
151.669147
20
56.507425
11
151.503127
21
56.586382
0
LINE
8
annotation
62
1
39
211
10
151.503127
20
56.586382
11
151.322909
21
56.635971
0
LINE
8
annotation
62
1
39
211
10
151.322909
20
56.635971
11
151.131522
21
56.653172
0
LINE
8
annotation
62
1
39
211
10
151.131522
20
56.653172
11
151.131522
21
56.653172
0
LINE
8
annotation
62
1
39
211
10
151.131522
20
56.653172
11
150.940134
21
56.635961
0
LINE
8
annotation
62
1
39
211
10
150.940134
20
56.635961
11
150.759916
21
56.586348
0
LINE
8
annotation
62
1
39
211
10
150.759916
20
56.586348
11
150.593896
21
56.507358
0
LINE
8
annotation
62
1
39
211
10
150.593896
20
56.507358
11
150.445104
21
56.402020
0
LINE
8
annotation
62
1
39
211
10
150.445104
20
56.402020
11
150.316571
21
56.273362
0
LINE
8
annotation
62
1
39
211
10
150.316571
20
56.273362
11
150.211327
21
56.124410
0
LINE
8
annotation
62
1
39
211
10
150.211327
20
56.124410
11
150.132401
21
55.958193
0
LINE
8
annotation
62
1
39
211
10
150.132401
20
55.958193
11
150.082823
21
55.777737
0
LINE
8
annotation
62
1
39
211
10
150.082823
20
55.777737
11
150.065624
21
55.586071
0
LINE
8
annotation
62
1
39
211
10
150.065624
20
55.586071
11
150.065624
21
55.055079
0
LINE
8
annotation
62
1
39
211
10
152.197419
20
57.720575
11
152.197419
21
57.720575
0
LINE
8
annotation
62
1
39
211
10
152.197419
20
57.720575
11
152.180220
21
57.911435
0
LINE
8
annotation
62
1
39
211
10
152.180220
20
57.911435
11
152.130642
21
58.091262
0
LINE
8
annotation
62
1
39
211
10
152.130642
20
58.091262
11
152.051716
21
58.257007
0
LINE
8
annotation
62
1
39
211
10
152.051716
20
58.257007
11
151.946472
21
58.405621
0
LINE
8
annotation
62
1
39
211
10
151.946472
20
58.405621
11
151.817939
21
58.534053
0
LINE
8
annotation
62
1
39
211
10
151.817939
20
58.534053
11
151.669147
21
58.639253
0
LINE
8
annotation
62
1
39
211
10
151.669147
20
58.639253
11
151.503127
21
58.718172
0
LINE
8
annotation
62
1
39
211
10
151.503127
20
58.718172
11
151.322909
21
58.767760
0
LINE
8
annotation
62
1
39
211
10
151.322909
20
58.767760
11
151.131522
21
58.784967
0
LINE
8
annotation
62
1
39
211
10
151.131522
20
58.784967
11
151.131522
21
58.784967
0
LINE
8
annotation
62
1
39
211
10
151.131522
20
58.784967
11
150.940134
21
58.767760
0
LINE
8
annotation
62
1
39
211
10
150.940134
20
58.767760
11
150.759916
21
58.718172
0
LINE
8
annotation
62
1
39
211
10
150.759916
20
58.718172
11
150.593896
21
58.639253
0
LINE
8
annotation
62
1
39
211
10
150.593896
20
58.639253
11
150.445104
21
58.534053
0
LINE
8
annotation
62
1
39
211
10
150.445104
20
58.534053
11
150.316571
21
58.405621
0
LINE
8
annotation
62
1
39
211
10
150.316571
20
58.405621
11
150.211327
21
58.257007
0
LINE
8
annotation
62
1
39
211
10
150.211327
20
58.257007
11
150.132401
21
58.091262
0
LINE
8
annotation
62
1
39
211
10
150.132401
20
58.091262
11
150.082823
21
57.911435
0
LINE
8
annotation
62
1
39
211
10
150.082823
20
57.911435
11
150.065624
21
57.720575
0
LINE
8
annotation
62
1
39
211
10
150.065624
20
57.720575
11
150.065624
21
57.720575
0
LINE
8
annotation
62
1
39
211
10
150.065624
20
57.720575
11
150.082833
21
57.528819
0
LINE
8
annotation
62
1
39
211
10
150.082833
20
57.528819
11
150.132436
21
57.348294
0
LINE
8
annotation
62
1
39
211
10
150.132436
20
57.348294
11
150.211394
21
57.182024
0
LINE
8
annotation
62
1
39
211
10
150.211394
20
57.182024
11
150.316671
21
57.033035
0
LINE
8
annotation
62
1
39
211
10
150.316671
20
57.033035
11
150.445228
21
56.904351
0
LINE
8
annotation
62
1
39
211
10
150.445228
20
56.904351
11
150.594030
21
56.798998
0
LINE
8
annotation
62
1
39
211
10
150.594030
20
56.798998
11
150.760037
21
56.720000
0
LINE
8
annotation
62
1
39
211
10
150.760037
20
56.720000
11
150.940214
21
56.670383
0
LINE
8
annotation
62
1
39
211
10
150.940214
20
56.670383
11
151.131522
21
56.653172
0
LINE
8
annotation
62
1
39
211
10
151.131522
20
56.653172
11
151.131522
21
56.653172
0
LINE
8
annotation
62
1
39
211
10
151.131522
20
56.653172
11
151.322829
21
56.670383
0
LINE
8
annotation
62
1
39
211
10
151.322829
20
56.670383
11
151.503006
21
56.720000
0
LINE
8
annotation
62
1
39
211
10
151.503006
20
56.720000
11
151.669013
21
56.798998
0
LINE
8
annotation
62
1
39
211
10
151.669013
20
56.798998
11
151.817815
21
56.904351
0
LINE
8
annotation
62
1
39
211
10
151.817815
20
56.904351
11
151.946372
21
57.033035
0
LINE
8
annotation
62
1
39
211
10
151.946372
20
57.033035
11
152.051649
21
57.182024
0
LINE
8
annotation
62
1
39
211
10
152.051649
20
57.182024
11
152.130607
21
57.348294
0
LINE
8
annotation
62
1
39
211
10
152.130607
20
57.348294
11
152.180210
21
57.528819
0
LINE
8
annotation
62
1
39
211
10
152.180210
20
57.528819
11
152.197419
21
57.720575
0
LINE
8
annotation
62
1
39
211
10
153.957270
20
72.867591
11
153.957270
21
72.867591
0
LINE
8
annotation
62
1
39
211
10
153.957270
20
72.867591
11
154.262085
21
72.981180
0
LINE
8
annotation
62
1
39
211
10
154.262085
20
72.981180
11
154.541868
21
73.134716
0
LINE
8
annotation
62
1
39
211
10
154.541868
20
73.134716
11
154.793727
21
73.324288
0
LINE
8
annotation
62
1
39
211
10
154.793727
20
73.324288
11
155.014770
21
73.545982
0
LINE
8
annotation
62
1
39
211
10
155.014770
20
73.545982
11
155.202107
21
73.795888
0
LINE
8
annotation
62
1
39
211
10
155.202107
20
73.795888
11
155.352847
21
74.070094
0
LINE
8
annotation
62
1
39
211
10
155.352847
20
74.070094
11
155.464098
21
74.364686
0
LINE
8
annotation
62
1
39
211
10
155.464098
20
74.364686
11
155.532969
21
74.675754
0
LINE
8
annotation
62
1
39
211
10
155.532969
20
74.675754
11
155.556568
21
74.999385
0
LINE
8
annotation
62
1
39
211
10
155.556568
20
74.999385
11
155.556568
21
76.600188
0
LINE
8
annotation
62
1
39
211
10
155.556568
20
76.600188
11
155.556568
21
76.600188
0
LINE
8
annotation
62
1
39
211
10
155.556568
20
76.600188
11
155.539408
21
76.791944
0
LINE
8
annotation
62
1
39
211
10
155.539408
20
76.791944
11
155.489930
21
76.972469
0
LINE
8
annotation
62
1
39
211
10
155.489930
20
76.972469
11
155.411133
21
77.138739
0
LINE
8
annotation
62
1
39
211
10
155.411133
20
77.138739
11
155.306017
21
77.287728
0
LINE
8
annotation
62
1
39
211
10
155.306017
20
77.287728
11
155.177583
21
77.416412
0
LINE
8
annotation
62
1
39
211
10
155.177583
20
77.416412
11
155.028831
21
77.521765
0
LINE
8
annotation
62
1
39
211
10
155.028831
20
77.521765
11
154.862762
21
77.600763
0
LINE
8
annotation
62
1
39
211
10
154.862762
20
77.600763
11
154.682375
21
77.650379
0
LINE
8
annotation
62
1
39
211
10
154.682375
20
77.650379
11
154.490671
21
77.667591
0
LINE
8
annotation
62
1
39
211
10
154.490671
20
77.667591
11
154.490671
21
77.667591
0
LINE
8
annotation
62
1
39
211
10
154.490671
20
77.667591
11
154.299363
21
77.650379
0
LINE
8
annotation
62
1
39
211
10
154.299363
20
77.650379
11
154.119186
21
77.600763
0
LINE
8
annotation
62
1
39
211
10
154.119186
20
77.600763
11
153.953179
21
77.521765
0
LINE
8
annotation
62
1
39
211
10
153.953179
20
77.521765
11
153.804377
21
77.416412
0
LINE
8
annotation
62
1
39
211
10
153.804377
20
77.416412
11
153.675820
21
77.287728
0
LINE
8
annotation
62
1
39
211
10
153.675820
20
77.287728
11
153.570543
21
77.138739
0
LINE
8
annotation
62
1
39
211
10
153.570543
20
77.138739
11
153.491585
21
76.972469
0
LINE
8
annotation
62
1
39
211
10
153.491585
20
76.972469
11
153.441982
21
76.791944
0
LINE
8
annotation
62
1
39
211
10
153.441982
20
76.791944
11
153.424773
21
76.600188
0
LINE
8
annotation
62
1
39
211
10
153.424773
20
76.600188
11
153.424773
21
76.066487
0
LINE
8
annotation
62
1
39
211
10
153.424773
20
76.066487
11
153.424773
21
76.066487
0
LINE
8
annotation
62
1
39
211
10
153.424773
20
76.066487
11
153.441982
21
75.874741
0
LINE
8
annotation
62
1
39
211
10
153.441982
20
75.874741
11
153.491585
21
75.694244
0
LINE
8
annotation
62
1
39
211
10
153.491585
20
75.694244
11
153.570543
21
75.528014
0
LINE
8
annotation
62
1
39
211
10
153.570543
20
75.528014
11
153.675820
21
75.379072
0
LINE
8
annotation
62
1
39
211
10
153.675820
20
75.379072
11
153.804377
21
75.250439
0
LINE
8
annotation
62
1
39
211
10
153.804377
20
75.250439
11
153.953179
21
75.145133
0
LINE
8
annotation
62
1
39
211
10
153.953179
20
75.145133
11
154.119186
21
75.066175
0
LINE
8
annotation
62
1
39
211
10
154.119186
20
75.066175
11
154.299363
21
75.016586
0
LINE
8
annotation
62
1
39
211
10
154.299363
20
75.016586
11
154.490671
21
74.999385
0
LINE
8
annotation
62
1
39
211
10
154.490671
20
74.999385
11
155.556568
21
74.999385
0
LINE
8
annotation
62
1
39
211
10
153.291574
20
72.267591
11
155.691574
21
72.267591
0
LINE
8
annotation
62
1
39
211
10
156.542223
20
91.835485
11
156.542223
21
96.453204
0
LINE
8
annotation
62
1
39
211
10
156.542223
20
96.453204
11
155.515645
21
95.426337
0
LINE
8
annotation
62
1
39
211
10
159.015452
20
91.896394
11
159.015452
21
91.896394
0
LINE
8
annotation
62
1
39
211
10
159.015452
20
91.896394
11
159.122773
21
91.856274
0
LINE
8
annotation
62
1
39
211
10
159.122773
20
91.856274
11
159.232841
21
91.836342
0
LINE
8
annotation
62
1
39
211
10
159.232841
20
91.836342
11
159.343165
21
91.835785
0
LINE
8
annotation
62
1
39
211
10
159.343165
20
91.835785
11
159.451259
21
91.853790
0
LINE
8
annotation
62
1
39
211
10
159.451259
20
91.853790
11
159.554634
21
91.889544
0
LINE
8
annotation
62
1
39
211
10
159.554634
20
91.889544
11
159.650801
21
91.942234
0
LINE
8
annotation
62
1
39
211
10
159.650801
20
91.942234
11
159.737272
21
92.011048
0
LINE
8
annotation
62
1
39
211
10
159.737272
20
92.011048
11
159.811560
21
92.095174
0
LINE
8
annotation
62
1
39
211
10
159.811560
20
92.095174
11
159.871175
21
92.193798
0
LINE
8
annotation
62
1
39
211
10
159.871175
20
92.193798
11
159.871175
21
92.193798
0
LINE
8
annotation
62
1
39
211
10
159.871175
20
92.193798
11
160.049044
21
92.610145
0
LINE
8
annotation
62
1
39
211
10
160.049044
20
92.610145
11
160.182447
21
93.038542
0
LINE
8
annotation
62
1
39
211
10
160.182447
20
93.038542
11
160.271381
21
93.475575
0
LINE
8
annotation
62
1
39
211
10
160.271381
20
93.475575
11
160.315849
21
93.917828
0
LINE
8
annotation
62
1
39
211
10
160.315849
20
93.917828
11
160.315849
21
94.361884
0
LINE
8
annotation
62
1
39
211
10
160.315849
20
94.361884
11
160.271381
21
94.804330
0
LINE
8
annotation
62
1
39
211
10
160.271381
20
94.804330
11
160.182447
21
95.241749
0
LINE
8
annotation
62
1
39
211
10
160.182447
20
95.241749
11
160.049044
21
95.670725
0
LINE
8
annotation
62
1
39
211
10
160.049044
20
95.670725
11
159.871175
21
96.087845
0
LINE
8
annotation
62
1
39
211
10
159.871175
20
96.087845
11
159.871175
21
96.087845
0
LINE
8
annotation
62
1
39
211
10
159.871175
20
96.087845
11
159.848555
21
96.129941
0
LINE
8
annotation
62
1
39
211
10
159.848555
20
96.129941
11
159.822911
21
96.170188
0
LINE
8
annotation
62
1
39
211
10
159.822911
20
96.170188
11
159.794435
21
96.208387
0
LINE
8
annotation
62
1
39
211
10
159.794435
20
96.208387
11
159.763321
21
96.244341
0
LINE
8
annotation
62
1
39
211
10
159.763321
20
96.244341
11
159.729761
21
96.277853
0
LINE
8
annotation
62
1
39
211
10
159.729761
20
96.277853
11
159.693949
21
96.308723
0
LINE
8
annotation
62
1
39
211
10
159.693949
20
96.308723
11
159.656078
21
96.336755
0
LINE
8
annotation
62
1
39
211
10
159.656078
20
96.336755
11
159.616340
21
96.361750
0
LINE
8
annotation
62
1
39
211
10
159.616340
20
96.361750
11
159.574930
21
96.383511
0
LINE
8
annotation
62
1
39
211
10
159.574930
20
96.383511
11
159.574930
21
96.383511
0
LINE
8
annotation
62
1
39
211
10
159.574930
20
96.383511
11
159.466756
21
96.424500
0
LINE
8
annotation
62
1
39
211
10
159.466756
20
96.424500
11
159.356044
21
96.445113
0
LINE
8
annotation
62
1
39
211
10
159.356044
20
96.445113
11
159.245254
21
96.446168
0
LINE
8
annotation
62
1
39
211
10
159.245254
20
96.446168
11
159.136844
21
96.428483
0
LINE
8
annotation
62
1
39
211
10
159.136844
20
96.428483
11
159.033275
21
96.392874
0
LINE
8
annotation
62
1
39
211
10
159.033275
20
96.392874
11
158.937007
21
96.340159
0
LINE
8
annotation
62
1
39
211
10
158.937007
20
96.340159
11
158.850498
21
96.271156
0
LINE
8
annotation
62
1
39
211
10
158.850498
20
96.271156
11
158.776210
21
96.186682
0
LINE
8
annotation
62
1
39
211
10
158.776210
20
96.186682
11
158.716600
21
96.087555
0
LINE
8
annotation
62
1
39
211
10
158.716600
20
96.087555
11
158.716600
21
96.087555
0
LINE
8
annotation
62
1
39
211
10
158.716600
20
96.087555
11
158.539589
21
95.671294
0
LINE
8
annotation
62
1
39
211
10
158.539589
20
95.671294
11
158.406830
21
95.242961
0
LINE
8
annotation
62
1
39
211
10
158.406830
20
95.242961
11
158.318325
21
94.805971
0
LINE
8
annotation
62
1
39
211
10
158.318325
20
94.805971
11
158.274072
21
94.363740
0
LINE
8
annotation
62
1
39
211
10
158.274072
20
94.363740
11
158.274072
21
93.919683
0
LINE
8
annotation
62
1
39
211
10
158.274072
20
93.919683
11
158.318325
21
93.477216
0
LINE
8
annotation
62
1
39
211
10
158.318325
20
93.477216
11
158.406830
21
93.039754
0
LINE
8
annotation
62
1
39
211
10
158.406830
20
93.039754
11
158.539589
21
92.610713
0
LINE
8
annotation
62
1
39
211
10
158.539589
20
92.610713
11
158.716600
21
92.193508
0
LINE
8
annotation
62
1
39
211
10
158.716600
20
92.193508
11
158.716600
21
92.193508
0
LINE
8
annotation
62
1
39
211
10
158.716600
20
92.193508
11
158.739138
21
92.151496
0
LINE
8
annotation
62
1
39
211
10
158.739138
20
92.151496
11
158.764593
21
92.111449
0
LINE
8
annotation
62
1
39
211
10
158.764593
20
92.111449
11
158.792858
21
92.073491
0
LINE
8
annotation
62
1
39
211
10
158.792858
20
92.073491
11
158.823825
21
92.037742
0
LINE
8
annotation
62
1
39
211
10
158.823825
20
92.037742
11
158.857389
21
92.004324
0
LINE
8
annotation
62
1
39
211
10
158.857389
20
92.004324
11
158.893440
21
91.973359
0
LINE
8
annotation
62
1
39
211
10
158.893440
20
91.973359
11
158.931873
21
91.944968
0
LINE
8
annotation
62
1
39
211
10
158.931873
20
91.944968
11
158.972579
21
91.919272
0
LINE
8
annotation
62
1
39
211
10
158.972579
20
91.919272
11
159.015452
21
91.896394
0
LINE
8
annotation
62
1
39
211
10
160.762077
20
110.621098
11
160.762077
21
115.421098
0
LINE
8
annotation
62
1
39
211
10
160.762077
20
115.421098
11
159.694976
21
114.353696
0
LINE
8
annotation
62
1
39
211
10
163.629179
20
110.621098
11
163.629179
21
115.421098
0
LINE
8
annotation
62
1
39
211
10
163.629179
20
115.421098
11
162.562077
21
114.353696
0
LINE
8
annotation
62
1
39
211
10
164.267039
20
129.593677
11
164.267039
21
134.202027
0
LINE
8
annotation
62
1
39
211
10
164.267039
20
134.202027
11
163.242544
21
133.177243
0
LINE
8
annotation
62
1
39
211
10
168.042052
20
129.593640
11
165.995374
21
129.593640
0
LINE
8
annotation
62
1
39
211
10
165.995374
20
129.593640
11
167.886571
21
132.638225
0
LINE
8
annotation
62
1
39
211
10
167.886571
20
132.638225
11
167.886571
21
132.638225
0
LINE
8
annotation
62
1
39
211
10
167.886571
20
132.638225
11
167.888832
21
132.641023
0
LINE
8
annotation
62
1
39
211
10
167.888832
20
132.641023
11
167.891000
21
132.643844
0
LINE
8
annotation
62
1
39
211
10
167.891000
20
132.643844
11
167.893090
21
132.646713
0
LINE
8
annotation
62
1
39
211
10
167.893090
20
132.646713
11
167.895115
21
132.649654
0
LINE
8
annotation
62
1
39
211
10
167.895115
20
132.649654
11
167.897091
21
132.652689
0
LINE
8
annotation
62
1
39
211
10
167.897091
20
132.652689
11
167.899030
21
132.655844
0
LINE
8
annotation
62
1
39
211
10
167.899030
20
132.655844
11
167.900949
21
132.659141
0
LINE
8
annotation
62
1
39
211
10
167.900949
20
132.659141
11
167.902860
21
132.662604
0
LINE
8
annotation
62
1
39
211
10
167.902860
20
132.662604
11
167.904778
21
132.666258
0
LINE
8
annotation
62
1
39
211
10
167.904778
20
132.666258
11
167.904778
21
132.666258
0
LINE
8
annotation
62
1
39
211
10
167.904778
20
132.666258
11
167.982865
21
132.833918
0
LINE
8
annotation
62
1
39
211
10
167.982865
20
132.833918
11
168.028482
21
133.007712
0
LINE
8
annotation
62
1
39
211
10
168.028482
20
133.007712
11
168.042748
21
133.183713
0
LINE
8
annotation
62
1
39
211
10
168.042748
20
133.183713
11
168.026779
21
133.357995
0
LINE
8
annotation
62
1
39
211
10
168.026779
20
133.357995
11
167.981693
21
133.526629
0
LINE
8
annotation
62
1
39
211
10
167.981693
20
133.526629
11
167.908610
21
133.685690
0
LINE
8
annotation
62
1
39
211
10
167.908610
20
133.685690
11
167.808646
21
133.831251
0
LINE
8
annotation
62
1
39
211
10
167.808646
20
133.831251
11
167.682920
21
133.959383
0
LINE
8
annotation
62
1
39
211
10
167.682920
20
133.959383
11
167.532550
21
134.066161
0
LINE
8
annotation
62
1
39
211
10
167.532550
20
134.066161
11
167.532550
21
134.066161
0
LINE
8
annotation
62
1
39
211
10
167.532550
20
134.066161
11
167.364424
21
134.143138
0
LINE
8
annotation
62
1
39
211
10
167.364424
20
134.143138
11
167.190364
21
134.188052
0
LINE
8
annotation
62
1
39
211
10
167.190364
20
134.188052
11
167.014260
21
134.201914
0
LINE
8
annotation
62
1
39
211
10
167.014260
20
134.201914
11
166.840005
21
134.185735
0
LINE
8
annotation
62
1
39
211
10
166.840005
20
134.185735
11
166.671489
21
134.140525
0
LINE
8
annotation
62
1
39
211
10
166.671489
20
134.140525
11
166.512604
21
134.067295
0
LINE
8
annotation
62
1
39
211
10
166.512604
20
134.067295
11
166.367241
21
133.967057
0
LINE
8
annotation
62
1
39
211
10
166.367241
20
133.967057
11
166.239292
21
133.840820
0
LINE
8
annotation
62
1
39
211
10
166.239292
20
133.840820
11
166.132647
21
133.689597
0
LINE
8
annotation
62
1
39
211
10
166.132647
20
133.689597
11
165.998264
21
133.431812
0
LINE
8
annotation
62
1
39
211
10
168.479816
20
148.470097
11
168.479816
21
153.079115
0
LINE
8
annotation
62
1
39
211
10
168.479816
20
153.079115
11
167.455173
21
152.054182
0
LINE
8
annotation
62
1
39
211
10
170.208053
20
148.470242
11
171.231541
21
148.470242
0
LINE
8
annotation
62
1
39
211
10
171.231541
20
148.470242
11
171.231541
21
148.470242
0
LINE
8
annotation
62
1
39
211
10
171.231541
20
148.470242
11
171.415617
21
148.486755
0
LINE
8
annotation
62
1
39
211
10
171.415617
20
148.486755
11
171.588827
21
148.534346
0
LINE
8
annotation
62
1
39
211
10
171.588827
20
148.534346
11
171.748289
21
148.610094
0
LINE
8
annotation
62
1
39
211
10
171.748289
20
148.610094
11
171.891122
21
148.711077
0
LINE
8
annotation
62
1
39
211
10
171.891122
20
148.711077
11
172.014446
21
148.834375
0
LINE
8
annotation
62
1
39
211
10
172.014446
20
148.834375
11
172.115380
21
148.977066
0
LINE
8
annotation
62
1
39
211
10
172.115380
20
148.977066
11
172.191042
21
149.136229
0
LINE
8
annotation
62
1
39
211
10
172.191042
20
149.136229
11
172.238551
21
149.308942
0
LINE
8
annotation
62
1
39
211
10
172.238551
20
149.308942
11
172.255028
21
149.492284
0
LINE
8
annotation
62
1
39
211
10
172.255028
20
149.492284
11
172.255028
21
150.004750
0
LINE
8
annotation
62
1
39
211
10
172.255028
20
150.004750
11
172.255028
21
150.004750
0
LINE
8
annotation
62
1
39
211
10
172.255028
20
150.004750
11
172.238551
21
150.188016
0
LINE
8
annotation
62
1
39
211
10
172.238551
20
150.188016
11
172.191042
21
150.360689
0
LINE
8
annotation
62
1
39
211
10
172.191042
20
150.360689
11
172.115380
21
150.519839
0
LINE
8
annotation
62
1
39
211
10
172.115380
20
150.519839
11
172.014446
21
150.662540
0
LINE
8
annotation
62
1
39
211
10
172.014446
20
150.662540
11
171.891122
21
150.785862
0
LINE
8
annotation
62
1
39
211
10
171.891122
20
150.785862
11
171.748289
21
150.886876
0
LINE
8
annotation
62
1
39
211
10
171.748289
20
150.886876
11
171.588827
21
150.962655
0
LINE
8
annotation
62
1
39
211
10
171.588827
20
150.962655
11
171.415617
21
151.010270
0
LINE
8
annotation
62
1
39
211
10
171.415617
20
151.010270
11
171.231541
21
151.026792
0
LINE
8
annotation
62
1
39
211
10
171.231541
20
151.026792
11
170.719074
21
151.026792
0
LINE
8
annotation
62
1
39
211
10
170.719074
20
151.026792
11
171.231541
21
151.026792
0
LINE
8
annotation
62
1
39
211
10
171.231541
20
151.026792
11
171.231541
21
151.026792
0
LINE
8
annotation
62
1
39
211
10
171.231541
20
151.026792
11
171.415617
21
151.043319
0
LINE
8
annotation
62
1
39
211
10
171.415617
20
151.043319
11
171.588827
21
151.090962
0
LINE
8
annotation
62
1
39
211
10
171.588827
20
151.090962
11
171.748289
21
151.166816
0
LINE
8
annotation
62
1
39
211
10
171.748289
20
151.166816
11
171.891122
21
151.267977
0
LINE
8
annotation
62
1
39
211
10
171.891122
20
151.267977
11
172.014446
21
151.391541
0
LINE
8
annotation
62
1
39
211
10
172.014446
20
151.391541
11
172.115380
21
151.534602
0
LINE
8
annotation
62
1
39
211
10
172.115380
20
151.534602
11
172.191042
21
151.694256
0
LINE
8
annotation
62
1
39
211
10
172.191042
20
151.694256
11
172.238551
21
151.867599
0
LINE
8
annotation
62
1
39
211
10
172.238551
20
151.867599
11
172.255028
21
152.051725
0
LINE
8
annotation
62
1
39
211
10
172.255028
20
152.051725
11
172.255028
21
152.051725
0
LINE
8
annotation
62
1
39
211
10
172.255028
20
152.051725
11
172.238551
21
152.234991
0
LINE
8
annotation
62
1
39
211
10
172.238551
20
152.234991
11
172.191042
21
152.407663
0
LINE
8
annotation
62
1
39
211
10
172.191042
20
152.407663
11
172.115380
21
152.566814
0
LINE
8
annotation
62
1
39
211
10
172.115380
20
152.566814
11
172.014446
21
152.709515
0
LINE
8
annotation
62
1
39
211
10
172.014446
20
152.709515
11
171.891122
21
152.832836
0
LINE
8
annotation
62
1
39
211
10
171.891122
20
152.832836
11
171.748289
21
152.933851
0
LINE
8
annotation
62
1
39
211
10
171.748289
20
152.933851
11
171.588827
21
153.009630
0
LINE
8
annotation
62
1
39
211
10
171.588827
20
153.009630
11
171.415617
21
153.057245
0
LINE
8
annotation
62
1
39
211
10
171.415617
20
153.057245
11
171.231541
21
153.073767
0
LINE
8
annotation
62
1
39
211
10
171.231541
20
153.073767
11
170.208053
21
153.073767
0
LINE
8
annotation
62
1
39
211
10
172.924944
20
167.569042
11
172.924944
21
171.733678
0
LINE
8
annotation
62
1
39
211
10
172.924944
20
171.733678
11
171.999092
21
170.807564
0
LINE
8
annotation
62
1
39
211
10
176.798962
20
168.494894
11
174.486552
21
168.494894
0
LINE
8
annotation
62
1
39
211
10
174.486552
20
168.494894
11
175.410054
21
171.733678
0
LINE
8
annotation
62
1
39
211
10
176.105814
20
167.569042
11
176.105814
21
169.418656
0
LINE
8
annotation
62
1
39
211
10
177.960551
20
186.223605
11
177.960551
21
190.832622
0
LINE
8
annotation
62
1
39
211
10
177.960551
20
190.832622
11
176.935907
21
189.807689
0
LINE
8
annotation
62
1
39
211
10
179.688788
20
186.223605
11
180.712275
21
186.223605
0
LINE
8
annotation
62
1
39
211
10
180.712275
20
186.223605
11
180.712275
21
186.223605
0
LINE
8
annotation
62
1
39
211
10
180.712275
20
186.223605
11
180.895971
21
186.240121
0
LINE
8
annotation
62
1
39
211
10
180.895971
20
186.240121
11
181.068979
21
186.287737
0
LINE
8
annotation
62
1
39
211
10
181.068979
20
186.287737
11
181.228381
21
186.363553
0
LINE
8
annotation
62
1
39
211
10
181.228381
20
186.363553
11
181.371262
21
186.464669
0
LINE
8
annotation
62
1
39
211
10
181.371262
20
186.464669
11
181.494705
21
186.588185
0
LINE
8
annotation
62
1
39
211
10
181.494705
20
186.588185
11
181.595793
21
186.731200
0
LINE
8
annotation
62
1
39
211
10
181.595793
20
186.731200
11
181.671609
21
186.890816
0
LINE
8
annotation
62
1
39
211
10
181.671609
20
186.890816
11
181.719238
21
187.064132
0
LINE
8
annotation
62
1
39
211
10
181.719238
20
187.064132
11
181.735763
21
187.248248
0
LINE
8
annotation
62
1
39
211
10
181.735763
20
187.248248
11
181.735763
21
187.758113
0
LINE
8
annotation
62
1
39
211
10
181.735763
20
187.758113
11
181.735763
21
187.758113
0
LINE
8
annotation
62
1
39
211
10
181.735763
20
187.758113
11
181.719248
21
187.942140
0
LINE
8
annotation
62
1
39
211
10
181.719248
20
187.942140
11
181.671643
21
188.115217
0
LINE
8
annotation
62
1
39
211
10
181.671643
20
188.115217
11
181.595857
21
188.274487
0
LINE
8
annotation
62
1
39
211
10
181.595857
20
188.274487
11
181.494800
21
188.417092
0
LINE
8
annotation
62
1
39
211
10
181.494800
20
188.417092
11
181.371381
21
188.540176
0
LINE
8
annotation
62
1
39
211
10
181.371381
20
188.540176
11
181.228510
21
188.640881
0
LINE
8
annotation
62
1
39
211
10
181.228510
20
188.640881
11
181.069095
21
188.716351
0
LINE
8
annotation
62
1
39
211
10
181.069095
20
188.716351
11
180.896047
21
188.763728
0
LINE
8
annotation
62
1
39
211
10
180.896047
20
188.763728
11
180.712275
21
188.780156
0
LINE
8
annotation
62
1
39
211
10
180.712275
20
188.780156
11
179.688788
21
188.780156
0
LINE
8
annotation
62
1
39
211
10
179.688788
20
188.780156
11
179.688788
21
190.832622
0
LINE
8
annotation
62
1
39
211
10
179.688788
20
190.832622
11
181.735763
21
190.832622
0
LINE
8
annotation
62
1
39
211
10
183.190347
20
205.100358
11
183.190347
21
209.709376
0
LINE
8
annotation
62
1
39
211
10
183.190347
20
209.709376
11
182.165704
21
208.684443
0
LINE
8
annotation
62
1
39
211
10
186.455983
20
209.709376
11
186.455983
21
209.709376
0
LINE
8
annotation
62
1
39
211
10
186.455983
20
209.709376
11
186.162780
21
209.599442
0
LINE
8
annotation
62
1
39
211
10
186.162780
20
209.599442
11
185.893727
21
209.451320
0
LINE
8
annotation
62
1
39
211
10
185.893727
20
209.451320
11
185.651587
21
209.268720
0
LINE
8
annotation
62
1
39
211
10
185.651587
20
209.268720
11
185.439122
21
209.055353
0
LINE
8
annotation
62
1
39
211
10
185.439122
20
209.055353
11
185.259094
21
208.814931
0
LINE
8
annotation
62
1
39
211
10
185.259094
20
208.814931
11
185.114264
21
208.551164
0
LINE
8
annotation
62
1
39
211
10
185.114264
20
208.551164
11
185.007394
21
208.267764
0
LINE
8
annotation
62
1
39
211
10
185.007394
20
208.267764
11
184.941247
21
207.968442
0
LINE
8
annotation
62
1
39
211
10
184.941247
20
207.968442
11
184.918584
21
207.656909
0
LINE
8
annotation
62
1
39
211
10
184.918584
20
207.656909
11
184.918584
21
206.125002
0
LINE
8
annotation
62
1
39
211
10
184.918584
20
206.125002
11
184.918584
21
206.125002
0
LINE
8
annotation
62
1
39
211
10
184.918584
20
206.125002
11
184.935109
21
205.940886
0
LINE
8
annotation
62
1
39
211
10
184.935109
20
205.940886
11
184.982738
21
205.767570
0
LINE
8
annotation
62
1
39
211
10
184.982738
20
205.767570
11
185.058554
21
205.607954
0
LINE
8
annotation
62
1
39
211
10
185.058554
20
205.607954
11
185.159642
21
205.464938
0
LINE
8
annotation
62
1
39
211
10
185.159642
20
205.464938
11
185.283085
21
205.341423
0
LINE
8
annotation
62
1
39
211
10
185.283085
20
205.341423
11
185.425966
21
205.240307
0
LINE
8
annotation
62
1
39
211
10
185.425966
20
205.240307
11
185.585368
21
205.164491
0
LINE
8
annotation
62
1
39
211
10
185.585368
20
205.164491
11
185.758376
21
205.116875
0
LINE
8
annotation
62
1
39
211
10
185.758376
20
205.116875
11
185.942072
21
205.100358
0
LINE
8
annotation
62
1
39
211
10
185.942072
20
205.100358
11
185.942072
21
205.100358
0
LINE
8
annotation
62
1
39
211
10
185.942072
20
205.100358
11
186.126148
21
205.116875
0
LINE
8
annotation
62
1
39
211
10
186.126148
20
205.116875
11
186.299358
21
205.164491
0
LINE
8
annotation
62
1
39
211
10
186.299358
20
205.164491
11
186.458820
21
205.240307
0
LINE
8
annotation
62
1
39
211
10
186.458820
20
205.240307
11
186.601653
21
205.341423
0
LINE
8
annotation
62
1
39
211
10
186.601653
20
205.341423
11
186.724977
21
205.464938
0
LINE
8
annotation
62
1
39
211
10
186.724977
20
205.464938
11
186.825910
21
205.607954
0
LINE
8
annotation
62
1
39
211
10
186.825910
20
205.607954
11
186.901573
21
205.767570
0
LINE
8
annotation
62
1
39
211
10
186.901573
20
205.767570
11
186.949082
21
205.940886
0
LINE
8
annotation
62
1
39
211
10
186.949082
20
205.940886
11
186.965559
21
206.125002
0
LINE
8
annotation
62
1
39
211
10
186.965559
20
206.125002
11
186.965559
21
206.634867
0
LINE
8
annotation
62
1
39
211
10
186.965559
20
206.634867
11
186.965559
21
206.634867
0
LINE
8
annotation
62
1
39
211
10
186.965559
20
206.634867
11
186.949082
21
206.818894
0
LINE
8
annotation
62
1
39
211
10
186.949082
20
206.818894
11
186.901573
21
206.991971
0
LINE
8
annotation
62
1
39
211
10
186.901573
20
206.991971
11
186.825910
21
207.151241
0
LINE
8
annotation
62
1
39
211
10
186.825910
20
207.151241
11
186.724977
21
207.293846
0
LINE
8
annotation
62
1
39
211
10
186.724977
20
207.293846
11
186.601653
21
207.416930
0
LINE
8
annotation
62
1
39
211
10
186.601653
20
207.416930
11
186.458820
21
207.517635
0
LINE
8
annotation
62
1
39
211
10
186.458820
20
207.517635
11
186.299358
21
207.593105
0
LINE
8
annotation
62
1
39
211
10
186.299358
20
207.593105
11
186.126148
21
207.640482
0
LINE
8
annotation
62
1
39
211
10
186.126148
20
207.640482
11
185.942072
21
207.656909
0
LINE
8
annotation
62
1
39
211
10
185.942072
20
207.656909
11
184.918584
21
207.656909
0
LINE
8
annotation
62
1
39
211
10
184.790395
20
204.524231
11
187.094904
21
204.524231
0
LINE
8
annotation
62
1
39
211
10
188.663399
20
223.978361
11
188.663399
21
228.584881
0
LINE
8
annotation
62
1
39
211
10
188.663399
20
228.584881
11
187.639310
21
227.560504
0
LINE
8
annotation
62
1
39
211
10
191.414933
20
223.978361
11
192.439021
21
228.584881
0
LINE
8
annotation
62
1
39
211
10
192.439021
20
228.584881
11
190.390555
21
228.584881
0
LINE
8
annotation
62
1
39
211
10
192.439021
20
226.533527
11
191.414933
21
226.533527
0
LINE
8
annotation
62
1
39
211
10
194.334355
20
242.853866
11
194.334355
21
247.462883
0
LINE
8
annotation
62
1
39
211
10
194.334355
20
247.462883
11
193.309711
21
246.437951
0
LINE
8
annotation
62
1
39
211
10
196.062592
20
243.875764
11
196.062592
21
243.875764
0
LINE
8
annotation
62
1
39
211
10
196.062592
20
243.875764
11
196.079116
21
243.691737
0
LINE
8
annotation
62
1
39
211
10
196.079116
20
243.691737
11
196.126745
21
243.518660
0
LINE
8
annotation
62
1
39
211
10
196.126745
20
243.518660
11
196.202562
21
243.359390
0
LINE
8
annotation
62
1
39
211
10
196.202562
20
243.359390
11
196.303650
21
243.216785
0
LINE
8
annotation
62
1
39
211
10
196.303650
20
243.216785
11
196.427092
21
243.093701
0
LINE
8
annotation
62
1
39
211
10
196.427092
20
243.093701
11
196.569973
21
242.992996
0
LINE
8
annotation
62
1
39
211
10
196.569973
20
242.992996
11
196.729376
21
242.917526
0
LINE
8
annotation
62
1
39
211
10
196.729376
20
242.917526
11
196.902383
21
242.870149
0
LINE
8
annotation
62
1
39
211
10
196.902383
20
242.870149
11
197.086079
21
242.853722
0
LINE
8
annotation
62
1
39
211
10
197.086079
20
242.853722
11
197.086079
21
242.853722
0
LINE
8
annotation
62
1
39
211
10
197.086079
20
242.853722
11
197.269775
21
242.870149
0
LINE
8
annotation
62
1
39
211
10
197.269775
20
242.870149
11
197.442783
21
242.917526
0
LINE
8
annotation
62
1
39
211
10
197.442783
20
242.917526
11
197.602185
21
242.992996
0
LINE
8
annotation
62
1
39
211
10
197.602185
20
242.992996
11
197.745066
21
243.093701
0
LINE
8
annotation
62
1
39
211
10
197.745066
20
243.093701
11
197.868509
21
243.216785
0
LINE
8
annotation
62
1
39
211
10
197.868509
20
243.216785
11
197.969597
21
243.359390
0
LINE
8
annotation
62
1
39
211
10
197.969597
20
243.359390
11
198.045414
21
243.518660
0
LINE
8
annotation
62
1
39
211
10
198.045414
20
243.518660
11
198.093042
21
243.691737
0
LINE
8
annotation
62
1
39
211
10
198.093042
20
243.691737
11
198.109567
21
243.875764
0
LINE
8
annotation
62
1
39
211
10
198.109567
20
243.875764
11
198.109567
21
244.385629
0
LINE
8
annotation
62
1
39
211
10
198.109567
20
244.385629
11
198.109567
21
244.385629
0
LINE
8
annotation
62
1
39
211
10
198.109567
20
244.385629
11
198.093052
21
244.569745
0
LINE
8
annotation
62
1
39
211
10
198.093052
20
244.569745
11
198.045447
21
244.743061
0
LINE
8
annotation
62
1
39
211
10
198.045447
20
244.743061
11
197.969661
21
244.902677
0
LINE
8
annotation
62
1
39
211
10
197.969661
20
244.902677
11
197.868604
21
245.045693
0
LINE
8
annotation
62
1
39
211
10
197.868604
20
245.045693
11
197.745185
21
245.169208
0
LINE
8
annotation
62
1
39
211
10
197.745185
20
245.169208
11
197.602314
21
245.270324
0
LINE
8
annotation
62
1
39
211
10
197.602314
20
245.270324
11
197.442900
21
245.346140
0
LINE
8
annotation
62
1
39
211
10
197.442900
20
245.346140
11
197.269852
21
245.393756
0
LINE
8
annotation
62
1
39
211
10
197.269852
20
245.393756
11
197.086079
21
245.410272
0
LINE
8
annotation
62
1
39
211
10
197.086079
20
245.410272
11
197.086079
21
245.410272
0
LINE
8
annotation
62
1
39
211
10
197.086079
20
245.410272
11
196.902307
21
245.393746
0
LINE
8
annotation
62
1
39
211
10
196.902307
20
245.393746
11
196.729259
21
245.346106
0
LINE
8
annotation
62
1
39
211
10
196.729259
20
245.346106
11
196.569845
21
245.270260
0
LINE
8
annotation
62
1
39
211
10
196.569845
20
245.270260
11
196.426974
21
245.169113
0
LINE
8
annotation
62
1
39
211
10
196.426974
20
245.169113
11
196.303555
21
245.045574
0
LINE
8
annotation
62
1
39
211
10
196.303555
20
245.045574
11
196.202498
21
244.902548
0
LINE
8
annotation
62
1
39
211
10
196.202498
20
244.902548
11
196.126712
21
244.742945
0
LINE
8
annotation
62
1
39
211
10
196.126712
20
244.742945
11
196.079107
21
244.569669
0
LINE
8
annotation
62
1
39
211
10
196.079107
20
244.569669
11
196.062592
21
244.385629
0
LINE
8
annotation
62
1
39
211
10
196.062592
20
244.385629
11
196.062592
21
243.875764
0
LINE
8
annotation
62
1
39
211
10
198.109567
20
246.435205
11
198.109567
21
246.435205
0
LINE
8
annotation
62
1
39
211
10
198.109567
20
246.435205
11
198.093052
21
246.618471
0
LINE
8
annotation
62
1
39
211
10
198.093052
20
246.618471
11
198.045447
21
246.791143
0
LINE
8
annotation
62
1
39
211
10
198.045447
20
246.791143
11
197.969661
21
246.950294
0
LINE
8
annotation
62
1
39
211
10
197.969661
20
246.950294
11
197.868604
21
247.092995
0
LINE
8
annotation
62
1
39
211
10
197.868604
20
247.092995
11
197.745185
21
247.216316
0
LINE
8
annotation
62
1
39
211
10
197.745185
20
247.216316
11
197.602314
21
247.317331
0
LINE
8
annotation
62
1
39
211
10
197.602314
20
247.317331
11
197.442900
21
247.393110
0
LINE
8
annotation
62
1
39
211
10
197.442900
20
247.393110
11
197.269852
21
247.440725
0
LINE
8
annotation
62
1
39
211
10
197.269852
20
247.440725
11
197.086079
21
247.457247
0
LINE
8
annotation
62
1
39
211
10
197.086079
20
247.457247
11
197.086079
21
247.457247
0
LINE
8
annotation
62
1
39
211
10
197.086079
20
247.457247
11
196.902307
21
247.440725
0
LINE
8
annotation
62
1
39
211
10
196.902307
20
247.440725
11
196.729259
21
247.393110
0
LINE
8
annotation
62
1
39
211
10
196.729259
20
247.393110
11
196.569845
21
247.317331
0
LINE
8
annotation
62
1
39
211
10
196.569845
20
247.317331
11
196.426974
21
247.216316
0
LINE
8
annotation
62
1
39
211
10
196.426974
20
247.216316
11
196.303555
21
247.092995
0
LINE
8
annotation
62
1
39
211
10
196.303555
20
247.092995
11
196.202498
21
246.950294
0
LINE
8
annotation
62
1
39
211
10
196.202498
20
246.950294
11
196.126712
21
246.791143
0
LINE
8
annotation
62
1
39
211
10
196.126712
20
246.791143
11
196.079107
21
246.618471
0
LINE
8
annotation
62
1
39
211
10
196.079107
20
246.618471
11
196.062592
21
246.435205
0
LINE
8
annotation
62
1
39
211
10
196.062592
20
246.435205
11
196.062592
21
246.435205
0
LINE
8
annotation
62
1
39
211
10
196.062592
20
246.435205
11
196.079116
21
246.251079
0
LINE
8
annotation
62
1
39
211
10
196.079116
20
246.251079
11
196.126745
21
246.077736
0
LINE
8
annotation
62
1
39
211
10
196.126745
20
246.077736
11
196.202562
21
245.918082
0
LINE
8
annotation
62
1
39
211
10
196.202562
20
245.918082
11
196.303650
21
245.775021
0
LINE
8
annotation
62
1
39
211
10
196.303650
20
245.775021
11
196.427092
21
245.651457
0
LINE
8
annotation
62
1
39
211
10
196.427092
20
245.651457
11
196.569973
21
245.550296
0
LINE
8
annotation
62
1
39
211
10
196.569973
20
245.550296
11
196.729376
21
245.474441
0
LINE
8
annotation
62
1
39
211
10
196.729376
20
245.474441
11
196.902383
21
245.426799
0
LINE
8
annotation
62
1
39
211
10
196.902383
20
245.426799
11
197.086079
21
245.410272
0
LINE
8
annotation
62
1
39
211
10
197.086079
20
245.410272
11
197.086079
21
245.410272
0
LINE
8
annotation
62
1
39
211
10
197.086079
20
245.410272
11
197.269775
21
245.426799
0
LINE
8
annotation
62
1
39
211
10
197.269775
20
245.426799
11
197.442783
21
245.474441
0
LINE
8
annotation
62
1
39
211
10
197.442783
20
245.474441
11
197.602185
21
245.550296
0
LINE
8
annotation
62
1
39
211
10
197.602185
20
245.550296
11
197.745066
21
245.651457
0
LINE
8
annotation
62
1
39
211
10
197.745066
20
245.651457
11
197.868509
21
245.775021
0
LINE
8
annotation
62
1
39
211
10
197.868509
20
245.775021
11
197.969597
21
245.918082
0
LINE
8
annotation
62
1
39
211
10
197.969597
20
245.918082
11
198.045414
21
246.077736
0
LINE
8
annotation
62
1
39
211
10
198.045414
20
246.077736
11
198.093042
21
246.251079
0
LINE
8
annotation
62
1
39
211
10
198.093042
20
246.251079
11
198.109567
21
246.435205
0
LINE
8
annotation
62
1
39
211
10
200.227772
20
261.730620
11
200.227772
21
266.339637
0
LINE
8
annotation
62
1
39
211
10
200.227772
20
266.339637
11
199.203128
21
265.314705
0
LINE
8
annotation
62
1
39
211
10
202.467030
20
261.730620
11
202.467030
21
261.730620
0
LINE
8
annotation
62
1
39
211
10
202.467030
20
261.730620
11
202.759717
21
261.839690
0
LINE
8
annotation
62
1
39
211
10
202.759717
20
261.839690
11
203.028368
21
261.987117
0
LINE
8
annotation
62
1
39
211
10
203.028368
20
261.987117
11
203.270206
21
262.169146
0
LINE
8
annotation
62
1
39
211
10
203.270206
20
262.169146
11
203.482454
21
262.382020
0
LINE
8
annotation
62
1
39
211
10
203.482454
20
262.382020
11
203.662338
21
262.621982
0
LINE
8
annotation
62
1
39
211
10
203.662338
20
262.621982
11
203.807080
21
262.885278
0
LINE
8
annotation
62
1
39
211
10
203.807080
20
262.885278
11
203.913904
21
263.168149
0
LINE
8
annotation
62
1
39
211
10
203.913904
20
263.168149
11
203.980034
21
263.466840
0
LINE
8
annotation
62
1
39
211
10
203.980034
20
263.466840
11
204.002695
21
263.777595
0
LINE
8
annotation
62
1
39
211
10
204.002695
20
263.777595
11
204.002695
21
265.314705
0
LINE
8
annotation
62
1
39
211
10
204.002695
20
265.314705
11
204.002695
21
265.314705
0
LINE
8
annotation
62
1
39
211
10
204.002695
20
265.314705
11
203.986218
21
265.498831
0
LINE
8
annotation
62
1
39
211
10
203.986218
20
265.498831
11
203.938708
21
265.672173
0
LINE
8
annotation
62
1
39
211
10
203.938708
20
265.672173
11
203.863046
21
265.831828
0
LINE
8
annotation
62
1
39
211
10
203.863046
20
265.831828
11
203.762113
21
265.974889
0
LINE
8
annotation
62
1
39
211
10
203.762113
20
265.974889
11
203.638789
21
266.098453
0
LINE
8
annotation
62
1
39
211
10
203.638789
20
266.098453
11
203.495956
21
266.199614
0
LINE
8
annotation
62
1
39
211
10
203.495956
20
266.199614
11
203.336494
21
266.275468
0
LINE
8
annotation
62
1
39
211
10
203.336494
20
266.275468
11
203.163284
21
266.323111
0
LINE
8
annotation
62
1
39
211
10
203.163284
20
266.323111
11
202.979207
21
266.339637
0
LINE
8
annotation
62
1
39
211
10
202.979207
20
266.339637
11
202.979207
21
266.339637
0
LINE
8
annotation
62
1
39
211
10
202.979207
20
266.339637
11
202.795511
21
266.323111
0
LINE
8
annotation
62
1
39
211
10
202.795511
20
266.323111
11
202.622504
21
266.275468
0
LINE
8
annotation
62
1
39
211
10
202.622504
20
266.275468
11
202.463101
21
266.199614
0
LINE
8
annotation
62
1
39
211
10
202.463101
20
266.199614
11
202.320221
21
266.098453
0
LINE
8
annotation
62
1
39
211
10
202.320221
20
266.098453
11
202.196778
21
265.974889
0
LINE
8
annotation
62
1
39
211
10
202.196778
20
265.974889
11
202.095690
21
265.831828
0
LINE
8
annotation
62
1
39
211
10
202.095690
20
265.831828
11
202.019873
21
265.672173
0
LINE
8
annotation
62
1
39
211
10
202.019873
20
265.672173
11
201.972244
21
265.498831
0
LINE
8
annotation
62
1
39
211
10
201.972244
20
265.498831
11
201.955720
21
265.314705
0
LINE
8
annotation
62
1
39
211
10
201.955720
20
265.314705
11
201.955720
21
264.802238
0
LINE
8
annotation
62
1
39
211
10
201.955720
20
264.802238
11
201.955720
21
264.802238
0
LINE
8
annotation
62
1
39
211
10
201.955720
20
264.802238
11
201.972244
21
264.618122
0
LINE
8
annotation
62
1
39
211
10
201.972244
20
264.618122
11
202.019873
21
264.444806
0
LINE
8
annotation
62
1
39
211
10
202.019873
20
264.444806
11
202.095690
21
264.285190
0
LINE
8
annotation
62
1
39
211
10
202.095690
20
264.285190
11
202.196778
21
264.142175
0
LINE
8
annotation
62
1
39
211
10
202.196778
20
264.142175
11
202.320221
21
264.018659
0
LINE
8
annotation
62
1
39
211
10
202.320221
20
264.018659
11
202.463101
21
263.917543
0
LINE
8
annotation
62
1
39
211
10
202.463101
20
263.917543
11
202.622504
21
263.841727
0
LINE
8
annotation
62
1
39
211
10
202.622504
20
263.841727
11
202.795511
21
263.794111
0
LINE
8
annotation
62
1
39
211
10
202.795511
20
263.794111
11
202.979207
21
263.777595
0
LINE
8
annotation
62
1
39
211
10
202.979207
20
263.777595
11
204.002695
21
263.777595
0
LINE
8
annotation
62
1
39
211
10
201.827820
20
261.154493
11
204.132329
21
261.154493
0
LINE
8
annotation
62
1
39
211
10
206.999232
20
281.009258
11
205.309258
21
281.009258
0
LINE
8
annotation
62
1
39
211
10
205.309258
20
281.009258
11
206.870849
21
283.523220
0
LINE
8
annotation
62
1
39
211
10
206.870849
20
283.523220
11
206.870849
21
283.523220
0
LINE
8
annotation
62
1
39
211
10
206.870849
20
283.523220
11
206.872716
21
283.525530
0
LINE
8
annotation
62
1
39
211
10
206.872716
20
283.525530
11
206.874506
21
283.527860
0
LINE
8
annotation
62
1
39
211
10
206.874506
20
283.527860
11
206.876232
21
283.530229
0
LINE
8
annotation
62
1
39
211
10
206.876232
20
283.530229
11
206.877904
21
283.532657
0
LINE
8
annotation
62
1
39
211
10
206.877904
20
283.532657
11
206.879535
21
283.535163
0
LINE
8
annotation
62
1
39
211
10
206.879535
20
283.535163
11
206.881137
21
283.537768
0
LINE
8
annotation
62
1
39
211
10
206.881137
20
283.537768
11
206.882721
21
283.540490
0
LINE
8
annotation
62
1
39
211
10
206.882721
20
283.540490
11
206.884299
21
283.543350
0
LINE
8
annotation
62
1
39
211
10
206.884299
20
283.543350
11
206.885883
21
283.546367
0
LINE
8
annotation
62
1
39
211
10
206.885883
20
283.546367
11
206.885883
21
283.546367
0
LINE
8
annotation
62
1
39
211
10
206.885883
20
283.546367
11
206.950361
21
283.684807
0
LINE
8
annotation
62
1
39
211
10
206.950361
20
283.684807
11
206.988028
21
283.828311
0
LINE
8
annotation
62
1
39
211
10
206.988028
20
283.828311
11
206.999806
21
283.973638
0
LINE
8
annotation
62
1
39
211
10
206.999806
20
283.973638
11
206.986621
21
284.117545
0
LINE
8
annotation
62
1
39
211
10
206.986621
20
284.117545
11
206.949393
21
284.256789
0
LINE
8
annotation
62
1
39
211
10
206.949393
20
284.256789
11
206.889047
21
284.388129
0
LINE
8
annotation
62
1
39
211
10
206.889047
20
284.388129
11
206.806505
21
284.508320
0
LINE
8
annotation
62
1
39
211
10
206.806505
20
284.508320
11
206.702691
21
284.614121
0
LINE
8
annotation
62
1
39
211
10
206.702691
20
284.614121
11
206.578528
21
284.702289
0
LINE
8
annotation
62
1
39
211
10
206.578528
20
284.702289
11
206.578528
21
284.702289
0
LINE
8
annotation
62
1
39
211
10
206.578528
20
284.702289
11
206.439704
21
284.765850
0
LINE
8
annotation
62
1
39
211
10
206.439704
20
284.765850
11
206.295980
21
284.802937
0
LINE
8
annotation
62
1
39
211
10
206.295980
20
284.802937
11
206.150568
21
284.814383
0
LINE
8
annotation
62
1
39
211
10
206.150568
20
284.814383
11
206.006683
21
284.801023
0
LINE
8
annotation
62
1
39
211
10
206.006683
20
284.801023
11
205.867536
21
284.763693
0
LINE
8
annotation
62
1
39
211
10
205.867536
20
284.763693
11
205.736343
21
284.703226
0
LINE
8
annotation
62
1
39
211
10
205.736343
20
284.703226
11
205.616314
21
284.620457
0
LINE
8
annotation
62
1
39
211
10
205.616314
20
284.620457
11
205.510665
21
284.516222
0
LINE
8
annotation
62
1
39
211
10
205.510665
20
284.516222
11
205.422607
21
284.391355
0
LINE
8
annotation
62
1
39
211
10
205.422607
20
284.391355
11
205.311644
21
284.178497
0
LINE
8
annotation
62
1
39
211
10
209.037678
20
281.059481
11
209.037678
21
281.059481
0
LINE
8
annotation
62
1
39
211
10
209.037678
20
281.059481
11
209.126116
21
281.026421
0
LINE
8
annotation
62
1
39
211
10
209.126116
20
281.026421
11
209.216816
21
281.009996
0
LINE
8
annotation
62
1
39
211
10
209.216816
20
281.009996
11
209.307728
21
281.009537
0
LINE
8
annotation
62
1
39
211
10
209.307728
20
281.009537
11
209.396801
21
281.024373
0
LINE
8
annotation
62
1
39
211
10
209.396801
20
281.024373
11
209.481986
21
281.053836
0
LINE
8
annotation
62
1
39
211
10
209.481986
20
281.053836
11
209.561232
21
281.097255
0
LINE
8
annotation
62
1
39
211
10
209.561232
20
281.097255
11
209.632488
21
281.153961
0
LINE
8
annotation
62
1
39
211
10
209.632488
20
281.153961
11
209.693703
21
281.223283
0
LINE
8
annotation
62
1
39
211
10
209.693703
20
281.223283
11
209.742829
21
281.304553
0
LINE
8
annotation
62
1
39
211
10
209.742829
20
281.304553
11
209.742829
21
281.304553
0
LINE
8
annotation
62
1
39
211
10
209.742829
20
281.304553
11
209.889400
21
281.647640
0
LINE
8
annotation
62
1
39
211
10
209.889400
20
281.647640
11
209.999329
21
282.000657
0
LINE
8
annotation
62
1
39
211
10
209.999329
20
282.000657
11
210.072615
21
282.360790
0
LINE
8
annotation
62
1
39
211
10
210.072615
20
282.360790
11
210.109258
21
282.725223
0
LINE
8
annotation
62
1
39
211
10
210.109258
20
282.725223
11
210.109258
21
283.091144
0
LINE
8
annotation
62
1
39
211
10
210.109258
20
283.091144
11
210.072615
21
283.455737
0
LINE
8
annotation
62
1
39
211
10
210.072615
20
283.455737
11
209.999329
21
283.816188
0
LINE
8
annotation
62
1
39
211
10
209.999329
20
283.816188
11
209.889400
21
284.169682
0
LINE
8
annotation
62
1
39
211
10
209.889400
20
284.169682
11
209.742829
21
284.513405
0
LINE
8
annotation
62
1
39
211
10
209.742829
20
284.513405
11
209.742829
21
284.513405
0
LINE
8
annotation
62
1
39
211
10
209.742829
20
284.513405
11
209.724189
21
284.548094
0
LINE
8
annotation
62
1
39
211
10
209.724189
20
284.548094
11
209.703057
21
284.581259
0
LINE
8
annotation
62
1
39
211
10
209.703057
20
284.581259
11
209.679592
21
284.612736
0
LINE
8
annotation
62
1
39
211
10
209.679592
20
284.612736
11
209.653952
21
284.642364
0
LINE
8
annotation
62
1
39
211
10
209.653952
20
284.642364
11
209.626298
21
284.669979
0
LINE
8
annotation
62
1
39
211
10
209.626298
20
284.669979
11
209.596787
21
284.695417
0
LINE
8
annotation
62
1
39
211
10
209.596787
20
284.695417
11
209.565580
21
284.718516
0
LINE
8
annotation
62
1
39
211
10
209.565580
20
284.718516
11
209.532835
21
284.739114
0
LINE
8
annotation
62
1
39
211
10
209.532835
20
284.739114
11
209.498711
21
284.757046
0
LINE
8
annotation
62
1
39
211
10
209.498711
20
284.757046
11
209.498711
21
284.757046
0
LINE
8
annotation
62
1
39
211
10
209.498711
20
284.757046
11
209.409571
21
284.790822
0
LINE
8
annotation
62
1
39
211
10
209.409571
20
284.790822
11
209.318340
21
284.807808
0
LINE
8
annotation
62
1
39
211
10
209.318340
20
284.807808
11
209.227044
21
284.808678
0
LINE
8
annotation
62
1
39
211
10
209.227044
20
284.808678
11
209.137710
21
284.794104
0
LINE
8
annotation
62
1
39
211
10
209.137710
20
284.794104
11
209.052365
21
284.764761
0
LINE
8
annotation
62
1
39
211
10
209.052365
20
284.764761
11
208.973036
21
284.721322
0
LINE
8
annotation
62
1
39
211
10
208.973036
20
284.721322
11
208.901750
21
284.664461
0
LINE
8
annotation
62
1
39
211
10
208.901750
20
284.664461
11
208.840533
21
284.594851
0
LINE
8
annotation
62
1
39
211
10
208.840533
20
284.594851
11
208.791413
21
284.513166
0
LINE
8
annotation
62
1
39
211
10
208.791413
20
284.513166
11
208.791413
21
284.513166
0
LINE
8
annotation
62
1
39
211
10
208.791413
20
284.513166
11
208.645548
21
284.170150
0
LINE
8
annotation
62
1
39
211
10
208.645548
20
284.170150
11
208.536150
21
283.817186
0
LINE
8
annotation
62
1
39
211
10
208.536150
20
283.817186
11
208.463218
21
283.457089
0
LINE
8
annotation
62
1
39
211
10
208.463218
20
283.457089
11
208.426751
21
283.092673
0
LINE
8
annotation
62
1
39
211
10
208.426751
20
283.092673
11
208.426751
21
282.726752
0
LINE
8
annotation
62
1
39
211
10
208.426751
20
282.726752
11
208.463218
21
282.362142
0
LINE
8
annotation
62
1
39
211
10
208.463218
20
282.362142
11
208.536150
21
282.001656
0
LINE
8
annotation
62
1
39
211
10
208.536150
20
282.001656
11
208.645548
21
281.648109
0
LINE
8
annotation
62
1
39
211
10
208.645548
20
281.648109
11
208.791413
21
281.304315
0
LINE
8
annotation
62
1
39
211
10
208.791413
20
281.304315
11
208.791413
21
281.304315
0
LINE
8
annotation
62
1
39
211
10
208.791413
20
281.304315
11
208.809985
21
281.269695
0
LINE
8
annotation
62
1
39
211
10
208.809985
20
281.269695
11
208.830960
21
281.236695
0
LINE
8
annotation
62
1
39
211
10
208.830960
20
281.236695
11
208.854252
21
281.205416
0
LINE
8
annotation
62
1
39
211
10
208.854252
20
281.205416
11
208.879770
21
281.175958
0
LINE
8
annotation
62
1
39
211
10
208.879770
20
281.175958
11
208.907428
21
281.148420
0
LINE
8
annotation
62
1
39
211
10
208.907428
20
281.148420
11
208.937136
21
281.122903
0
LINE
8
annotation
62
1
39
211
10
208.937136
20
281.122903
11
208.968806
21
281.099508
0
LINE
8
annotation
62
1
39
211
10
208.968806
20
281.099508
11
209.002349
21
281.078334
0
LINE
8
annotation
62
1
39
211
10
209.002349
20
281.078334
11
209.037678
21
281.059481
0
LINE
8
annotation
62
1
39
211
10
213.628495
20
299.484424
11
211.581817
21
299.484424
0
LINE
8
annotation
62
1
39
211
10
211.581817
20
299.484424
11
213.473015
21
302.529010
0
LINE
8
annotation
62
1
39
211
10
213.473015
20
302.529010
11
213.473015
21
302.529010
0
LINE
8
annotation
62
1
39
211
10
213.473015
20
302.529010
11
213.475276
21
302.531807
0
LINE
8
annotation
62
1
39
211
10
213.475276
20
302.531807
11
213.477444
21
302.534629
0
LINE
8
annotation
62
1
39
211
10
213.477444
20
302.534629
11
213.479533
21
302.537497
0
LINE
8
annotation
62
1
39
211
10
213.479533
20
302.537497
11
213.481559
21
302.540438
0
LINE
8
annotation
62
1
39
211
10
213.481559
20
302.540438
11
213.483534
21
302.543473
0
LINE
8
annotation
62
1
39
211
10
213.483534
20
302.543473
11
213.485474
21
302.546628
0
LINE
8
annotation
62
1
39
211
10
213.485474
20
302.546628
11
213.487392
21
302.549925
0
LINE
8
annotation
62
1
39
211
10
213.487392
20
302.549925
11
213.489303
21
302.553388
0
LINE
8
annotation
62
1
39
211
10
213.489303
20
302.553388
11
213.491222
21
302.557042
0
LINE
8
annotation
62
1
39
211
10
213.491222
20
302.557042
11
213.491222
21
302.557042
0
LINE
8
annotation
62
1
39
211
10
213.491222
20
302.557042
11
213.569309
21
302.724702
0
LINE
8
annotation
62
1
39
211
10
213.569309
20
302.724702
11
213.614926
21
302.898496
0
LINE
8
annotation
62
1
39
211
10
213.614926
20
302.898496
11
213.629191
21
303.074497
0
LINE
8
annotation
62
1
39
211
10
213.629191
20
303.074497
11
213.613222
21
303.248779
0
LINE
8
annotation
62
1
39
211
10
213.613222
20
303.248779
11
213.568137
21
303.417413
0
LINE
8
annotation
62
1
39
211
10
213.568137
20
303.417413
11
213.495054
21
303.576475
0
LINE
8
annotation
62
1
39
211
10
213.495054
20
303.576475
11
213.395090
21
303.722035
0
LINE
8
annotation
62
1
39
211
10
213.395090
20
303.722035
11
213.269364
21
303.850167
0
LINE
8
annotation
62
1
39
211
10
213.269364
20
303.850167
11
213.118993
21
303.956945
0
LINE
8
annotation
62
1
39
211
10
213.118993
20
303.956945
11
213.118993
21
303.956945
0
LINE
8
annotation
62
1
39
211
10
213.118993
20
303.956945
11
212.950867
21
304.033922
0
LINE
8
annotation
62
1
39
211
10
212.950867
20
304.033922
11
212.776807
21
304.078837
0
LINE
8
annotation
62
1
39
211
10
212.776807
20
304.078837
11
212.600704
21
304.092698
0
LINE
8
annotation
62
1
39
211
10
212.600704
20
304.092698
11
212.426448
21
304.076519
0
LINE
8
annotation
62
1
39
211
10
212.426448
20
304.076519
11
212.257932
21
304.031309
0
LINE
8
annotation
62
1
39
211
10
212.257932
20
304.031309
11
212.099047
21
303.958079
0
LINE
8
annotation
62
1
39
211
10
212.099047
20
303.958079
11
211.953684
21
303.857841
0
LINE
8
annotation
62
1
39
211
10
211.953684
20
303.857841
11
211.825735
21
303.731605
0
LINE
8
annotation
62
1
39
211
10
211.825735
20
303.731605
11
211.719091
21
303.580381
0
LINE
8
annotation
62
1
39
211
10
211.719091
20
303.580381
11
211.584707
21
303.322596
0
LINE
8
annotation
62
1
39
211
10
216.381614
20
299.484461
11
216.381614
21
304.092811
0
LINE
8
annotation
62
1
39
211
10
216.381614
20
304.092811
11
215.357119
21
303.068027
0
LINE
8
annotation
62
1
39
211
10
219.772473
20
318.765948
11
218.085325
21
318.765948
0
LINE
8
annotation
62
1
39
211
10
218.085325
20
318.765948
11
219.644305
21
321.275705
0
LINE
8
annotation
62
1
39
211
10
219.644305
20
321.275705
11
219.644305
21
321.275705
0
LINE
8
annotation
62
1
39
211
10
219.644305
20
321.275705
11
219.646168
21
321.278011
0
LINE
8
annotation
62
1
39
211
10
219.646168
20
321.278011
11
219.647955
21
321.280337
0
LINE
8
annotation
62
1
39
211
10
219.647955
20
321.280337
11
219.649678
21
321.282702
0
LINE
8
annotation
62
1
39
211
10
219.649678
20
321.282702
11
219.651348
21
321.285126
0
LINE
8
annotation
62
1
39
211
10
219.651348
20
321.285126
11
219.652976
21
321.287628
0
LINE
8
annotation
62
1
39
211
10
219.652976
20
321.287628
11
219.654575
21
321.290229
0
LINE
8
annotation
62
1
39
211
10
219.654575
20
321.290229
11
219.656156
21
321.292946
0
LINE
8
annotation
62
1
39
211
10
219.656156
20
321.292946
11
219.657732
21
321.295802
0
LINE
8
annotation
62
1
39
211
10
219.657732
20
321.295802
11
219.659313
21
321.298814
0
LINE
8
annotation
62
1
39
211
10
219.659313
20
321.298814
11
219.659313
21
321.298814
0
LINE
8
annotation
62
1
39
211
10
219.659313
20
321.298814
11
219.723683
21
321.437021
0
LINE
8
annotation
62
1
39
211
10
219.723683
20
321.437021
11
219.761287
21
321.580286
0
LINE
8
annotation
62
1
39
211
10
219.761287
20
321.580286
11
219.773046
21
321.725370
0
LINE
8
annotation
62
1
39
211
10
219.773046
20
321.725370
11
219.759882
21
321.869036
0
LINE
8
annotation
62
1
39
211
10
219.759882
20
321.869036
11
219.722717
21
322.008047
0
LINE
8
annotation
62
1
39
211
10
219.722717
20
322.008047
11
219.662472
21
322.139167
0
LINE
8
annotation
62
1
39
211
10
219.662472
20
322.139167
11
219.580068
21
322.259157
0
LINE
8
annotation
62
1
39
211
10
219.580068
20
322.259157
11
219.476428
21
322.364781
0
LINE
8
annotation
62
1
39
211
10
219.476428
20
322.364781
11
219.352472
21
322.452802
0
LINE
8
annotation
62
1
39
211
10
219.352472
20
322.452802
11
219.352472
21
322.452802
0
LINE
8
annotation
62
1
39
211
10
219.352472
20
322.452802
11
219.213880
21
322.516257
0
LINE
8
annotation
62
1
39
211
10
219.213880
20
322.516257
11
219.070397
21
322.553281
0
LINE
8
annotation
62
1
39
211
10
219.070397
20
322.553281
11
218.925228
21
322.564708
0
LINE
8
annotation
62
1
39
211
10
218.925228
20
322.564708
11
218.781584
21
322.551371
0
LINE
8
annotation
62
1
39
211
10
218.781584
20
322.551371
11
218.642670
21
322.514103
0
LINE
8
annotation
62
1
39
211
10
218.642670
20
322.514103
11
218.511696
21
322.453737
0
LINE
8
annotation
62
1
39
211
10
218.511696
20
322.453737
11
218.391868
21
322.371107
0
LINE
8
annotation
62
1
39
211
10
218.391868
20
322.371107
11
218.286395
21
322.267046
0
LINE
8
annotation
62
1
39
211
10
218.286395
20
322.267046
11
218.198484
21
322.142387
0
LINE
8
annotation
62
1
39
211
10
218.198484
20
322.142387
11
218.087707
21
321.929886
0
LINE
8
annotation
62
1
39
211
10
222.884752
20
318.765948
11
221.197604
21
318.765948
0
LINE
8
annotation
62
1
39
211
10
221.197604
20
318.765948
11
222.756584
21
321.275705
0
LINE
8
annotation
62
1
39
211
10
222.756584
20
321.275705
11
222.756584
21
321.275705
0
LINE
8
annotation
62
1
39
211
10
222.756584
20
321.275705
11
222.758447
21
321.278011
0
LINE
8
annotation
62
1
39
211
10
222.758447
20
321.278011
11
222.760235
21
321.280337
0
LINE
8
annotation
62
1
39
211
10
222.760235
20
321.280337
11
222.761957
21
321.282702
0
LINE
8
annotation
62
1
39
211
10
222.761957
20
321.282702
11
222.763627
21
321.285126
0
LINE
8
annotation
62
1
39
211
10
222.763627
20
321.285126
11
222.765255
21
321.287628
0
LINE
8
annotation
62
1
39
211
10
222.765255
20
321.287628
11
222.766854
21
321.290229
0
LINE
8
annotation
62
1
39
211
10
222.766854
20
321.290229
11
222.768435
21
321.292946
0
LINE
8
annotation
62
1
39
211
10
222.768435
20
321.292946
11
222.770011
21
321.295802
0
LINE
8
annotation
62
1
39
211
10
222.770011
20
321.295802
11
222.771592
21
321.298814
0
LINE
8
annotation
62
1
39
211
10
222.771592
20
321.298814
11
222.771592
21
321.298814
0
LINE
8
annotation
62
1
39
211
10
222.771592
20
321.298814
11
222.835962
21
321.437021
0
LINE
8
annotation
62
1
39
211
10
222.835962
20
321.437021
11
222.873566
21
321.580286
0
LINE
8
annotation
62
1
39
211
10
222.873566
20
321.580286
11
222.885325
21
321.725370
0
LINE
8
annotation
62
1
39
211
10
222.885325
20
321.725370
11
222.872161
21
321.869036
0
LINE
8
annotation
62
1
39
211
10
222.872161
20
321.869036
11
222.834996
21
322.008047
0
LINE
8
annotation
62
1
39
211
10
222.834996
20
322.008047
11
222.774751
21
322.139167
0
LINE
8
annotation
62
1
39
211
10
222.774751
20
322.139167
11
222.692347
21
322.259157
0
LINE
8
annotation
62
1
39
211
10
222.692347
20
322.259157
11
222.588707
21
322.364781
0
LINE
8
annotation
62
1
39
211
10
222.588707
20
322.364781
11
222.464751
21
322.452802
0
LINE
8
annotation
62
1
39
211
10
222.464751
20
322.452802
11
222.464751
21
322.452802
0
LINE
8
annotation
62
1
39
211
10
222.464751
20
322.452802
11
222.326159
21
322.516257
0
LINE
8
annotation
62
1
39
211
10
222.326159
20
322.516257
11
222.182676
21
322.553281
0
LINE
8
annotation
62
1
39
211
10
222.182676
20
322.553281
11
222.037507
21
322.564708
0
LINE
8
annotation
62
1
39
211
10
222.037507
20
322.564708
11
221.893863
21
322.551371
0
LINE
8
annotation
62
1
39
211
10
221.893863
20
322.551371
11
221.754949
21
322.514103
0
LINE
8
annotation
62
1
39
211
10
221.754949
20
322.514103
11
221.623975
21
322.453737
0
LINE
8
annotation
62
1
39
211
10
221.623975
20
322.453737
11
221.504147
21
322.371107
0
LINE
8
annotation
62
1
39
211
10
221.504147
20
322.371107
11
221.398674
21
322.267046
0
LINE
8
annotation
62
1
39
211
10
221.398674
20
322.267046
11
221.310763
21
322.142387
0
LINE
8
annotation
62
1
39
211
10
221.310763
20
322.142387
11
221.199986
21
321.929886
0
LINE
8
annotation
62
1
39
211
10
226.463472
20
337.642475
11
224.776123
21
337.642475
0
LINE
8
annotation
62
1
39
211
10
224.776123
20
337.642475
11
226.335289
21
340.152532
0
LINE
8
annotation
62
1
39
211
10
226.335289
20
340.152532
11
226.335289
21
340.152532
0
LINE
8
annotation
62
1
39
211
10
226.335289
20
340.152532
11
226.337153
21
340.154838
0
LINE
8
annotation
62
1
39
211
10
226.337153
20
340.154838
11
226.338940
21
340.157164
0
LINE
8
annotation
62
1
39
211
10
226.338940
20
340.157164
11
226.340663
21
340.159530
0
LINE
8
annotation
62
1
39
211
10
226.340663
20
340.159530
11
226.342333
21
340.161954
0
LINE
8
annotation
62
1
39
211
10
226.342333
20
340.161954
11
226.343961
21
340.164456
0
LINE
8
annotation
62
1
39
211
10
226.343961
20
340.164456
11
226.345561
21
340.167057
0
LINE
8
annotation
62
1
39
211
10
226.345561
20
340.167057
11
226.347142
21
340.169775
0
LINE
8
annotation
62
1
39
211
10
226.347142
20
340.169775
11
226.348718
21
340.172631
0
LINE
8
annotation
62
1
39
211
10
226.348718
20
340.172631
11
226.350299
21
340.175643
0
LINE
8
annotation
62
1
39
211
10
226.350299
20
340.175643
11
226.350299
21
340.175643
0
LINE
8
annotation
62
1
39
211
10
226.350299
20
340.175643
11
226.414677
21
340.313867
0
LINE
8
annotation
62
1
39
211
10
226.414677
20
340.313867
11
226.452285
21
340.457149
0
LINE
8
annotation
62
1
39
211
10
226.452285
20
340.457149
11
226.464046
21
340.602250
0
LINE
8
annotation
62
1
39
211
10
226.464046
20
340.602250
11
226.450881
21
340.745933
0
LINE
8
annotation
62
1
39
211
10
226.450881
20
340.745933
11
226.413711
21
340.884962
0
LINE
8
annotation
62
1
39
211
10
226.413711
20
340.884962
11
226.353459
21
341.016097
0
LINE
8
annotation
62
1
39
211
10
226.353459
20
341.016097
11
226.271045
21
341.136101
0
LINE
8
annotation
62
1
39
211
10
226.271045
20
341.136101
11
226.167392
21
341.241738
0
LINE
8
annotation
62
1
39
211
10
226.167392
20
341.241738
11
226.043422
21
341.329769
0
LINE
8
annotation
62
1
39
211
10
226.043422
20
341.329769
11
226.043422
21
341.329769
0
LINE
8
annotation
62
1
39
211
10
226.043422
20
341.329769
11
225.904814
21
341.393232
0
LINE
8
annotation
62
1
39
211
10
225.904814
20
341.393232
11
225.761312
21
341.430261
0
LINE
8
annotation
62
1
39
211
10
225.761312
20
341.430261
11
225.616127
21
341.441689
0
LINE
8
annotation
62
1
39
211
10
225.616127
20
341.441689
11
225.472465
21
341.428350
0
LINE
8
annotation
62
1
39
211
10
225.472465
20
341.428350
11
225.333535
21
341.391077
0
LINE
8
annotation
62
1
39
211
10
225.333535
20
341.391077
11
225.202545
21
341.330704
0
LINE
8
annotation
62
1
39
211
10
225.202545
20
341.330704
11
225.082703
21
341.248064
0
LINE
8
annotation
62
1
39
211
10
225.082703
20
341.248064
11
224.977217
21
341.143991
0
LINE
8
annotation
62
1
39
211
10
224.977217
20
341.143991
11
224.889296
21
341.019318
0
LINE
8
annotation
62
1
39
211
10
224.889296
20
341.019318
11
224.778506
21
340.806791
0
LINE
8
annotation
62
1
39
211
10
227.888487
20
337.642625
11
228.732162
21
337.642625
0
LINE
8
annotation
62
1
39
211
10
228.732162
20
337.642625
11
228.732162
21
337.642625
0
LINE
8
annotation
62
1
39
211
10
228.732162
20
337.642625
11
228.883899
21
337.656237
0
LINE
8
annotation
62
1
39
211
10
228.883899
20
337.656237
11
229.026678
21
337.695467
0
LINE
8
annotation
62
1
39
211
10
229.026678
20
337.695467
11
229.158125
21
337.757907
0
LINE
8
annotation
62
1
39
211
10
229.158125
20
337.757907
11
229.275864
21
337.841149
0
LINE
8
annotation
62
1
39
211
10
229.275864
20
337.841149
11
229.377521
21
337.942786
0
LINE
8
annotation
62
1
39
211
10
229.377521
20
337.942786
11
229.460722
21
338.060408
0
LINE
8
annotation
62
1
39
211
10
229.460722
20
338.060408
11
229.523091
21
338.191608
0
LINE
8
annotation
62
1
39
211
10
229.523091
20
338.191608
11
229.562254
21
338.333977
0
LINE
8
annotation
62
1
39
211
10
229.562254
20
338.333977
11
229.575836
21
338.485108
0
LINE
8
annotation
62
1
39
211
10
229.575836
20
338.485108
11
229.575836
21
338.907541
0
LINE
8
annotation
62
1
39
211
10
229.575836
20
338.907541
11
229.575836
21
338.907541
0
LINE
8
annotation
62
1
39
211
10
229.575836
20
338.907541
11
229.562254
21
339.058610
0
LINE
8
annotation
62
1
39
211
10
229.562254
20
339.058610
11
229.523091
21
339.200946
0
LINE
8
annotation
62
1
39
211
10
229.523091
20
339.200946
11
229.460722
21
339.332136
0
LINE
8
annotation
62
1
39
211
10
229.460722
20
339.332136
11
229.377521
21
339.449766
0
LINE
8
annotation
62
1
39
211
10
229.377521
20
339.449766
11
229.275864
21
339.551422
0
LINE
8
annotation
62
1
39
211
10
229.275864
20
339.551422
11
229.158125
21
339.634690
0
LINE
8
annotation
62
1
39
211
10
229.158125
20
339.634690
11
229.026678
21
339.697155
0
LINE
8
annotation
62
1
39
211
10
229.026678
20
339.697155
11
228.883899
21
339.736405
0
LINE
8
annotation
62
1
39
211
10
228.883899
20
339.736405
11
228.732162
21
339.750025
0
LINE
8
annotation
62
1
39
211
10
228.732162
20
339.750025
11
228.309729
21
339.750025
0
LINE
8
annotation
62
1
39
211
10
228.309729
20
339.750025
11
228.732162
21
339.750025
0
LINE
8
annotation
62
1
39
211
10
228.732162
20
339.750025
11
228.732162
21
339.750025
0
LINE
8
annotation
62
1
39
211
10
228.732162
20
339.750025
11
228.883899
21
339.763647
0
LINE
8
annotation
62
1
39
211
10
228.883899
20
339.763647
11
229.026678
21
339.802920
0
LINE
8
annotation
62
1
39
211
10
229.026678
20
339.802920
11
229.158125
21
339.865448
0
LINE
8
annotation
62
1
39
211
10
229.158125
20
339.865448
11
229.275864
21
339.948836
0
LINE
8
annotation
62
1
39
211
10
229.275864
20
339.948836
11
229.377521
21
340.050692
0
LINE
8
annotation
62
1
39
211
10
229.377521
20
340.050692
11
229.460722
21
340.168619
0
LINE
8
annotation
62
1
39
211
10
229.460722
20
340.168619
11
229.523091
21
340.300224
0
LINE
8
annotation
62
1
39
211
10
229.523091
20
340.300224
11
229.562254
21
340.443113
0
LINE
8
annotation
62
1
39
211
10
229.562254
20
340.443113
11
229.575836
21
340.594890
0
LINE
8
annotation
62
1
39
211
10
229.575836
20
340.594890
11
229.575836
21
340.594890
0
LINE
8
annotation
62
1
39
211
10
229.575836
20
340.594890
11
229.562254
21
340.745959
0
LINE
8
annotation
62
1
39
211
10
229.562254
20
340.745959
11
229.523091
21
340.888295
0
LINE
8
annotation
62
1
39
211
10
229.523091
20
340.888295
11
229.460722
21
341.019485
0
LINE
8
annotation
62
1
39
211
10
229.460722
20
341.019485
11
229.377521
21
341.137115
0
LINE
8
annotation
62
1
39
211
10
229.377521
20
341.137115
11
229.275864
21
341.238771
0
LINE
8
annotation
62
1
39
211
10
229.275864
20
341.238771
11
229.158125
21
341.322039
0
LINE
8
annotation
62
1
39
211
10
229.158125
20
341.322039
11
229.026678
21
341.384504
0
LINE
8
annotation
62
1
39
211
10
229.026678
20
341.384504
11
228.883899
21
341.423754
0
LINE
8
annotation
62
1
39
211
10
228.883899
20
341.423754
11
228.732162
21
341.437374
0
LINE
8
annotation
62
1
39
211
10
228.732162
20
341.437374
11
227.888487
21
341.437374
0
LINE
8
annotation
62
1
39
211
10
195.297740
20
277.375702
11
193.220684
21
274.371430
0
LINE
8
annotation
62
1
39
211
10
193.220684
20
274.371430
11
191.143237
21
277.375702
0
LINE
8
annotation
62
1
39
211
10
193.220684
20
274.613194
11
193.220684
21
271.147267
0
LINE
8
annotation
62
1
39
211
10
201.039426
20
274.261485
11
197.634038
21
274.261485
0
LINE
8
annotation
62
1
39
211
10
204.759126
20
271.147462
11
204.759126
21
277.375507
0
LINE
8
annotation
62
1
39
211
10
204.759126
20
277.375507
11
203.374552
21
275.990542
0
LINE
8
annotation
62
1
39
211
10
208.479217
20
271.147462
11
208.479217
21
277.375507
0
LINE
8
annotation
62
1
39
211
10
208.479217
20
277.375507
11
207.094643
21
275.990542
0
LINE
8
frame
62
5
39
2
10
0.000000
20
0.000000
11
300.000000
21
0.000000
0
LINE
8
frame
62
5
39
2
10
300.000000
20
0.000000
11
300.000000
21
600.000000
0
LINE
8
frame
62
5
39
2
10
300.000000
20
600.000000
11
0.000000
21
600.000000
0
LINE
8
frame
62
5
39
2
10
0.000000
20
600.000000
11
0.000000
21
0.000000
0
ENDSEC
0
EOF
