0
SECTION
2
HEADER
9
$ACADVER
1
AC1009
0
ENDSEC
0
SECTION
2
TABLES
0
TABLE
2
VPORT
70
1
0
VPORT
2
ACTIVE
70
0
10
0.0
20
0.0
11
0.0
21
0.0
12
0.0
22
0.0
13
0.0
23
0.0
14
0.0
24
0.0
15
0.0
25
0.0
16
0.0
26
0.0
36
0.0
17
0.0
27
0.0
37
0.0
40
0.0
41
0.0
42
0.0
43
0.0
44
0.0
50
0.0
51
0.0
71
0
72
1000
73
1
74
3
75
0
76
0
77
0
78
0
0
ENDTAB
0
ENDSEC
0
SECTION
2
ENTITIES
0
LINE
8
boundary
62
5
39
2
10
22.763810
20
8.567556
11
23.812133
21
9.188663
0
LINE
8
boundary
62
5
39
2
10
23.812133
20
9.188663
11
24.433700
21
9.603643
0
LINE
8
boundary
62
5
39
2
10
24.433700
20
9.603643
11
25.026369
21
10.023181
0
LINE
8
boundary
62
5
39
2
10
25.026369
20
10.023181
11
26.140020
21
10.933404
0
LINE
8
boundary
62
5
39
2
10
26.140020
20
10.933404
11
27.236928
21
11.965773
0
LINE
8
boundary
62
5
39
2
10
27.236928
20
11.965773
11
27.904562
21
12.694229
0
LINE
8
boundary
62
5
39
2
10
27.904562
20
12.694229
11
28.312986
21
13.126185
0
LINE
8
boundary
62
5
39
2
10
28.312986
20
13.126185
11
29.341501
21
14.393411
0
LINE
8
boundary
62
5
39
2
10
29.341501
20
14.393411
11
30.380988
21
15.876479
0
LINE
8
boundary
62
5
39
2
10
30.380988
20
15.876479
11
30.820867
21
16.599421
0
LINE
8
boundary
62
5
39
2
10
30.820867
20
16.599421
11
31.363963
21
17.479745
0
LINE
8
boundary
62
5
39
2
10
31.363963
20
17.479745
11
32.294060
21
19.204593
0
LINE
8
boundary
62
5
39
2
10
32.294060
20
19.204593
11
32.526098
21
19.696492
0
LINE
8
boundary
62
5
39
2
10
32.526098
20
19.696492
11
33.211736
21
21.163042
0
LINE
8
boundary
62
5
39
2
10
33.211736
20
21.163042
11
33.856754
21
22.714284
0
LINE
8
boundary
62
5
39
2
10
33.856754
20
22.714284
11
34.080976
21
23.306545
0
LINE
8
boundary
62
5
39
2
10
34.080976
20
23.306545
11
34.379536
21
24.095646
0
LINE
8
boundary
62
5
39
2
10
34.379536
20
24.095646
11
34.768084
21
25.198166
0
LINE
8
boundary
62
5
39
2
10
34.768084
20
25.198166
11
35.073406
21
26.081206
0
LINE
8
boundary
62
5
39
2
10
35.073406
20
26.081206
11
35.419273
21
27.172819
0
LINE
8
boundary
62
5
39
2
10
35.419273
20
27.172819
11
35.646677
21
27.888561
0
LINE
8
boundary
62
5
39
2
10
35.646677
20
27.888561
11
35.845737
21
28.566547
0
LINE
8
boundary
62
5
39
2
10
35.845737
20
28.566547
11
36.038794
21
29.228524
0
LINE
8
boundary
62
5
39
2
10
36.038794
20
29.228524
11
36.198304
21
29.772347
0
LINE
8
boundary
62
5
39
2
10
36.198304
20
29.772347
11
36.337346
21
30.285922
0
LINE
8
boundary
62
5
39
2
10
36.337346
20
30.285922
11
36.510541
21
30.920784
0
LINE
8
boundary
62
5
39
2
10
36.510541
20
30.920784
11
36.728990
21
31.727382
0
LINE
8
boundary
62
5
39
2
10
36.728990
20
31.727382
11
36.912828
21
32.458350
0
LINE
8
boundary
62
5
39
2
10
36.912828
20
32.458350
11
37.142102
21
33.362001
0
LINE
8
boundary
62
5
39
2
10
37.142102
20
33.362001
11
37.463812
21
34.705680
0
LINE
8
boundary
62
5
39
2
10
37.463812
20
34.705680
11
37.729789
21
35.829310
0
LINE
8
boundary
62
5
39
2
10
37.729789
20
35.829310
11
37.971700
21
36.931449
0
LINE
8
boundary
62
5
39
2
10
37.971700
20
36.931449
11
38.200364
21
37.964114
0
LINE
8
boundary
62
5
39
2
10
38.200364
20
37.964114
11
38.438150
21
39.118613
0
LINE
8
boundary
62
5
39
2
10
38.438150
20
39.118613
11
38.652038
21
40.147772
0
LINE
8
boundary
62
5
39
2
10
38.652038
20
40.147772
11
38.887541
21
41.362803
0
LINE
8
boundary
62
5
39
2
10
38.887541
20
41.362803
11
39.085497
21
42.375119
0
LINE
8
boundary
62
5
39
2
10
39.085497
20
42.375119
11
39.320846
21
43.661961
0
LINE
8
boundary
62
5
39
2
10
39.320846
20
43.661961
11
39.501464
21
44.641242
0
LINE
8
boundary
62
5
39
2
10
39.501464
20
44.641242
11
39.791984
21
46.326643
0
LINE
8
boundary
62
5
39
2
10
39.791984
20
46.326643
11
39.898517
21
46.937262
0
LINE
8
boundary
62
5
39
2
10
39.898517
20
46.937262
11
40.056962
21
47.906828
0
LINE
8
boundary
62
5
39
2
10
40.056962
20
47.906828
11
40.283466
21
49.270035
0
LINE
8
boundary
62
5
39
2
10
40.283466
20
49.270035
11
40.404946
21
50.039038
0
LINE
8
boundary
62
5
39
2
10
40.404946
20
50.039038
11
40.573264
21
51.126463
0
LINE
8
boundary
62
5
39
2
10
40.573264
20
51.126463
11
40.819532
21
52.757945
0
LINE
8
boundary
62
5
39
2
10
40.819532
20
52.757945
11
41.007262
21
54.003736
0
LINE
8
boundary
62
5
39
2
10
41.007262
20
54.003736
11
41.081796
21
54.532318
0
LINE
8
boundary
62
5
39
2
10
41.081796
20
54.532318
11
41.197625
21
55.336778
0
LINE
8
boundary
62
5
39
2
10
41.197625
20
55.336778
11
41.388191
21
56.699951
0
LINE
8
boundary
62
5
39
2
10
41.388191
20
56.699951
11
41.517122
21
57.605297
0
LINE
8
boundary
62
5
39
2
10
41.517122
20
57.605297
11
41.688450
21
58.894608
0
LINE
8
boundary
62
5
39
2
10
41.688450
20
58.894608
11
41.965921
21
60.940933
0
LINE
8
boundary
62
5
39
2
10
41.965921
20
60.940933
11
42.274083
21
63.360427
0
LINE
8
boundary
62
5
39
2
10
42.274083
20
63.360427
11
42.473248
21
64.903065
0
LINE
8
boundary
62
5
39
2
10
42.473248
20
64.903065
11
42.562886
21
65.632257
0
LINE
8
boundary
62
5
39
2
10
42.562886
20
65.632257
11
42.714433
21
66.839042
0
LINE
8
boundary
62
5
39
2
10
42.714433
20
66.839042
11
42.846460
21
67.919949
0
LINE
8
boundary
62
5
39
2
10
42.846460
20
67.919949
11
42.928950
21
68.582211
0
LINE
8
boundary
62
5
39
2
10
42.928950
20
68.582211
11
43.125334
21
70.218358
0
LINE
8
boundary
62
5
39
2
10
43.125334
20
70.218358
11
43.377462
21
72.275464
0
LINE
8
boundary
62
5
39
2
10
43.377462
20
72.275464
11
43.469419
21
73.034438
0
LINE
8
boundary
62
5
39
2
10
43.469419
20
73.034438
11
43.689374
21
74.881507
0
LINE
8
boundary
62
5
39
2
10
43.689374
20
74.881507
11
43.821528
21
75.968674
0
LINE
8
boundary
62
5
39
2
10
43.821528
20
75.968674
11
43.973226
21
77.232374
0
LINE
8
boundary
62
5
39
2
10
43.973226
20
77.232374
11
44.252446
21
79.508896
0
LINE
8
boundary
62
5
39
2
10
44.252446
20
79.508896
11
44.554577
21
81.974110
0
LINE
8
boundary
62
5
39
2
10
44.554577
20
81.974110
11
44.729354
21
83.369841
0
LINE
8
boundary
62
5
39
2
10
44.729354
20
83.369841
11
44.855495
21
84.365488
0
LINE
8
boundary
62
5
39
2
10
44.855495
20
84.365488
11
45.097001
21
86.232358
0
LINE
8
boundary
62
5
39
2
10
45.097001
20
86.232358
11
45.166139
21
86.775116
0
LINE
8
boundary
62
5
39
2
10
45.166139
20
86.775116
11
45.483015
21
89.165247
0
LINE
8
boundary
62
5
39
2
10
45.483015
20
89.165247
11
45.699776
21
90.764898
0
LINE
8
boundary
62
5
39
2
10
45.699776
20
90.764898
11
45.814965
21
91.587258
0
LINE
8
boundary
62
5
39
2
10
45.814965
20
91.587258
11
46.043059
21
93.186020
0
LINE
8
boundary
62
5
39
2
10
46.043059
20
93.186020
11
46.160462
21
94.016947
0
LINE
8
boundary
62
5
39
2
10
46.160462
20
94.016947
11
46.518714
21
96.432503
0
LINE
8
boundary
62
5
39
2
10
46.518714
20
96.432503
11
46.779138
21
98.149765
0
LINE
8
boundary
62
5
39
2
10
46.779138
20
98.149765
11
46.894687
21
98.883370
0
LINE
8
boundary
62
5
39
2
10
46.894687
20
98.883370
11
47.130691
21
100.360840
0
LINE
8
boundary
62
5
39
2
10
47.130691
20
100.360840
11
47.286630
21
101.341344
0
LINE
8
boundary
62
5
39
2
10
47.286630
20
101.341344
11
47.368421
21
101.849799
0
LINE
8
boundary
62
5
39
2
10
47.368421
20
101.849799
11
47.693499
21
103.796022
0
LINE
8
boundary
62
5
39
2
10
47.693499
20
103.796022
11
47.991269
21
105.560907
0
LINE
8
boundary
62
5
39
2
10
47.991269
20
105.560907
11
48.119257
21
106.292567
0
LINE
8
boundary
62
5
39
2
10
48.119257
20
106.292567
11
48.389637
21
107.824643
0
LINE
8
boundary
62
5
39
2
10
48.389637
20
107.824643
11
48.562338
21
108.803279
0
LINE
8
boundary
62
5
39
2
10
48.562338
20
108.803279
11
49.021717
21
111.316582
0
LINE
8
boundary
62
5
39
2
10
49.021717
20
111.316582
11
49.342905
21
113.053476
0
LINE
8
boundary
62
5
39
2
10
49.342905
20
113.053476
11
49.500803
21
113.877947
0
LINE
8
boundary
62
5
39
2
10
49.500803
20
113.877947
11
49.846648
21
115.677347
0
LINE
8
boundary
62
5
39
2
10
49.846648
20
115.677347
11
49.998616
21
116.465496
0
LINE
8
boundary
62
5
39
2
10
49.998616
20
116.465496
11
50.513562
21
119.055196
0
LINE
8
boundary
62
5
39
2
10
50.513562
20
119.055196
11
50.837464
21
120.676367
0
LINE
8
boundary
62
5
39
2
10
50.837464
20
120.676367
11
51.048802
21
121.698356
0
LINE
8
boundary
62
5
39
2
10
51.048802
20
121.698356
11
51.529495
21
124.025541
0
LINE
8
boundary
62
5
39
2
10
51.529495
20
124.025541
11
51.638962
21
124.553325
0
LINE
8
boundary
62
5
39
2
10
51.638962
20
124.553325
11
52.177186
21
127.066024
0
LINE
8
boundary
62
5
39
2
10
52.177186
20
127.066024
11
52.476418
21
128.469488
0
LINE
8
boundary
62
5
39
2
10
52.476418
20
128.469488
11
52.770983
21
129.804769
0
LINE
8
boundary
62
5
39
2
10
52.770983
20
129.804769
11
53.350115
21
132.442918
0
LINE
8
boundary
62
5
39
2
10
53.350115
20
132.442918
11
53.471699
21
132.980643
0
LINE
8
boundary
62
5
39
2
10
53.471699
20
132.980643
11
54.019601
21
135.393265
0
LINE
8
boundary
62
5
39
2
10
54.019601
20
135.393265
11
54.260577
21
136.462628
0
LINE
8
boundary
62
5
39
2
10
54.260577
20
136.462628
11
54.674294
21
138.237353
0
LINE
8
boundary
62
5
39
2
10
54.674294
20
138.237353
11
55.207323
21
140.541196
0
LINE
8
boundary
62
5
39
2
10
55.207323
20
140.541196
11
55.350613
21
141.140474
0
LINE
8
boundary
62
5
39
2
10
55.350613
20
141.140474
11
55.708381
21
142.647510
0
LINE
8
boundary
62
5
39
2
10
55.708381
20
142.647510
11
56.047733
21
144.068726
0
LINE
8
boundary
62
5
39
2
10
56.047733
20
144.068726
11
56.191165
21
144.675150
0
LINE
8
boundary
62
5
39
2
10
56.191165
20
144.675150
11
56.765723
21
147.023950
0
LINE
8
boundary
62
5
39
2
10
56.765723
20
147.023950
11
57.212242
21
148.865377
0
LINE
8
boundary
62
5
39
2
10
57.212242
20
148.865377
11
57.506158
21
150.038631
0
LINE
8
boundary
62
5
39
2
10
57.506158
20
150.038631
11
58.265504
21
153.093819
0
LINE
8
boundary
62
5
39
2
10
58.265504
20
153.093819
11
59.053198
21
156.179905
0
LINE
8
boundary
62
5
39
2
10
59.053198
20
156.179905
11
59.367327
21
157.420675
0
LINE
8
boundary
62
5
39
2
10
59.367327
20
157.420675
11
59.651517
21
158.514955
0
LINE
8
boundary
62
5
39
2
10
59.651517
20
158.514955
11
59.930270
21
159.595122
0
LINE
8
boundary
62
5
39
2
10
59.930270
20
159.595122
11
60.127666
21
160.346225
0
LINE
8
boundary
62
5
39
2
10
60.127666
20
160.346225
11
60.503343
21
161.783951
0
LINE
8
boundary
62
5
39
2
10
60.503343
20
161.783951
11
61.086752
21
163.986874
0
LINE
8
boundary
62
5
39
2
10
61.086752
20
163.986874
11
61.602286
21
165.912771
0
LINE
8
boundary
62
5
39
2
10
61.602286
20
165.912771
11
62.107933
21
167.784339
0
LINE
8
boundary
62
5
39
2
10
62.107933
20
167.784339
11
62.282512
21
168.431622
0
LINE
8
boundary
62
5
39
2
10
62.282512
20
168.431622
11
62.622129
21
169.669740
0
LINE
8
boundary
62
5
39
2
10
62.622129
20
169.669740
11
62.896645
21
170.674178
0
LINE
8
boundary
62
5
39
2
10
62.896645
20
170.674178
11
63.145054
21
171.568498
0
LINE
8
boundary
62
5
39
2
10
63.145054
20
171.568498
11
63.522080
21
172.929759
0
LINE
8
boundary
62
5
39
2
10
63.522080
20
172.929759
11
63.676899
21
173.480148
0
LINE
8
boundary
62
5
39
2
10
63.676899
20
173.480148
11
64.159108
21
175.197983
0
LINE
8
boundary
62
5
39
2
10
64.159108
20
175.197983
11
64.548137
21
176.565000
0
LINE
8
boundary
62
5
39
2
10
64.548137
20
176.565000
11
64.766341
21
177.334444
0
LINE
8
boundary
62
5
39
2
10
64.766341
20
177.334444
11
65.321584
21
179.268164
0
LINE
8
boundary
62
5
39
2
10
65.321584
20
179.268164
11
65.465974
21
179.770698
0
LINE
8
boundary
62
5
39
2
10
65.465974
20
179.770698
11
65.925682
21
181.347162
0
LINE
8
boundary
62
5
39
2
10
65.925682
20
181.347162
11
66.212857
21
182.331455
0
LINE
8
boundary
62
5
39
2
10
66.212857
20
182.331455
11
66.554444
21
183.485578
0
LINE
8
boundary
62
5
39
2
10
66.554444
20
183.485578
11
66.975498
21
184.906136
0
LINE
8
boundary
62
5
39
2
10
66.975498
20
184.906136
11
67.194715
21
185.636138
0
LINE
8
boundary
62
5
39
2
10
67.194715
20
185.636138
11
67.753983
21
187.494180
0
LINE
8
boundary
62
5
39
2
10
67.753983
20
187.494180
11
68.316948
21
189.337664
0
LINE
8
boundary
62
5
39
2
10
68.316948
20
189.337664
11
68.507837
21
189.965443
0
LINE
8
boundary
62
5
39
2
10
68.507837
20
189.965443
11
69.176055
21
192.132550
0
LINE
8
boundary
62
5
39
2
10
69.176055
20
192.132550
11
69.354726
21
192.709277
0
LINE
8
boundary
62
5
39
2
10
69.354726
20
192.709277
11
69.855287
21
194.308597
0
LINE
8
boundary
62
5
39
2
10
69.855287
20
194.308597
11
70.178213
21
195.335513
0
LINE
8
boundary
62
5
39
2
10
70.178213
20
195.335513
11
70.545455
21
196.492655
0
LINE
8
boundary
62
5
39
2
10
70.545455
20
196.492655
11
71.017948
21
197.973548
0
LINE
8
boundary
62
5
39
2
10
71.017948
20
197.973548
11
71.246444
21
198.683814
0
LINE
8
boundary
62
5
39
2
10
71.246444
20
198.683814
11
71.873926
21
200.622943
0
LINE
8
boundary
62
5
39
2
10
71.873926
20
200.622943
11
72.367150
21
202.128043
0
LINE
8
boundary
62
5
39
2
10
72.367150
20
202.128043
11
72.677019
21
203.078194
0
LINE
8
boundary
62
5
39
2
10
72.677019
20
203.078194
11
73.401919
21
205.272681
0
LINE
8
boundary
62
5
39
2
10
73.401919
20
205.272681
11
73.629198
21
205.955441
0
LINE
8
boundary
62
5
39
2
10
73.629198
20
205.955441
11
74.136841
21
207.471277
0
LINE
8
boundary
62
5
39
2
10
74.136841
20
207.471277
11
74.530369
21
208.637649
0
LINE
8
boundary
62
5
39
2
10
74.530369
20
208.637649
11
74.881596
21
209.673165
0
LINE
8
boundary
62
5
39
2
10
74.881596
20
209.673165
11
75.447927
21
211.329905
0
LINE
8
boundary
62
5
39
2
10
75.447927
20
211.329905
11
75.635981
21
211.877496
0
LINE
8
boundary
62
5
39
2
10
75.635981
20
211.877496
11
76.381815
21
214.031866
0
LINE
8
boundary
62
5
39
2
10
76.381815
20
214.031866
11
77.164598
21
216.279219
0
LINE
8
boundary
62
5
39
2
10
77.164598
20
216.279219
11
78.356761
21
219.649910
0
LINE
8
boundary
62
5
39
2
10
78.356761
20
219.649910
11
79.266885
21
222.192980
0
LINE
8
boundary
62
5
39
2
10
79.266885
20
222.192980
11
79.672865
21
223.313629
0
LINE
8
boundary
62
5
39
2
10
79.672865
20
223.313629
11
80.487620
21
225.538167
0
LINE
8
boundary
62
5
39
2
10
80.487620
20
225.538167
11
80.998036
21
226.945857
0
LINE
8
boundary
62
5
39
2
10
80.998036
20
226.945857
11
81.265372
21
227.674836
0
LINE
8
boundary
62
5
39
2
10
81.265372
20
227.674836
11
82.327446
21
230.540470
0
LINE
8
boundary
62
5
39
2
10
82.327446
20
230.540470
11
83.318738
21
233.184610
0
LINE
8
boundary
62
5
39
2
10
83.318738
20
233.184610
11
83.666166
21
234.102928
0
LINE
8
boundary
62
5
39
2
10
83.666166
20
234.102928
11
84.287366
21
235.726192
0
LINE
8
boundary
62
5
39
2
10
84.287366
20
235.726192
11
85.004330
21
237.621593
0
LINE
8
boundary
62
5
39
2
10
85.004330
20
237.621593
11
85.423058
21
238.715636
0
LINE
8
boundary
62
5
39
2
10
85.423058
20
238.715636
11
86.341011
21
241.095865
0
LINE
8
boundary
62
5
39
2
10
86.341011
20
241.095865
11
87.576434
21
244.262527
0
LINE
8
boundary
62
5
39
2
10
87.576434
20
244.262527
11
87.846462
21
244.945559
0
LINE
8
boundary
62
5
39
2
10
87.846462
20
244.945559
11
89.006537
21
247.906038
0
LINE
8
boundary
62
5
39
2
10
89.006537
20
247.906038
11
89.760517
21
249.808437
0
LINE
8
boundary
62
5
39
2
10
89.760517
20
249.808437
11
90.329475
21
251.236867
0
LINE
8
boundary
62
5
39
2
10
90.329475
20
251.236867
11
91.165517
21
253.313405
0
LINE
8
boundary
62
5
39
2
10
91.165517
20
253.313405
11
91.642396
21
254.515763
0
LINE
8
boundary
62
5
39
2
10
91.642396
20
254.515763
11
91.975247
21
255.345868
0
LINE
8
boundary
62
5
39
2
10
91.975247
20
255.345868
11
92.938607
21
257.740121
0
LINE
8
boundary
62
5
39
2
10
92.938607
20
257.740121
11
94.205487
21
260.857164
0
LINE
8
boundary
62
5
39
2
10
94.205487
20
260.857164
11
95.489102
21
264.028952
0
LINE
8
boundary
62
5
39
2
10
95.489102
20
264.028952
11
96.419014
21
266.307088
0
LINE
8
boundary
62
5
39
2
10
96.419014
20
266.307088
11
96.773216
21
267.173637
0
LINE
8
boundary
62
5
39
2
10
96.773216
20
267.173637
11
97.145986
21
268.078143
0
LINE
8
boundary
62
5
39
2
10
97.145986
20
268.078143
11
98.119663
21
270.485086
0
LINE
8
boundary
62
5
39
2
10
98.119663
20
270.485086
11
99.040411
21
272.742160
0
LINE
8
boundary
62
5
39
2
10
99.040411
20
272.742160
11
99.442498
21
273.728552
0
LINE
8
boundary
62
5
39
2
10
99.442498
20
273.728552
11
99.849064
21
274.719904
0
LINE
8
boundary
62
5
39
2
10
99.849064
20
274.719904
11
100.727012
21
276.903473
0
LINE
8
boundary
62
5
39
2
10
100.727012
20
276.903473
11
101.578404
21
279.007690
0
LINE
8
boundary
62
5
39
2
10
101.578404
20
279.007690
11
101.983575
21
280.013231
0
LINE
8
boundary
62
5
39
2
10
101.983575
20
280.013231
11
102.385003
21
281.006146
0
LINE
8
boundary
62
5
39
2
10
102.385003
20
281.006146
11
103.197176
21
283.057115
0
LINE
8
boundary
62
5
39
2
10
103.197176
20
283.057115
11
103.988400
21
285.047697
0
LINE
8
boundary
62
5
39
2
10
103.988400
20
285.047697
11
104.379372
21
286.039390
0
LINE
8
boundary
62
5
39
2
10
104.379372
20
286.039390
11
104.766619
21
287.021210
0
LINE
8
boundary
62
5
39
2
10
104.766619
20
287.021210
11
105.514599
21
288.958948
0
LINE
8
boundary
62
5
39
2
10
105.514599
20
288.958948
11
106.232366
21
290.816371
0
LINE
8
boundary
62
5
39
2
10
106.232366
20
290.816371
11
106.615678
21
291.820770
0
LINE
8
boundary
62
5
39
2
10
106.615678
20
291.820770
11
107.002224
21
292.835764
0
LINE
8
boundary
62
5
39
2
10
107.002224
20
292.835764
11
107.507560
21
294.186321
0
LINE
8
boundary
62
5
39
2
10
107.507560
20
294.186321
11
108.282064
21
296.258361
0
LINE
8
boundary
62
5
39
2
10
108.282064
20
296.258361
11
109.031222
21
298.331381
0
LINE
8
boundary
62
5
39
2
10
109.031222
20
298.331381
11
109.498690
21
299.628996
0
LINE
8
boundary
62
5
39
2
10
109.498690
20
299.628996
11
109.759850
21
300.364113
0
LINE
8
boundary
62
5
39
2
10
109.759850
20
300.364113
11
110.148798
21
301.461031
0
LINE
8
boundary
62
5
39
2
10
110.148798
20
301.461031
11
110.463230
21
302.370789
0
LINE
8
boundary
62
5
39
2
10
110.463230
20
302.370789
11
110.671013
21
302.974458
0
LINE
8
boundary
62
5
39
2
10
110.671013
20
302.974458
11
111.138088
21
304.350574
0
LINE
8
boundary
62
5
39
2
10
111.138088
20
304.350574
11
111.797987
21
306.300699
0
LINE
8
boundary
62
5
39
2
10
111.797987
20
306.300699
11
112.420545
21
308.238956
0
LINE
8
boundary
62
5
39
2
10
112.420545
20
308.238956
11
112.856816
21
309.602794
0
LINE
8
boundary
62
5
39
2
10
112.856816
20
309.602794
11
113.028606
21
310.148264
0
LINE
8
boundary
62
5
39
2
10
113.028606
20
310.148264
11
113.257428
21
310.876350
0
LINE
8
boundary
62
5
39
2
10
113.257428
20
310.876350
11
113.546289
21
311.830318
0
LINE
8
boundary
62
5
39
2
10
113.546289
20
311.830318
11
113.869682
21
312.901330
0
LINE
8
boundary
62
5
39
2
10
113.869682
20
312.901330
11
114.123542
21
313.756722
0
LINE
8
boundary
62
5
39
2
10
114.123542
20
313.756722
11
114.443385
21
314.875054
0
LINE
8
boundary
62
5
39
2
10
114.443385
20
314.875054
11
114.817772
21
316.186796
0
LINE
8
boundary
62
5
39
2
10
114.817772
20
316.186796
11
115.265011
21
317.838446
0
LINE
8
boundary
62
5
39
2
10
115.265011
20
317.838446
11
115.619591
21
319.160936
0
LINE
8
boundary
62
5
39
2
10
115.619591
20
319.160936
11
116.010143
21
320.718175
0
LINE
8
boundary
62
5
39
2
10
116.010143
20
320.718175
11
116.253794
21
321.692729
0
LINE
8
boundary
62
5
39
2
10
116.253794
20
321.692729
11
116.490890
21
322.692363
0
LINE
8
boundary
62
5
39
2
10
116.490890
20
322.692363
11
116.614821
21
323.225659
0
LINE
8
boundary
62
5
39
2
10
116.614821
20
323.225659
11
116.872047
21
324.374810
0
LINE
8
boundary
62
5
39
2
10
116.872047
20
324.374810
11
117.075816
21
325.296152
0
LINE
8
boundary
62
5
39
2
10
117.075816
20
325.296152
11
117.200780
21
325.895731
0
LINE
8
boundary
62
5
39
2
10
117.200780
20
325.895731
11
117.377930
21
326.775323
0
LINE
8
boundary
62
5
39
2
10
117.377930
20
326.775323
11
117.629665
21
328.095154
0
LINE
8
boundary
62
5
39
2
10
117.629665
20
328.095154
11
117.737473
21
328.662365
0
LINE
8
boundary
62
5
39
2
10
117.737473
20
328.662365
11
117.863503
21
329.387859
0
LINE
8
boundary
62
5
39
2
10
117.863503
20
329.387859
11
118.018366
21
330.268858
0
LINE
8
boundary
62
5
39
2
10
118.018366
20
330.268858
11
118.267521
21
331.826474
0
LINE
8
boundary
62
5
39
2
10
118.267521
20
331.826474
11
118.440637
21
333.092615
0
LINE
8
boundary
62
5
39
2
10
118.440637
20
333.092615
11
118.582380
21
334.264313
0
LINE
8
boundary
62
5
39
2
10
118.582380
20
334.264313
11
118.705672
21
335.407924
0
LINE
8
boundary
62
5
39
2
10
118.705672
20
335.407924
11
118.781576
21
336.154193
0
LINE
8
boundary
62
5
39
2
10
118.781576
20
336.154193
11
118.889560
21
337.498557
0
LINE
8
boundary
62
5
39
2
10
118.889560
20
337.498557
11
118.924525
21
338.094014
0
LINE
8
boundary
62
5
39
2
10
118.924525
20
338.094014
11
118.952116
21
338.661055
0
LINE
8
boundary
62
5
39
2
10
118.952116
20
338.661055
11
118.981019
21
339.678650
0
LINE
8
boundary
62
5
39
2
10
118.981019
20
339.678650
11
118.990511
21
340.667012
0
LINE
8
boundary
62
5
39
2
10
118.990511
20
340.667012
11
118.992466
21
341.197209
0
LINE
8
boundary
62
5
39
2
10
118.992466
20
341.197209
11
118.963209
21
342.331303
0
LINE
8
boundary
62
5
39
2
10
118.963209
20
342.331303
11
118.903198
21
343.418001
0
LINE
8
boundary
62
5
39
2
10
118.903198
20
343.418001
11
118.838046
21
344.029169
0
LINE
8
boundary
62
5
39
2
10
118.838046
20
344.029169
11
118.668114
21
345.379817
0
LINE
8
boundary
62
5
39
2
10
118.668114
20
345.379817
11
118.472471
21
346.461606
0
LINE
8
boundary
62
5
39
2
10
118.472471
20
346.461606
11
118.248522
21
347.453248
0
LINE
8
boundary
62
5
39
2
10
118.248522
20
347.453248
11
118.095257
21
348.057146
0
LINE
8
boundary
62
5
39
2
10
118.095257
20
348.057146
11
117.762183
21
349.092320
0
LINE
8
boundary
62
5
39
2
10
117.762183
20
349.092320
11
117.382630
21
350.040674
0
LINE
8
boundary
62
5
39
2
10
117.382630
20
350.040674
11
117.006089
21
350.785444
0
LINE
8
boundary
62
5
39
2
10
117.006089
20
350.785444
11
116.631305
21
351.397684
0
LINE
8
boundary
62
5
39
2
10
116.631305
20
351.397684
11
116.229210
21
351.961396
0
LINE
8
boundary
62
5
39
2
10
116.229210
20
351.961396
11
115.799798
21
352.474575
0
LINE
8
boundary
62
5
39
2
10
115.799798
20
352.474575
11
115.396760
21
352.889191
0
LINE
8
boundary
62
5
39
2
10
115.396760
20
352.889191
11
114.852648
21
353.335128
0
LINE
8
boundary
62
5
39
2
10
114.852648
20
353.335128
11
114.329583
21
353.672384
0
LINE
8
boundary
62
5
39
2
10
114.329583
20
353.672384
11
113.781725
21
353.952704
0
LINE
8
boundary
62
5
39
2
10
113.781725
20
353.952704
11
113.209726
21
354.174279
0
LINE
8
boundary
62
5
39
2
10
113.209726
20
354.174279
11
112.614229
21
354.334982
0
LINE
8
boundary
62
5
39
2
10
112.614229
20
354.334982
11
112.079853
21
354.426174
0
LINE
8
boundary
62
5
39
2
10
112.079853
20
354.426174
11
111.516111
21
354.456435
0
LINE
8
boundary
62
5
39
2
10
111.516111
20
354.456435
11
110.722428
21
354.422078
0
LINE
8
boundary
62
5
39
2
10
110.722428
20
354.422078
11
110.066740
21
354.321598
0
LINE
8
boundary
62
5
39
2
10
110.066740
20
354.321598
11
109.395467
21
354.160902
0
LINE
8
boundary
62
5
39
2
10
109.395467
20
354.160902
11
108.710005
21
353.939484
0
LINE
8
boundary
62
5
39
2
10
108.710005
20
353.939484
11
108.067154
21
353.683459
0
LINE
8
boundary
62
5
39
2
10
108.067154
20
353.683459
11
107.296803
21
353.302668
0
LINE
8
boundary
62
5
39
2
10
107.296803
20
353.302668
11
106.568999
21
352.879428
0
LINE
8
boundary
62
5
39
2
10
106.568999
20
352.879428
11
105.833620
21
352.393721
0
LINE
8
boundary
62
5
39
2
10
105.833620
20
352.393721
11
105.092385
21
351.845849
0
LINE
8
boundary
62
5
39
2
10
105.092385
20
351.845849
11
104.542279
21
351.408081
0
LINE
8
boundary
62
5
39
2
10
104.542279
20
351.408081
11
110.062290
21
351.063517
0
LINE
8
boundary
62
5
39
2
10
110.062290
20
351.063517
11
110.062290
21
348.317517
0
LINE
8
boundary
62
5
39
2
10
110.062290
20
348.317517
11
101.477106
21
348.317517
0
LINE
8
boundary
62
5
39
2
10
101.477106
20
348.317517
11
100.906044
21
347.645683
0
LINE
8
boundary
62
5
39
2
10
100.906044
20
347.645683
11
100.570287
21
347.224210
0
LINE
8
boundary
62
5
39
2
10
100.570287
20
347.224210
11
99.993490
21
346.496235
0
LINE
8
boundary
62
5
39
2
10
99.993490
20
346.496235
11
99.082589
21
345.274956
0
LINE
8
boundary
62
5
39
2
10
99.082589
20
345.274956
11
98.282156
21
344.140649
0
LINE
8
boundary
62
5
39
2
10
98.282156
20
344.140649
11
97.509012
21
342.996164
0
LINE
8
boundary
62
5
39
2
10
97.509012
20
342.996164
11
96.733401
21
341.802259
0
LINE
8
boundary
62
5
39
2
10
96.733401
20
341.802259
11
96.364339
21
341.225533
0
LINE
8
boundary
62
5
39
2
10
96.364339
20
341.225533
11
95.954561
21
340.558433
0
LINE
8
boundary
62
5
39
2
10
95.954561
20
340.558433
11
95.471233
21
339.770897
0
LINE
8
boundary
62
5
39
2
10
95.471233
20
339.770897
11
95.171283
21
339.263020
0
LINE
8
boundary
62
5
39
2
10
95.171283
20
339.263020
11
94.587120
21
338.273555
0
LINE
8
boundary
62
5
39
2
10
94.587120
20
338.273555
11
93.713308
21
336.738924
0
LINE
8
boundary
62
5
39
2
10
93.713308
20
336.738924
11
92.850998
21
335.172092
0
LINE
8
boundary
62
5
39
2
10
92.850998
20
335.172092
11
92.000919
21
333.577516
0
LINE
8
boundary
62
5
39
2
10
92.000919
20
333.577516
11
91.358944
21
332.336764
0
LINE
8
boundary
62
5
39
2
10
91.358944
20
332.336764
11
104.296862
21
332.186763
0
LINE
8
boundary
62
5
39
2
10
104.296862
20
332.186763
11
104.296862
21
329.440763
0
LINE
8
boundary
62
5
39
2
10
104.296862
20
329.440763
11
89.908429
21
329.440764
0
LINE
8
boundary
62
5
39
2
10
89.908429
20
329.440764
11
89.519307
21
328.646291
0
LINE
8
boundary
62
5
39
2
10
89.519307
20
328.646291
11
89.266188
21
328.115861
0
LINE
8
boundary
62
5
39
2
10
89.266188
20
328.115861
11
88.711411
21
326.954283
0
LINE
8
boundary
62
5
39
2
10
88.711411
20
326.954283
11
88.245917
21
325.955281
0
LINE
8
boundary
62
5
39
2
10
88.245917
20
325.955281
11
87.910422
21
325.235941
0
LINE
8
boundary
62
5
39
2
10
87.910422
20
325.235941
11
87.374830
21
324.063609
0
LINE
8
boundary
62
5
39
2
10
87.374830
20
324.063609
11
87.148332
21
323.562230
0
LINE
8
boundary
62
5
39
2
10
87.148332
20
323.562230
11
86.716771
21
322.603785
0
LINE
8
boundary
62
5
39
2
10
86.716771
20
322.603785
11
86.119875
21
321.258103
0
LINE
8
boundary
62
5
39
2
10
86.119875
20
321.258103
11
85.540756
21
319.933512
0
LINE
8
boundary
62
5
39
2
10
85.540756
20
319.933512
11
84.918160
21
318.492978
0
LINE
8
boundary
62
5
39
2
10
84.918160
20
318.492978
11
84.326842
21
317.105647
0
LINE
8
boundary
62
5
39
2
10
84.326842
20
317.105647
11
83.694368
21
315.604744
0
LINE
8
boundary
62
5
39
2
10
83.694368
20
315.604744
11
83.368080
21
314.820293
0
LINE
8
boundary
62
5
39
2
10
83.368080
20
314.820293
11
83.133086
21
314.257860
0
LINE
8
boundary
62
5
39
2
10
83.133086
20
314.257860
11
82.805495
21
313.460010
0
LINE
8
boundary
62
5
39
2
10
82.805495
20
313.460010
11
97.800310
21
313.310010
0
LINE
8
boundary
62
5
39
2
10
97.800310
20
313.310010
11
97.800310
21
310.564009
0
LINE
8
boundary
62
5
39
2
10
97.800310
20
310.564009
11
81.628920
21
310.564009
0
LINE
8
boundary
62
5
39
2
10
81.628920
20
310.564009
11
81.257660
21
309.627130
0
LINE
8
boundary
62
5
39
2
10
81.257660
20
309.627130
11
80.699966
21
308.220521
0
LINE
8
boundary
62
5
39
2
10
80.699966
20
308.220521
11
80.502186
21
307.712258
0
LINE
8
boundary
62
5
39
2
10
80.502186
20
307.712258
11
80.217976
21
306.983810
0
LINE
8
boundary
62
5
39
2
10
80.217976
20
306.983810
11
79.843230
21
306.006798
0
LINE
8
boundary
62
5
39
2
10
79.843230
20
306.006798
11
79.449342
21
304.969454
0
LINE
8
boundary
62
5
39
2
10
79.449342
20
304.969454
11
79.178543
21
304.259575
0
LINE
8
boundary
62
5
39
2
10
79.178543
20
304.259575
11
78.830408
21
303.337753
0
LINE
8
boundary
62
5
39
2
10
78.830408
20
303.337753
11
78.508780
21
302.474248
0
LINE
8
boundary
62
5
39
2
10
78.508780
20
302.474248
11
78.161108
21
301.531362
0
LINE
8
boundary
62
5
39
2
10
78.161108
20
301.531362
11
77.948234
21
300.959283
0
LINE
8
boundary
62
5
39
2
10
77.948234
20
300.959283
11
77.507343
21
299.756887
0
LINE
8
boundary
62
5
39
2
10
77.507343
20
299.756887
11
77.159971
21
298.796456
0
LINE
8
boundary
62
5
39
2
10
77.159971
20
298.796456
11
76.883908
21
298.025477
0
LINE
8
boundary
62
5
39
2
10
76.883908
20
298.025477
11
76.621357
21
297.299206
0
LINE
8
boundary
62
5
39
2
10
76.621357
20
297.299206
11
76.177017
21
296.052257
0
LINE
8
boundary
62
5
39
2
10
76.177017
20
296.052257
11
75.803699
21
294.990457
0
LINE
8
boundary
62
5
39
2
10
75.803699
20
294.990457
11
75.671936
21
294.433256
0
LINE
8
boundary
62
5
39
2
10
75.671936
20
294.433256
11
90.968062
21
294.433256
0
LINE
8
boundary
62
5
39
2
10
90.968062
20
294.433256
11
90.968062
21
291.687256
0
LINE
8
boundary
62
5
39
2
10
90.968062
20
291.687256
11
74.656054
21
291.687256
0
LINE
8
boundary
62
5
39
2
10
74.656054
20
291.687256
11
74.443335
21
291.065326
0
LINE
8
boundary
62
5
39
2
10
74.443335
20
291.065326
11
74.254841
21
290.508837
0
LINE
8
boundary
62
5
39
2
10
74.254841
20
290.508837
11
73.925956
21
289.546700
0
LINE
8
boundary
62
5
39
2
10
73.925956
20
289.546700
11
73.761465
21
289.059108
0
LINE
8
boundary
62
5
39
2
10
73.761465
20
289.059108
11
73.469070
21
288.191565
0
LINE
8
boundary
62
5
39
2
10
73.469070
20
288.191565
11
73.080223
21
287.023354
0
LINE
8
boundary
62
5
39
2
10
73.080223
20
287.023354
11
72.861621
21
286.360360
0
LINE
8
boundary
62
5
39
2
10
72.861621
20
286.360360
11
72.547239
21
285.414785
0
LINE
8
boundary
62
5
39
2
10
72.547239
20
285.414785
11
71.853750
21
283.287206
0
LINE
8
boundary
62
5
39
2
10
71.853750
20
283.287206
11
71.397922
21
281.861304
0
LINE
8
boundary
62
5
39
2
10
71.397922
20
281.861304
11
71.027931
21
280.722822
0
LINE
8
boundary
62
5
39
2
10
71.027931
20
280.722822
11
70.575954
21
279.305316
0
LINE
8
boundary
62
5
39
2
10
70.575954
20
279.305316
11
70.188691
21
278.071070
0
LINE
8
boundary
62
5
39
2
10
70.188691
20
278.071070
11
69.842858
21
276.951777
0
LINE
8
boundary
62
5
39
2
10
69.842858
20
276.951777
11
69.453082
21
275.706502
0
LINE
8
boundary
62
5
39
2
10
69.453082
20
275.706502
11
84.142970
21
275.556502
0
LINE
8
boundary
62
5
39
2
10
84.142970
20
275.556502
11
84.142970
21
272.810502
0
LINE
8
boundary
62
5
39
2
10
84.142970
20
272.810502
11
68.562061
21
272.810502
0
LINE
8
boundary
62
5
39
2
10
68.562061
20
272.810502
11
68.195766
21
271.593619
0
LINE
8
boundary
62
5
39
2
10
68.195766
20
271.593619
11
67.791517
21
270.259212
0
LINE
8
boundary
62
5
39
2
10
67.791517
20
270.259212
11
67.398067
21
268.946535
0
LINE
8
boundary
62
5
39
2
10
67.398067
20
268.946535
11
67.090981
21
267.910303
0
LINE
8
boundary
62
5
39
2
10
67.090981
20
267.910303
11
66.751132
21
266.754139
0
LINE
8
boundary
62
5
39
2
10
66.751132
20
266.754139
11
66.384463
21
265.514003
0
LINE
8
boundary
62
5
39
2
10
66.384463
20
265.514003
11
66.045054
21
264.356402
0
LINE
8
boundary
62
5
39
2
10
66.045054
20
264.356402
11
65.671572
21
263.068018
0
LINE
8
boundary
62
5
39
2
10
65.671572
20
263.068018
11
65.236163
21
261.557369
0
LINE
8
boundary
62
5
39
2
10
65.236163
20
261.557369
11
64.863889
21
260.271637
0
LINE
8
boundary
62
5
39
2
10
64.863889
20
260.271637
11
64.699789
21
259.699774
0
LINE
8
boundary
62
5
39
2
10
64.699789
20
259.699774
11
64.243212
21
258.101262
0
LINE
8
boundary
62
5
39
2
10
64.243212
20
258.101262
11
64.030413
21
257.352554
0
LINE
8
boundary
62
5
39
2
10
64.030413
20
257.352554
11
63.882300
21
256.829748
0
LINE
8
boundary
62
5
39
2
10
63.882300
20
256.829748
11
77.540383
21
256.679748
0
LINE
8
boundary
62
5
39
2
10
77.540383
20
256.679748
11
77.540384
21
253.933748
0
LINE
8
boundary
62
5
39
2
10
77.540384
20
253.933748
11
63.065293
21
253.933748
0
LINE
8
boundary
62
5
39
2
10
63.065293
20
253.933748
11
62.702957
21
252.643221
0
LINE
8
boundary
62
5
39
2
10
62.702957
20
252.643221
11
62.045304
21
250.287355
0
LINE
8
boundary
62
5
39
2
10
62.045304
20
250.287355
11
61.485086
21
248.271876
0
LINE
8
boundary
62
5
39
2
10
61.485086
20
248.271876
11
60.935990
21
246.289461
0
LINE
8
boundary
62
5
39
2
10
60.935990
20
246.289461
11
60.737208
21
245.574655
0
LINE
8
boundary
62
5
39
2
10
60.737208
20
245.574655
11
60.387432
21
244.304072
0
LINE
8
boundary
62
5
39
2
10
60.387432
20
244.304072
11
60.089224
21
243.228810
0
LINE
8
boundary
62
5
39
2
10
60.089224
20
243.228810
11
59.839378
21
242.317321
0
LINE
8
boundary
62
5
39
2
10
59.839378
20
242.317321
11
59.445059
21
240.892071
0
LINE
8
boundary
62
5
39
2
10
59.445059
20
240.892071
11
59.291794
21
240.330748
0
LINE
8
boundary
62
5
39
2
10
59.291794
20
240.330748
11
58.804530
21
238.565677
0
LINE
8
boundary
62
5
39
2
10
58.804530
20
238.565677
11
58.636475
21
237.952994
0
LINE
8
boundary
62
5
39
2
10
58.636475
20
237.952994
11
71.231154
21
237.802995
0
LINE
8
boundary
62
5
39
2
10
71.231154
20
237.802995
11
71.231153
21
235.056995
0
LINE
8
boundary
62
5
39
2
10
71.231153
20
235.056995
11
57.839593
21
235.056995
0
LINE
8
boundary
62
5
39
2
10
57.839593
20
235.056995
11
57.389345
21
233.416486
0
LINE
8
boundary
62
5
39
2
10
57.389345
20
233.416486
11
57.109422
21
232.413316
0
LINE
8
boundary
62
5
39
2
10
57.109422
20
232.413316
11
56.560481
21
230.408209
0
LINE
8
boundary
62
5
39
2
10
56.560481
20
230.408209
11
56.060514
21
228.615824
0
LINE
8
boundary
62
5
39
2
10
56.060514
20
228.615824
11
55.729533
21
227.404388
0
LINE
8
boundary
62
5
39
2
10
55.729533
20
227.404388
11
55.019891
21
224.859568
0
LINE
8
boundary
62
5
39
2
10
55.019891
20
224.859568
11
54.386827
21
222.578841
0
LINE
8
boundary
62
5
39
2
10
54.386827
20
222.578841
11
54.067103
21
221.427910
0
LINE
8
boundary
62
5
39
2
10
54.067103
20
221.427910
11
53.412280
21
219.076240
0
LINE
8
boundary
62
5
39
2
10
53.412280
20
219.076240
11
65.163858
21
218.926241
0
LINE
8
boundary
62
5
39
2
10
65.163858
20
218.926241
11
65.163858
21
216.180241
0
LINE
8
boundary
62
5
39
2
10
65.163858
20
216.180241
11
52.601900
21
216.180241
0
LINE
8
boundary
62
5
39
2
10
52.601900
20
216.180241
11
52.414312
21
215.504280
0
LINE
8
boundary
62
5
39
2
10
52.414312
20
215.504280
11
51.945231
21
213.853658
0
LINE
8
boundary
62
5
39
2
10
51.945231
20
213.853658
11
51.587317
21
212.562837
0
LINE
8
boundary
62
5
39
2
10
51.587317
20
212.562837
11
50.937514
21
210.274254
0
LINE
8
boundary
62
5
39
2
10
50.937514
20
210.274254
11
50.761250
21
209.637788
0
LINE
8
boundary
62
5
39
2
10
50.761250
20
209.637788
11
49.939415
21
206.738482
0
LINE
8
boundary
62
5
39
2
10
49.939415
20
206.738482
11
49.122257
21
203.839119
0
LINE
8
boundary
62
5
39
2
10
49.122257
20
203.839119
11
48.951670
21
203.247529
0
LINE
8
boundary
62
5
39
2
10
48.951670
20
203.247529
11
48.309721
21
200.962745
0
LINE
8
boundary
62
5
39
2
10
48.309721
20
200.962745
11
48.090622
21
200.199487
0
LINE
8
boundary
62
5
39
2
10
48.090622
20
200.199487
11
59.332209
21
200.049487
0
LINE
8
boundary
62
5
39
2
10
59.332209
20
200.049487
11
59.332209
21
197.303487
0
LINE
8
boundary
62
5
39
2
10
59.332209
20
197.303487
11
47.272933
21
197.303487
0
LINE
8
boundary
62
5
39
2
10
47.272933
20
197.303487
11
47.010156
21
196.382606
0
LINE
8
boundary
62
5
39
2
10
47.010156
20
196.382606
11
46.839077
21
195.769385
0
LINE
8
boundary
62
5
39
2
10
46.839077
20
195.769385
11
46.532650
21
194.688918
0
LINE
8
boundary
62
5
39
2
10
46.532650
20
194.688918
11
46.058583
21
193.003549
0
LINE
8
boundary
62
5
39
2
10
46.058583
20
193.003549
11
45.588125
21
191.326109
0
LINE
8
boundary
62
5
39
2
10
45.588125
20
191.326109
11
45.121463
21
189.656218
0
LINE
8
boundary
62
5
39
2
10
45.121463
20
189.656218
11
44.692625
21
188.113990
0
LINE
8
boundary
62
5
39
2
10
44.692625
20
188.113990
11
44.272440
21
186.596385
0
LINE
8
boundary
62
5
39
2
10
44.272440
20
186.596385
11
43.855414
21
185.083000
0
LINE
8
boundary
62
5
39
2
10
43.855414
20
185.083000
11
43.441777
21
183.573644
0
LINE
8
boundary
62
5
39
2
10
43.441777
20
183.573644
11
43.296539
21
183.044698
0
LINE
8
boundary
62
5
39
2
10
43.296539
20
183.044698
11
43.031751
21
182.068087
0
LINE
8
boundary
62
5
39
2
10
43.031751
20
182.068087
11
42.851463
21
181.405451
0
LINE
8
boundary
62
5
39
2
10
42.851463
20
181.405451
11
53.836745
21
181.172733
0
LINE
8
boundary
62
5
39
2
10
53.836745
20
181.172733
11
53.836745
21
178.426733
0
LINE
8
boundary
62
5
39
2
10
53.836745
20
178.426733
11
42.052674
21
178.426733
0
LINE
8
boundary
62
5
39
2
10
42.052674
20
178.426733
11
41.825696
21
177.571701
0
LINE
8
boundary
62
5
39
2
10
41.825696
20
177.571701
11
41.546232
21
176.512740
0
LINE
8
boundary
62
5
39
2
10
41.546232
20
176.512740
11
41.121340
21
174.888510
0
LINE
8
boundary
62
5
39
2
10
41.121340
20
174.888510
11
40.701475
21
173.266786
0
LINE
8
boundary
62
5
39
2
10
40.701475
20
173.266786
11
40.286555
21
171.647010
0
LINE
8
boundary
62
5
39
2
10
40.286555
20
171.647010
11
39.901145
21
170.126139
0
LINE
8
boundary
62
5
39
2
10
39.901145
20
170.126139
11
39.527951
21
168.638359
0
LINE
8
boundary
62
5
39
2
10
39.527951
20
168.638359
11
39.158679
21
167.151071
0
LINE
8
boundary
62
5
39
2
10
39.158679
20
167.151071
11
38.793288
21
165.663959
0
LINE
8
boundary
62
5
39
2
10
38.793288
20
165.663959
11
38.673744
21
165.169124
0
LINE
8
boundary
62
5
39
2
10
38.673744
20
165.169124
11
38.431714
21
164.176712
0
LINE
8
boundary
62
5
39
2
10
38.431714
20
164.176712
11
38.281481
21
163.547947
0
LINE
8
boundary
62
5
39
2
10
38.281481
20
163.547947
11
38.016084
21
162.445978
0
LINE
8
boundary
62
5
39
2
10
38.016084
20
162.445978
11
48.858420
21
162.295979
0
LINE
8
boundary
62
5
39
2
10
48.858420
20
162.295979
11
48.858420
21
159.549979
0
LINE
8
boundary
62
5
39
2
10
48.858420
20
159.549979
11
37.331467
21
159.549979
0
LINE
8
boundary
62
5
39
2
10
37.331467
20
159.549979
11
36.751251
21
157.039649
0
LINE
8
boundary
62
5
39
2
10
36.751251
20
157.039649
11
36.616354
21
156.460861
0
LINE
8
boundary
62
5
39
2
10
36.616354
20
156.460861
11
36.006509
21
153.762956
0
LINE
8
boundary
62
5
39
2
10
36.006509
20
153.762956
11
35.373963
21
150.933554
0
LINE
8
boundary
62
5
39
2
10
35.373963
20
150.933554
11
34.762265
21
148.148798
0
LINE
8
boundary
62
5
39
2
10
34.762265
20
148.148798
11
34.543455
21
147.119954
0
LINE
8
boundary
62
5
39
2
10
34.543455
20
147.119954
11
34.159075
21
145.354585
0
LINE
8
boundary
62
5
39
2
10
34.159075
20
145.354585
11
33.822302
21
143.750211
0
LINE
8
boundary
62
5
39
2
10
33.822302
20
143.750211
11
44.406137
21
143.419226
0
LINE
8
boundary
62
5
39
2
10
44.406137
20
143.419226
11
44.406137
21
140.673225
0
LINE
8
boundary
62
5
39
2
10
44.406137
20
140.673225
11
33.173625
21
140.673226
0
LINE
8
boundary
62
5
39
2
10
33.173625
20
140.673226
11
32.974283
21
139.731771
0
LINE
8
boundary
62
5
39
2
10
32.974283
20
139.731771
11
32.400980
21
136.952604
0
LINE
8
boundary
62
5
39
2
10
32.400980
20
136.952604
11
31.789107
21
134.025932
0
LINE
8
boundary
62
5
39
2
10
31.789107
20
134.025932
11
31.657669
21
133.373497
0
LINE
8
boundary
62
5
39
2
10
31.657669
20
133.373497
11
31.190256
21
131.134330
0
LINE
8
boundary
62
5
39
2
10
31.190256
20
131.134330
11
30.922001
21
129.803009
0
LINE
8
boundary
62
5
39
2
10
30.922001
20
129.803009
11
30.591824
21
128.223177
0
LINE
8
boundary
62
5
39
2
10
30.591824
20
128.223177
11
30.176691
21
126.170543
0
LINE
8
boundary
62
5
39
2
10
30.176691
20
126.170543
11
30.023507
21
125.439647
0
LINE
8
boundary
62
5
39
2
10
30.023507
20
125.439647
11
29.871369
21
124.692471
0
LINE
8
boundary
62
5
39
2
10
29.871369
20
124.692471
11
40.330373
21
124.542472
0
LINE
8
boundary
62
5
39
2
10
40.330373
20
124.542472
11
40.330373
21
121.796472
0
LINE
8
boundary
62
5
39
2
10
40.330373
20
121.796472
11
29.278029
21
121.796472
0
LINE
8
boundary
62
5
39
2
10
29.278029
20
121.796472
11
29.001146
21
120.485427
0
LINE
8
boundary
62
5
39
2
10
29.001146
20
120.485427
11
28.466579
21
117.965620
0
LINE
8
boundary
62
5
39
2
10
28.466579
20
117.965620
11
28.299858
21
117.162136
0
LINE
8
boundary
62
5
39
2
10
28.299858
20
117.162136
11
27.926020
21
115.424704
0
LINE
8
boundary
62
5
39
2
10
27.926020
20
115.424704
11
27.639178
21
114.060586
0
LINE
8
boundary
62
5
39
2
10
27.639178
20
114.060586
11
27.378369
21
112.862066
0
LINE
8
boundary
62
5
39
2
10
27.378369
20
112.862066
11
26.961283
21
110.907284
0
LINE
8
boundary
62
5
39
2
10
26.961283
20
110.907284
11
26.822952
21
110.278057
0
LINE
8
boundary
62
5
39
2
10
26.822952
20
110.278057
11
26.266915
21
107.706319
0
LINE
8
boundary
62
5
39
2
10
26.266915
20
107.706319
11
25.843406
21
105.815718
0
LINE
8
boundary
62
5
39
2
10
25.843406
20
105.815718
11
36.474360
21
105.665718
0
LINE
8
boundary
62
5
39
2
10
36.474360
20
105.665718
11
36.474360
21
102.919718
0
LINE
8
boundary
62
5
39
2
10
36.474360
20
102.919718
11
25.193116
21
102.919718
0
LINE
8
boundary
62
5
39
2
10
25.193116
20
102.919718
11
24.809085
21
101.208490
0
LINE
8
boundary
62
5
39
2
10
24.809085
20
101.208490
11
24.665324
21
100.574889
0
LINE
8
boundary
62
5
39
2
10
24.665324
20
100.574889
11
24.249271
21
98.774661
0
LINE
8
boundary
62
5
39
2
10
24.249271
20
98.774661
11
24.055377
21
97.928029
0
LINE
8
boundary
62
5
39
2
10
24.055377
20
97.928029
11
23.734612
21
96.548609
0
LINE
8
boundary
62
5
39
2
10
23.734612
20
96.548609
11
23.292744
21
94.633208
0
LINE
8
boundary
62
5
39
2
10
23.292744
20
94.633208
11
23.075847
21
93.703876
0
LINE
8
boundary
62
5
39
2
10
23.075847
20
93.703876
11
22.386612
21
90.808721
0
LINE
8
boundary
62
5
39
2
10
22.386612
20
90.808721
11
21.737727
21
88.053254
0
LINE
8
boundary
62
5
39
2
10
21.737727
20
88.053254
11
21.602593
21
87.488487
0
LINE
8
boundary
62
5
39
2
10
21.602593
20
87.488487
11
21.472234
21
86.938964
0
LINE
8
boundary
62
5
39
2
10
21.472234
20
86.938964
11
32.840983
21
86.788964
0
LINE
8
boundary
62
5
39
2
10
32.840983
20
86.788964
11
32.840984
21
84.042964
0
LINE
8
boundary
62
5
39
2
10
32.840984
20
84.042964
11
20.768030
21
84.042964
0
LINE
8
boundary
62
5
39
2
10
20.768030
20
84.042964
11
20.166392
21
81.542565
0
LINE
8
boundary
62
5
39
2
10
20.166392
20
81.542565
11
20.005976
21
80.883585
0
LINE
8
boundary
62
5
39
2
10
20.005976
20
80.883585
11
19.844550
21
80.214281
0
LINE
8
boundary
62
5
39
2
10
19.844550
20
80.214281
11
19.200895
21
77.616043
0
LINE
8
boundary
62
5
39
2
10
19.200895
20
77.616043
11
18.602740
21
75.172173
0
LINE
8
boundary
62
5
39
2
10
18.602740
20
75.172173
11
18.217249
21
73.600998
0
LINE
8
boundary
62
5
39
2
10
18.217249
20
73.600998
11
18.073647
21
73.029074
0
LINE
8
boundary
62
5
39
2
10
18.073647
20
73.029074
11
17.645927
21
71.320109
0
LINE
8
boundary
62
5
39
2
10
17.645927
20
71.320109
11
17.449242
21
70.527576
0
LINE
8
boundary
62
5
39
2
10
17.449242
20
70.527576
11
17.224246
21
69.626594
0
LINE
8
boundary
62
5
39
2
10
17.224246
20
69.626594
11
16.883678
21
68.250631
0
LINE
8
boundary
62
5
39
2
10
16.883678
20
68.250631
11
29.351451
21
67.912210
0
LINE
8
boundary
62
5
39
2
10
29.351451
20
67.912210
11
29.351451
21
65.166211
0
LINE
8
boundary
62
5
39
2
10
29.351451
20
65.166211
11
16.111387
21
65.166210
0
LINE
8
boundary
62
5
39
2
10
16.111387
20
65.166210
11
15.981236
21
64.649743
0
LINE
8
boundary
62
5
39
2
10
15.981236
20
64.649743
11
15.775435
21
63.824496
0
LINE
8
boundary
62
5
39
2
10
15.775435
20
63.824496
11
15.576062
21
63.029022
0
LINE
8
boundary
62
5
39
2
10
15.576062
20
63.029022
11
15.237796
21
61.665658
0
LINE
8
boundary
62
5
39
2
10
15.237796
20
61.665658
11
15.006863
21
60.731700
0
LINE
8
boundary
62
5
39
2
10
15.006863
20
60.731700
11
14.782813
21
59.847596
0
LINE
8
boundary
62
5
39
2
10
14.782813
20
59.847596
11
14.392061
21
58.292996
0
LINE
8
boundary
62
5
39
2
10
14.392061
20
58.292996
11
14.194863
21
57.499789
0
LINE
8
boundary
62
5
39
2
10
14.194863
20
57.499789
11
14.010074
21
56.759242
0
LINE
8
boundary
62
5
39
2
10
14.010074
20
56.759242
11
13.694056
21
55.478109
0
LINE
8
boundary
62
5
39
2
10
13.694056
20
55.478109
11
13.465728
21
54.546812
0
LINE
8
boundary
62
5
39
2
10
13.465728
20
54.546812
11
13.267845
21
53.760059
0
LINE
8
boundary
62
5
39
2
10
13.267845
20
53.760059
11
12.905196
21
52.302395
0
LINE
8
boundary
62
5
39
2
10
12.905196
20
52.302395
11
12.732896
21
51.600903
0
LINE
8
boundary
62
5
39
2
10
12.732896
20
51.600903
11
12.552381
21
50.867339
0
LINE
8
boundary
62
5
39
2
10
12.552381
20
50.867339
11
12.275947
21
49.729347
0
LINE
8
boundary
62
5
39
2
10
12.275947
20
49.729347
11
12.144623
21
49.185456
0
LINE
8
boundary
62
5
39
2
10
12.144623
20
49.185456
11
25.715644
21
49.035456
0
LINE
8
boundary
62
5
39
2
10
25.715644
20
49.035456
11
25.715644
21
46.289456
0
LINE
8
boundary
62
5
39
2
10
25.715644
20
46.289456
11
11.440798
21
46.289456
0
LINE
8
boundary
62
5
39
2
10
11.440798
20
46.289456
11
11.225027
21
45.390376
0
LINE
8
boundary
62
5
39
2
10
11.225027
20
45.390376
11
11.000333
21
44.440744
0
LINE
8
boundary
62
5
39
2
10
11.000333
20
44.440744
11
10.609008
21
42.775760
0
LINE
8
boundary
62
5
39
2
10
10.609008
20
42.775760
11
10.391193
21
41.829534
0
LINE
8
boundary
62
5
39
2
10
10.391193
20
41.829534
11
10.234673
21
41.162689
0
LINE
8
boundary
62
5
39
2
10
10.234673
20
41.162689
11
10.024792
21
40.252254
0
LINE
8
boundary
62
5
39
2
10
10.024792
20
40.252254
11
9.877183
21
39.604925
0
LINE
8
boundary
62
5
39
2
10
9.877183
20
39.604925
11
9.540775
21
38.098437
0
LINE
8
boundary
62
5
39
2
10
9.540775
20
38.098437
11
9.307260
21
37.045925
0
LINE
8
boundary
62
5
39
2
10
9.307260
20
37.045925
11
9.084466
21
36.017878
0
LINE
8
boundary
62
5
39
2
10
9.084466
20
36.017878
11
8.909845
21
35.197110
0
LINE
8
boundary
62
5
39
2
10
8.909845
20
35.197110
11
8.769389
21
34.514488
0
LINE
8
boundary
62
5
39
2
10
8.769389
20
34.514488
11
8.663383
21
34.010584
0
LINE
8
boundary
62
5
39
2
10
8.663383
20
34.010584
11
8.466186
21
33.039556
0
LINE
8
boundary
62
5
39
2
10
8.466186
20
33.039556
11
8.353180
21
32.474657
0
LINE
8
boundary
62
5
39
2
10
8.353180
20
32.474657
11
8.102469
21
31.164007
0
LINE
8
boundary
62
5
39
2
10
8.102469
20
31.164007
11
7.946047
21
30.308703
0
LINE
8
boundary
62
5
39
2
10
7.946047
20
30.308703
11
21.751447
21
30.158703
0
LINE
8
boundary
62
5
39
2
10
21.751447
20
30.158703
11
21.751447
21
27.412703
0
LINE
8
boundary
62
5
39
2
10
21.751447
20
27.412703
11
7.456142
21
27.412702
0
LINE
8
boundary
62
5
39
2
10
7.456142
20
27.412702
11
7.352926
21
26.739317
0
LINE
8
boundary
62
5
39
2
10
7.352926
20
26.739317
11
7.205098
21
25.693420
0
LINE
8
boundary
62
5
39
2
10
7.205098
20
25.693420
11
7.084415
21
24.790777
0
LINE
8
boundary
62
5
39
2
10
7.084415
20
24.790777
11
6.955744
21
23.648696
0
LINE
8
boundary
62
5
39
2
10
6.955744
20
23.648696
11
6.860379
21
22.660028
0
LINE
8
boundary
62
5
39
2
10
6.860379
20
22.660028
11
6.794306
21
21.931032
0
LINE
8
boundary
62
5
39
2
10
6.794306
20
21.931032
11
6.741204
21
21.059402
0
LINE
8
boundary
62
5
39
2
10
6.741204
20
21.059402
11
6.679636
21
19.582878
0
LINE
8
boundary
62
5
39
2
10
6.679636
20
19.582878
11
6.673794
21
18.525919
0
LINE
8
boundary
62
5
39
2
10
6.673794
20
18.525919
11
6.699742
21
17.490695
0
LINE
8
boundary
62
5
39
2
10
6.699742
20
17.490695
11
6.724229
21
16.813216
0
LINE
8
boundary
62
5
39
2
10
6.724229
20
16.813216
11
6.828460
21
15.648521
0
LINE
8
boundary
62
5
39
2
10
6.828460
20
15.648521
11
6.987174
21
14.533412
0
LINE
8
boundary
62
5
39
2
10
6.987174
20
14.533412
11
7.174895
21
13.644496
0
LINE
8
boundary
62
5
39
2
10
7.174895
20
13.644496
11
7.407230
21
12.790820
0
LINE
8
boundary
62
5
39
2
10
7.407230
20
12.790820
11
7.687483
21
11.973435
0
LINE
8
boundary
62
5
39
2
10
7.687483
20
11.973435
11
7.975145
21
11.281949
0
LINE
8
boundary
62
5
39
2
10
7.975145
20
11.281949
11
16.609570
21
11.281949
0
LINE
8
boundary
62
5
39
2
10
16.609570
20
11.281949
11
16.609570
21
8.535949
0
LINE
8
boundary
62
5
39
2
10
16.609570
20
8.535949
11
10.199704
21
8.535949
0
LINE
8
boundary
62
5
39
2
10
10.199704
20
8.535949
11
10.576400
21
8.096871
0
LINE
8
boundary
62
5
39
2
10
10.576400
20
8.096871
11
11.288146
21
7.684567
0
LINE
8
boundary
62
5
39
2
10
11.288146
20
7.684567
11
12.059165
21
7.338743
0
LINE
8
boundary
62
5
39
2
10
12.059165
20
7.338743
11
12.887199
21
7.062496
0
LINE
8
boundary
62
5
39
2
10
12.887199
20
7.062496
11
13.769895
21
6.859156
0
LINE
8
boundary
62
5
39
2
10
13.769895
20
6.859156
11
14.704943
21
6.732444
0
LINE
8
boundary
62
5
39
2
10
14.704943
20
6.732444
11
15.690025
21
6.686561
0
LINE
8
boundary
62
5
39
2
10
15.690025
20
6.686561
11
16.722893
21
6.726436
0
LINE
8
boundary
62
5
39
2
10
16.722893
20
6.726436
11
17.801349
21
6.857816
0
LINE
8
boundary
62
5
39
2
10
17.801349
20
6.857816
11
18.923344
21
7.087673
0
LINE
8
boundary
62
5
39
2
10
18.923344
20
7.087673
11
20.086961
21
7.424341
0
LINE
8
boundary
62
5
39
2
10
20.086961
20
7.424341
11
21.290510
21
7.877979
0
LINE
8
boundary
62
5
39
2
10
21.290510
20
7.877979
11
22.532589
21
8.460907
0
LINE
8
boundary
62
5
39
2
10
22.532589
20
8.460907
11
22.763810
21
8.567556
0
LINE
8
annotation
62
1
39
211
10
21.180237
20
9.101125
11
19.564955
21
9.101125
0
LINE
8
annotation
62
1
39
211
10
19.564955
20
9.101125
11
20.210046
21
11.363506
0
LINE
8
annotation
62
1
39
211
10
20.696054
20
8.454392
11
20.696054
21
9.746399
0
LINE
8
annotation
62
1
39
211
10
26.811947
20
26.385703
11
27.877845
21
26.385703
0
LINE
8
annotation
62
1
39
211
10
27.877845
20
26.385703
11
27.877845
21
26.385703
0
LINE
8
annotation
62
1
39
211
10
27.877845
20
26.385703
11
28.069153
21
26.402904
0
LINE
8
annotation
62
1
39
211
10
28.069153
20
26.402904
11
28.249329
21
26.452493
0
LINE
8
annotation
62
1
39
211
10
28.249329
20
26.452493
11
28.415337
21
26.531450
0
LINE
8
annotation
62
1
39
211
10
28.415337
20
26.531450
11
28.564138
21
26.636756
0
LINE
8
annotation
62
1
39
211
10
28.564138
20
26.636756
11
28.692696
21
26.765390
0
LINE
8
annotation
62
1
39
211
10
28.692696
20
26.765390
11
28.797972
21
26.914331
0
LINE
8
annotation
62
1
39
211
10
28.797972
20
26.914331
11
28.876931
21
27.080561
0
LINE
8
annotation
62
1
39
211
10
28.876931
20
27.080561
11
28.926533
21
27.261059
0
LINE
8
annotation
62
1
39
211
10
28.926533
20
27.261059
11
28.943742
21
27.452804
0
LINE
8
annotation
62
1
39
211
10
28.943742
20
27.452804
11
28.943742
21
27.983796
0
LINE
8
annotation
62
1
39
211
10
28.943742
20
27.983796
11
28.943742
21
27.983796
0
LINE
8
annotation
62
1
39
211
10
28.943742
20
27.983796
11
28.926543
21
28.175449
0
LINE
8
annotation
62
1
39
211
10
28.926543
20
28.175449
11
28.876965
21
28.355698
0
LINE
8
annotation
62
1
39
211
10
28.876965
20
28.355698
11
28.798039
21
28.521567
0
LINE
8
annotation
62
1
39
211
10
28.798039
20
28.521567
11
28.692795
21
28.670081
0
LINE
8
annotation
62
1
39
211
10
28.692795
20
28.670081
11
28.564262
21
28.798265
0
LINE
8
annotation
62
1
39
211
10
28.564262
20
28.798265
11
28.415470
21
28.903144
0
LINE
8
annotation
62
1
39
211
10
28.415470
20
28.903144
11
28.249450
21
28.981741
0
LINE
8
annotation
62
1
39
211
10
28.249450
20
28.981741
11
28.069232
21
29.031081
0
LINE
8
annotation
62
1
39
211
10
28.069232
20
29.031081
11
27.877845
21
29.048189
0
LINE
8
annotation
62
1
39
211
10
27.877845
20
29.048189
11
26.811947
21
29.048189
0
LINE
8
annotation
62
1
39
211
10
26.811947
20
29.048189
11
26.811947
21
31.185703
0
LINE
8
annotation
62
1
39
211
10
26.811947
20
31.185703
11
28.943742
21
31.185703
0
LINE
8
annotation
62
1
39
211
10
32.377248
20
50.062457
11
32.377248
21
50.062457
0
LINE
8
annotation
62
1
39
211
10
32.377248
20
50.062457
11
32.071895
21
49.947968
0
LINE
8
annotation
62
1
39
211
10
32.071895
20
49.947968
11
31.791694
21
49.793708
0
LINE
8
annotation
62
1
39
211
10
31.791694
20
49.793708
11
31.539521
21
49.603541
0
LINE
8
annotation
62
1
39
211
10
31.539521
20
49.603541
11
31.318252
21
49.381333
0
LINE
8
annotation
62
1
39
211
10
31.318252
20
49.381333
11
31.130763
21
49.130949
0
LINE
8
annotation
62
1
39
211
10
31.130763
20
49.130949
11
30.979932
21
48.856252
0
LINE
8
annotation
62
1
39
211
10
30.979932
20
48.856252
11
30.868634
21
48.561109
0
LINE
8
annotation
62
1
39
211
10
30.868634
20
48.561109
11
30.799746
21
48.249384
0
LINE
8
annotation
62
1
39
211
10
30.799746
20
48.249384
11
30.776144
21
47.924942
0
LINE
8
annotation
62
1
39
211
10
30.776144
20
47.924942
11
30.776144
21
46.329558
0
LINE
8
annotation
62
1
39
211
10
30.776144
20
46.329558
11
30.776144
21
46.329558
0
LINE
8
annotation
62
1
39
211
10
30.776144
20
46.329558
11
30.793353
21
46.137813
0
LINE
8
annotation
62
1
39
211
10
30.793353
20
46.137813
11
30.842956
21
45.957315
0
LINE
8
annotation
62
1
39
211
10
30.842956
20
45.957315
11
30.921914
21
45.791085
0
LINE
8
annotation
62
1
39
211
10
30.921914
20
45.791085
11
31.027191
21
45.642143
0
LINE
8
annotation
62
1
39
211
10
31.027191
20
45.642143
11
31.155749
21
45.513510
0
LINE
8
annotation
62
1
39
211
10
31.155749
20
45.513510
11
31.304550
21
45.408204
0
LINE
8
annotation
62
1
39
211
10
31.304550
20
45.408204
11
31.470558
21
45.329247
0
LINE
8
annotation
62
1
39
211
10
31.470558
20
45.329247
11
31.650734
21
45.279657
0
LINE
8
annotation
62
1
39
211
10
31.650734
20
45.279657
11
31.842042
21
45.262457
0
LINE
8
annotation
62
1
39
211
10
31.842042
20
45.262457
11
31.842042
21
45.262457
0
LINE
8
annotation
62
1
39
211
10
31.842042
20
45.262457
11
32.033746
21
45.279657
0
LINE
8
annotation
62
1
39
211
10
32.033746
20
45.279657
11
32.214133
21
45.329247
0
LINE
8
annotation
62
1
39
211
10
32.214133
20
45.329247
11
32.380203
21
45.408204
0
LINE
8
annotation
62
1
39
211
10
32.380203
20
45.408204
11
32.528954
21
45.513510
0
LINE
8
annotation
62
1
39
211
10
32.528954
20
45.513510
11
32.657388
21
45.642143
0
LINE
8
annotation
62
1
39
211
10
32.657388
20
45.642143
11
32.762504
21
45.791085
0
LINE
8
annotation
62
1
39
211
10
32.762504
20
45.791085
11
32.841301
21
45.957315
0
LINE
8
annotation
62
1
39
211
10
32.841301
20
45.957315
11
32.890780
21
46.137813
0
LINE
8
annotation
62
1
39
211
10
32.890780
20
46.137813
11
32.907939
21
46.329558
0
LINE
8
annotation
62
1
39
211
10
32.907939
20
46.329558
11
32.907939
21
46.860550
0
LINE
8
annotation
62
1
39
211
10
32.907939
20
46.860550
11
32.907939
21
46.860550
0
LINE
8
annotation
62
1
39
211
10
32.907939
20
46.860550
11
32.890780
21
47.052203
0
LINE
8
annotation
62
1
39
211
10
32.890780
20
47.052203
11
32.841301
21
47.232451
0
LINE
8
annotation
62
1
39
211
10
32.841301
20
47.232451
11
32.762504
21
47.398321
0
LINE
8
annotation
62
1
39
211
10
32.762504
20
47.398321
11
32.657388
21
47.546835
0
LINE
8
annotation
62
1
39
211
10
32.657388
20
47.546835
11
32.528954
21
47.675019
0
LINE
8
annotation
62
1
39
211
10
32.528954
20
47.675019
11
32.380203
21
47.779897
0
LINE
8
annotation
62
1
39
211
10
32.380203
20
47.779897
11
32.214133
21
47.858494
0
LINE
8
annotation
62
1
39
211
10
32.214133
20
47.858494
11
32.033746
21
47.907834
0
LINE
8
annotation
62
1
39
211
10
32.033746
20
47.907834
11
31.842042
21
47.924942
0
LINE
8
annotation
62
1
39
211
10
31.842042
20
47.924942
11
30.776144
21
47.924942
0
LINE
8
annotation
62
1
39
211
10
30.642644
20
44.662457
11
33.042644
21
44.662457
0
LINE
8
annotation
62
1
39
211
10
35.477849
20
64.139210
11
36.544950
21
68.939210
0
LINE
8
annotation
62
1
39
211
10
36.544950
20
68.939210
11
34.410446
21
68.939210
0
LINE
8
annotation
62
1
39
211
10
36.544950
20
66.801696
11
35.477849
21
66.801696
0
LINE
8
annotation
62
1
39
211
10
37.901484
20
84.080206
11
37.901484
21
84.080206
0
LINE
8
annotation
62
1
39
211
10
37.901484
20
84.080206
11
37.918693
21
83.888553
0
LINE
8
annotation
62
1
39
211
10
37.918693
20
83.888553
11
37.968295
21
83.708305
0
LINE
8
annotation
62
1
39
211
10
37.968295
20
83.708305
11
38.047254
21
83.542435
0
LINE
8
annotation
62
1
39
211
10
38.047254
20
83.542435
11
38.152530
21
83.393921
0
LINE
8
annotation
62
1
39
211
10
38.152530
20
83.393921
11
38.281088
21
83.265737
0
LINE
8
annotation
62
1
39
211
10
38.281088
20
83.265737
11
38.429890
21
83.160859
0
LINE
8
annotation
62
1
39
211
10
38.429890
20
83.160859
11
38.595897
21
83.082262
0
LINE
8
annotation
62
1
39
211
10
38.595897
20
83.082262
11
38.776074
21
83.032922
0
LINE
8
annotation
62
1
39
211
10
38.776074
20
83.032922
11
38.967381
21
83.015814
0
LINE
8
annotation
62
1
39
211
10
38.967381
20
83.015814
11
38.967381
21
83.015814
0
LINE
8
annotation
62
1
39
211
10
38.967381
20
83.015814
11
39.158689
21
83.032922
0
LINE
8
annotation
62
1
39
211
10
39.158689
20
83.032922
11
39.338866
21
83.082262
0
LINE
8
annotation
62
1
39
211
10
39.338866
20
83.082262
11
39.504873
21
83.160859
0
LINE
8
annotation
62
1
39
211
10
39.504873
20
83.160859
11
39.653675
21
83.265737
0
LINE
8
annotation
62
1
39
211
10
39.653675
20
83.265737
11
39.782232
21
83.393921
0
LINE
8
annotation
62
1
39
211
10
39.782232
20
83.393921
11
39.887509
21
83.542435
0
LINE
8
annotation
62
1
39
211
10
39.887509
20
83.542435
11
39.966467
21
83.708305
0
LINE
8
annotation
62
1
39
211
10
39.966467
20
83.708305
11
40.016070
21
83.888553
0
LINE
8
annotation
62
1
39
211
10
40.016070
20
83.888553
11
40.033279
21
84.080206
0
LINE
8
annotation
62
1
39
211
10
40.033279
20
84.080206
11
40.033279
21
84.611198
0
LINE
8
annotation
62
1
39
211
10
40.033279
20
84.611198
11
40.033279
21
84.611198
0
LINE
8
annotation
62
1
39
211
10
40.033279
20
84.611198
11
40.016080
21
84.802944
0
LINE
8
annotation
62
1
39
211
10
40.016080
20
84.802944
11
39.966502
21
84.983441
0
LINE
8
annotation
62
1
39
211
10
39.966502
20
84.983441
11
39.887576
21
85.149671
0
LINE
8
annotation
62
1
39
211
10
39.887576
20
85.149671
11
39.782331
21
85.298613
0
LINE
8
annotation
62
1
39
211
10
39.782331
20
85.298613
11
39.653798
21
85.427246
0
LINE
8
annotation
62
1
39
211
10
39.653798
20
85.427246
11
39.505007
21
85.532552
0
LINE
8
annotation
62
1
39
211
10
39.505007
20
85.532552
11
39.338987
21
85.611509
0
LINE
8
annotation
62
1
39
211
10
39.338987
20
85.611509
11
39.158768
21
85.661099
0
LINE
8
annotation
62
1
39
211
10
39.158768
20
85.661099
11
38.967381
21
85.678300
0
LINE
8
annotation
62
1
39
211
10
38.967381
20
85.678300
11
38.967381
21
85.678300
0
LINE
8
annotation
62
1
39
211
10
38.967381
20
85.678300
11
38.775994
21
85.661089
0
LINE
8
annotation
62
1
39
211
10
38.775994
20
85.661089
11
38.595776
21
85.611475
0
LINE
8
annotation
62
1
39
211
10
38.595776
20
85.611475
11
38.429756
21
85.532485
0
LINE
8
annotation
62
1
39
211
10
38.429756
20
85.532485
11
38.280964
21
85.427147
0
LINE
8
annotation
62
1
39
211
10
38.280964
20
85.427147
11
38.152431
21
85.298489
0
LINE
8
annotation
62
1
39
211
10
38.152431
20
85.298489
11
38.047187
21
85.149537
0
LINE
8
annotation
62
1
39
211
10
38.047187
20
85.149537
11
37.968261
21
84.983320
0
LINE
8
annotation
62
1
39
211
10
37.968261
20
84.983320
11
37.918683
21
84.802864
0
LINE
8
annotation
62
1
39
211
10
37.918683
20
84.802864
11
37.901484
21
84.611198
0
LINE
8
annotation
62
1
39
211
10
37.901484
20
84.611198
11
37.901484
21
84.080206
0
LINE
8
annotation
62
1
39
211
10
40.033279
20
86.745702
11
40.033279
21
86.745702
0
LINE
8
annotation
62
1
39
211
10
40.033279
20
86.745702
11
40.016080
21
86.936562
0
LINE
8
annotation
62
1
39
211
10
40.016080
20
86.936562
11
39.966502
21
87.116389
0
LINE
8
annotation
62
1
39
211
10
39.966502
20
87.116389
11
39.887576
21
87.282135
0
LINE
8
annotation
62
1
39
211
10
39.887576
20
87.282135
11
39.782331
21
87.430748
0
LINE
8
annotation
62
1
39
211
10
39.782331
20
87.430748
11
39.653798
21
87.559180
0
LINE
8
annotation
62
1
39
211
10
39.653798
20
87.559180
11
39.505007
21
87.664380
0
LINE
8
annotation
62
1
39
211
10
39.505007
20
87.664380
11
39.338987
21
87.743299
0
LINE
8
annotation
62
1
39
211
10
39.338987
20
87.743299
11
39.158768
21
87.792887
0
LINE
8
annotation
62
1
39
211
10
39.158768
20
87.792887
11
38.967381
21
87.810094
0
LINE
8
annotation
62
1
39
211
10
38.967381
20
87.810094
11
38.967381
21
87.810094
0
LINE
8
annotation
62
1
39
211
10
38.967381
20
87.810094
11
38.775994
21
87.792887
0
LINE
8
annotation
62
1
39
211
10
38.775994
20
87.792887
11
38.595776
21
87.743299
0
LINE
8
annotation
62
1
39
211
10
38.595776
20
87.743299
11
38.429756
21
87.664380
0
LINE
8
annotation
62
1
39
211
10
38.429756
20
87.664380
11
38.280964
21
87.559180
0
LINE
8
annotation
62
1
39
211
10
38.280964
20
87.559180
11
38.152431
21
87.430748
0
LINE
8
annotation
62
1
39
211
10
38.152431
20
87.430748
11
38.047187
21
87.282135
0
LINE
8
annotation
62
1
39
211
10
38.047187
20
87.282135
11
37.968261
21
87.116389
0
LINE
8
annotation
62
1
39
211
10
37.968261
20
87.116389
11
37.918683
21
86.936562
0
LINE
8
annotation
62
1
39
211
10
37.918683
20
86.936562
11
37.901484
21
86.745702
0
LINE
8
annotation
62
1
39
211
10
37.901484
20
86.745702
11
37.901484
21
86.745702
0
LINE
8
annotation
62
1
39
211
10
37.901484
20
86.745702
11
37.918693
21
86.553946
0
LINE
8
annotation
62
1
39
211
10
37.918693
20
86.553946
11
37.968295
21
86.373421
0
LINE
8
annotation
62
1
39
211
10
37.968295
20
86.373421
11
38.047254
21
86.207151
0
LINE
8
annotation
62
1
39
211
10
38.047254
20
86.207151
11
38.152530
21
86.058162
0
LINE
8
annotation
62
1
39
211
10
38.152530
20
86.058162
11
38.281088
21
85.929478
0
LINE
8
annotation
62
1
39
211
10
38.281088
20
85.929478
11
38.429890
21
85.824125
0
LINE
8
annotation
62
1
39
211
10
38.429890
20
85.824125
11
38.595897
21
85.745128
0
LINE
8
annotation
62
1
39
211
10
38.595897
20
85.745128
11
38.776074
21
85.695511
0
LINE
8
annotation
62
1
39
211
10
38.776074
20
85.695511
11
38.967381
21
85.678300
0
LINE
8
annotation
62
1
39
211
10
38.967381
20
85.678300
11
38.967381
21
85.678300
0
LINE
8
annotation
62
1
39
211
10
38.967381
20
85.678300
11
39.158689
21
85.695511
0
LINE
8
annotation
62
1
39
211
10
39.158689
20
85.695511
11
39.338866
21
85.745128
0
LINE
8
annotation
62
1
39
211
10
39.338866
20
85.745128
11
39.504873
21
85.824125
0
LINE
8
annotation
62
1
39
211
10
39.504873
20
85.824125
11
39.653675
21
85.929478
0
LINE
8
annotation
62
1
39
211
10
39.653675
20
85.929478
11
39.782232
21
86.058162
0
LINE
8
annotation
62
1
39
211
10
39.782232
20
86.058162
11
39.887509
21
86.207151
0
LINE
8
annotation
62
1
39
211
10
39.887509
20
86.207151
11
39.966467
21
86.373421
0
LINE
8
annotation
62
1
39
211
10
39.966467
20
86.373421
11
40.016070
21
86.553946
0
LINE
8
annotation
62
1
39
211
10
40.016070
20
86.553946
11
40.033279
21
86.745702
0
LINE
8
annotation
62
1
39
211
10
42.067057
20
101.892718
11
42.067057
21
101.892718
0
LINE
8
annotation
62
1
39
211
10
42.067057
20
101.892718
11
42.371872
21
102.006307
0
LINE
8
annotation
62
1
39
211
10
42.371872
20
102.006307
11
42.651654
21
102.159843
0
LINE
8
annotation
62
1
39
211
10
42.651654
20
102.159843
11
42.903513
21
102.349415
0
LINE
8
annotation
62
1
39
211
10
42.903513
20
102.349415
11
43.124557
21
102.571110
0
LINE
8
annotation
62
1
39
211
10
43.124557
20
102.571110
11
43.311894
21
102.821016
0
LINE
8
annotation
62
1
39
211
10
43.311894
20
102.821016
11
43.462633
21
103.095221
0
LINE
8
annotation
62
1
39
211
10
43.462633
20
103.095221
11
43.573884
21
103.389813
0
LINE
8
annotation
62
1
39
211
10
43.573884
20
103.389813
11
43.642755
21
103.700881
0
LINE
8
annotation
62
1
39
211
10
43.642755
20
103.700881
11
43.666354
21
104.024513
0
LINE
8
annotation
62
1
39
211
10
43.666354
20
104.024513
11
43.666354
21
105.625315
0
LINE
8
annotation
62
1
39
211
10
43.666354
20
105.625315
11
43.666354
21
105.625315
0
LINE
8
annotation
62
1
39
211
10
43.666354
20
105.625315
11
43.649195
21
105.817071
0
LINE
8
annotation
62
1
39
211
10
43.649195
20
105.817071
11
43.599716
21
105.997597
0
LINE
8
annotation
62
1
39
211
10
43.599716
20
105.997597
11
43.520919
21
106.163866
0
LINE
8
annotation
62
1
39
211
10
43.520919
20
106.163866
11
43.415803
21
106.312856
0
LINE
8
annotation
62
1
39
211
10
43.415803
20
106.312856
11
43.287369
21
106.441539
0
LINE
8
annotation
62
1
39
211
10
43.287369
20
106.441539
11
43.138618
21
106.546892
0
LINE
8
annotation
62
1
39
211
10
43.138618
20
106.546892
11
42.972548
21
106.625890
0
LINE
8
annotation
62
1
39
211
10
42.972548
20
106.625890
11
42.792161
21
106.675507
0
LINE
8
annotation
62
1
39
211
10
42.792161
20
106.675507
11
42.600457
21
106.692718
0
LINE
8
annotation
62
1
39
211
10
42.600457
20
106.692718
11
42.600457
21
106.692718
0
LINE
8
annotation
62
1
39
211
10
42.600457
20
106.692718
11
42.409149
21
106.675507
0
LINE
8
annotation
62
1
39
211
10
42.409149
20
106.675507
11
42.228973
21
106.625890
0
LINE
8
annotation
62
1
39
211
10
42.228973
20
106.625890
11
42.062965
21
106.546892
0
LINE
8
annotation
62
1
39
211
10
42.062965
20
106.546892
11
41.914164
21
106.441539
0
LINE
8
annotation
62
1
39
211
10
41.914164
20
106.441539
11
41.785606
21
106.312856
0
LINE
8
annotation
62
1
39
211
10
41.785606
20
106.312856
11
41.680329
21
106.163866
0
LINE
8
annotation
62
1
39
211
10
41.680329
20
106.163866
11
41.601371
21
105.997597
0
LINE
8
annotation
62
1
39
211
10
41.601371
20
105.997597
11
41.551769
21
105.817071
0
LINE
8
annotation
62
1
39
211
10
41.551769
20
105.817071
11
41.534559
21
105.625315
0
LINE
8
annotation
62
1
39
211
10
41.534559
20
105.625315
11
41.534559
21
105.091614
0
LINE
8
annotation
62
1
39
211
10
41.534559
20
105.091614
11
41.534559
21
105.091614
0
LINE
8
annotation
62
1
39
211
10
41.534559
20
105.091614
11
41.551769
21
104.899869
0
LINE
8
annotation
62
1
39
211
10
41.551769
20
104.899869
11
41.601371
21
104.719371
0
LINE
8
annotation
62
1
39
211
10
41.601371
20
104.719371
11
41.680329
21
104.553141
0
LINE
8
annotation
62
1
39
211
10
41.680329
20
104.553141
11
41.785606
21
104.404200
0
LINE
8
annotation
62
1
39
211
10
41.785606
20
104.404200
11
41.914164
21
104.275566
0
LINE
8
annotation
62
1
39
211
10
41.914164
20
104.275566
11
42.062965
21
104.170260
0
LINE
8
annotation
62
1
39
211
10
42.062965
20
104.170260
11
42.228973
21
104.091303
0
LINE
8
annotation
62
1
39
211
10
42.228973
20
104.091303
11
42.409149
21
104.041714
0
LINE
8
annotation
62
1
39
211
10
42.409149
20
104.041714
11
42.600457
21
104.024513
0
LINE
8
annotation
62
1
39
211
10
42.600457
20
104.024513
11
43.666354
21
104.024513
0
LINE
8
annotation
62
1
39
211
10
41.401360
20
101.292718
11
43.801360
21
101.292718
0
LINE
8
annotation
62
1
39
211
10
45.083517
20
120.860612
11
45.083517
21
125.478332
0
LINE
8
annotation
62
1
39
211
10
45.083517
20
125.478332
11
44.056939
21
124.451464
0
LINE
8
annotation
62
1
39
211
10
47.556746
20
120.921521
11
47.556746
21
120.921521
0
LINE
8
annotation
62
1
39
211
10
47.556746
20
120.921521
11
47.664067
21
120.881402
0
LINE
8
annotation
62
1
39
211
10
47.664067
20
120.881402
11
47.774135
21
120.861469
0
LINE
8
annotation
62
1
39
211
10
47.774135
20
120.861469
11
47.884459
21
120.860912
0
LINE
8
annotation
62
1
39
211
10
47.884459
20
120.860912
11
47.992553
21
120.878917
0
LINE
8
annotation
62
1
39
211
10
47.992553
20
120.878917
11
48.095928
21
120.914671
0
LINE
8
annotation
62
1
39
211
10
48.095928
20
120.914671
11
48.192095
21
120.967361
0
LINE
8
annotation
62
1
39
211
10
48.192095
20
120.967361
11
48.278566
21
121.036176
0
LINE
8
annotation
62
1
39
211
10
48.278566
20
121.036176
11
48.352854
21
121.120301
0
LINE
8
annotation
62
1
39
211
10
48.352854
20
121.120301
11
48.412469
21
121.218925
0
LINE
8
annotation
62
1
39
211
10
48.412469
20
121.218925
11
48.412469
21
121.218925
0
LINE
8
annotation
62
1
39
211
10
48.412469
20
121.218925
11
48.590338
21
121.635272
0
LINE
8
annotation
62
1
39
211
10
48.590338
20
121.635272
11
48.723740
21
122.063670
0
LINE
8
annotation
62
1
39
211
10
48.723740
20
122.063670
11
48.812675
21
122.500702
0
LINE
8
annotation
62
1
39
211
10
48.812675
20
122.500702
11
48.857143
21
122.942955
0
LINE
8
annotation
62
1
39
211
10
48.857143
20
122.942955
11
48.857143
21
123.387011
0
LINE
8
annotation
62
1
39
211
10
48.857143
20
123.387011
11
48.812675
21
123.829457
0
LINE
8
annotation
62
1
39
211
10
48.812675
20
123.829457
11
48.723740
21
124.266876
0
LINE
8
annotation
62
1
39
211
10
48.723740
20
124.266876
11
48.590338
21
124.695853
0
LINE
8
annotation
62
1
39
211
10
48.590338
20
124.695853
11
48.412469
21
125.112972
0
LINE
8
annotation
62
1
39
211
10
48.412469
20
125.112972
11
48.412469
21
125.112972
0
LINE
8
annotation
62
1
39
211
10
48.412469
20
125.112972
11
48.389849
21
125.155068
0
LINE
8
annotation
62
1
39
211
10
48.389849
20
125.155068
11
48.364205
21
125.195315
0
LINE
8
annotation
62
1
39
211
10
48.364205
20
125.195315
11
48.335729
21
125.233514
0
LINE
8
annotation
62
1
39
211
10
48.335729
20
125.233514
11
48.304615
21
125.269469
0
LINE
8
annotation
62
1
39
211
10
48.304615
20
125.269469
11
48.271055
21
125.302980
0
LINE
8
annotation
62
1
39
211
10
48.271055
20
125.302980
11
48.235243
21
125.333850
0
LINE
8
annotation
62
1
39
211
10
48.235243
20
125.333850
11
48.197372
21
125.361882
0
LINE
8
annotation
62
1
39
211
10
48.197372
20
125.361882
11
48.157634
21
125.386877
0
LINE
8
annotation
62
1
39
211
10
48.157634
20
125.386877
11
48.116224
21
125.408638
0
LINE
8
annotation
62
1
39
211
10
48.116224
20
125.408638
11
48.116224
21
125.408638
0
LINE
8
annotation
62
1
39
211
10
48.116224
20
125.408638
11
48.008050
21
125.449627
0
LINE
8
annotation
62
1
39
211
10
48.008050
20
125.449627
11
47.897338
21
125.470241
0
LINE
8
annotation
62
1
39
211
10
47.897338
20
125.470241
11
47.786547
21
125.471296
0
LINE
8
annotation
62
1
39
211
10
47.786547
20
125.471296
11
47.678138
21
125.453610
0
LINE
8
annotation
62
1
39
211
10
47.678138
20
125.453610
11
47.574569
21
125.418001
0
LINE
8
annotation
62
1
39
211
10
47.574569
20
125.418001
11
47.478300
21
125.365286
0
LINE
8
annotation
62
1
39
211
10
47.478300
20
125.365286
11
47.391792
21
125.296283
0
LINE
8
annotation
62
1
39
211
10
47.391792
20
125.296283
11
47.317503
21
125.211809
0
LINE
8
annotation
62
1
39
211
10
47.317503
20
125.211809
11
47.257894
21
125.112682
0
LINE
8
annotation
62
1
39
211
10
47.257894
20
125.112682
11
47.257894
21
125.112682
0
LINE
8
annotation
62
1
39
211
10
47.257894
20
125.112682
11
47.080883
21
124.696421
0
LINE
8
annotation
62
1
39
211
10
47.080883
20
124.696421
11
46.948124
21
124.268088
0
LINE
8
annotation
62
1
39
211
10
46.948124
20
124.268088
11
46.859619
21
123.831098
0
LINE
8
annotation
62
1
39
211
10
46.859619
20
123.831098
11
46.815366
21
123.388867
0
LINE
8
annotation
62
1
39
211
10
46.815366
20
123.388867
11
46.815366
21
122.944810
0
LINE
8
annotation
62
1
39
211
10
46.815366
20
122.944810
11
46.859619
21
122.502343
0
LINE
8
annotation
62
1
39
211
10
46.859619
20
122.502343
11
46.948124
21
122.064882
0
LINE
8
annotation
62
1
39
211
10
46.948124
20
122.064882
11
47.080883
21
121.635840
0
LINE
8
annotation
62
1
39
211
10
47.080883
20
121.635840
11
47.257894
21
121.218635
0
LINE
8
annotation
62
1
39
211
10
47.257894
20
121.218635
11
47.257894
21
121.218635
0
LINE
8
annotation
62
1
39
211
10
47.257894
20
121.218635
11
47.280432
21
121.176623
0
LINE
8
annotation
62
1
39
211
10
47.280432
20
121.176623
11
47.305887
21
121.136577
0
LINE
8
annotation
62
1
39
211
10
47.305887
20
121.136577
11
47.334152
21
121.098618
0
LINE
8
annotation
62
1
39
211
10
47.334152
20
121.098618
11
47.365119
21
121.062870
0
LINE
8
annotation
62
1
39
211
10
47.365119
20
121.062870
11
47.398682
21
121.029452
0
LINE
8
annotation
62
1
39
211
10
47.398682
20
121.029452
11
47.434734
21
120.998486
0
LINE
8
annotation
62
1
39
211
10
47.434734
20
120.998486
11
47.473167
21
120.970095
0
LINE
8
annotation
62
1
39
211
10
47.473167
20
120.970095
11
47.513873
21
120.944400
0
LINE
8
annotation
62
1
39
211
10
47.513873
20
120.944400
11
47.556746
21
120.921521
0
LINE
8
annotation
62
1
39
211
10
49.632685
20
139.646225
11
49.632685
21
144.446225
0
LINE
8
annotation
62
1
39
211
10
49.632685
20
144.446225
11
48.565584
21
143.378823
0
LINE
8
annotation
62
1
39
211
10
52.499786
20
139.646225
11
52.499786
21
144.446225
0
LINE
8
annotation
62
1
39
211
10
52.499786
20
144.446225
11
51.432685
21
143.378823
0
LINE
8
annotation
62
1
39
211
10
53.609482
20
158.618805
11
53.609482
21
163.227154
0
LINE
8
annotation
62
1
39
211
10
53.609482
20
163.227154
11
52.584987
21
162.202370
0
LINE
8
annotation
62
1
39
211
10
57.384495
20
158.618767
11
55.337817
21
158.618767
0
LINE
8
annotation
62
1
39
211
10
55.337817
20
158.618767
11
57.229014
21
161.663353
0
LINE
8
annotation
62
1
39
211
10
57.229014
20
161.663353
11
57.229014
21
161.663353
0
LINE
8
annotation
62
1
39
211
10
57.229014
20
161.663353
11
57.231275
21
161.666150
0
LINE
8
annotation
62
1
39
211
10
57.231275
20
161.666150
11
57.233443
21
161.668972
0
LINE
8
annotation
62
1
39
211
10
57.233443
20
161.668972
11
57.235533
21
161.671841
0
LINE
8
annotation
62
1
39
211
10
57.235533
20
161.671841
11
57.237558
21
161.674781
0
LINE
8
annotation
62
1
39
211
10
57.237558
20
161.674781
11
57.239533
21
161.677816
0
LINE
8
annotation
62
1
39
211
10
57.239533
20
161.677816
11
57.241473
21
161.680971
0
LINE
8
annotation
62
1
39
211
10
57.241473
20
161.680971
11
57.243392
21
161.684268
0
LINE
8
annotation
62
1
39
211
10
57.243392
20
161.684268
11
57.245303
21
161.687731
0
LINE
8
annotation
62
1
39
211
10
57.245303
20
161.687731
11
57.247221
21
161.691385
0
LINE
8
annotation
62
1
39
211
10
57.247221
20
161.691385
11
57.247221
21
161.691385
0
LINE
8
annotation
62
1
39
211
10
57.247221
20
161.691385
11
57.325308
21
161.859045
0
LINE
8
annotation
62
1
39
211
10
57.325308
20
161.859045
11
57.370925
21
162.032839
0
LINE
8
annotation
62
1
39
211
10
57.370925
20
162.032839
11
57.385190
21
162.208840
0
LINE
8
annotation
62
1
39
211
10
57.385190
20
162.208840
11
57.369221
21
162.383122
0
LINE
8
annotation
62
1
39
211
10
57.369221
20
162.383122
11
57.324136
21
162.551757
0
LINE
8
annotation
62
1
39
211
10
57.324136
20
162.551757
11
57.251053
21
162.710818
0
LINE
8
annotation
62
1
39
211
10
57.251053
20
162.710818
11
57.151089
21
162.856378
0
LINE
8
annotation
62
1
39
211
10
57.151089
20
162.856378
11
57.025363
21
162.984510
0
LINE
8
annotation
62
1
39
211
10
57.025363
20
162.984510
11
56.874993
21
163.091288
0
LINE
8
annotation
62
1
39
211
10
56.874993
20
163.091288
11
56.874993
21
163.091288
0
LINE
8
annotation
62
1
39
211
10
56.874993
20
163.091288
11
56.706867
21
163.168265
0
LINE
8
annotation
62
1
39
211
10
56.706867
20
163.168265
11
56.532806
21
163.213180
0
LINE
8
annotation
62
1
39
211
10
56.532806
20
163.213180
11
56.356703
21
163.227042
0
LINE
8
annotation
62
1
39
211
10
56.356703
20
163.227042
11
56.182448
21
163.210862
0
LINE
8
annotation
62
1
39
211
10
56.182448
20
163.210862
11
56.013932
21
163.165652
0
LINE
8
annotation
62
1
39
211
10
56.013932
20
163.165652
11
55.855047
21
163.092422
0
LINE
8
annotation
62
1
39
211
10
55.855047
20
163.092422
11
55.709684
21
162.992184
0
LINE
8
annotation
62
1
39
211
10
55.709684
20
162.992184
11
55.581735
21
162.865948
0
LINE
8
annotation
62
1
39
211
10
55.581735
20
162.865948
11
55.475090
21
162.714724
0
LINE
8
annotation
62
1
39
211
10
55.475090
20
162.714724
11
55.340706
21
162.456939
0
LINE
8
annotation
62
1
39
211
10
58.587955
20
177.495224
11
58.587955
21
182.104242
0
LINE
8
annotation
62
1
39
211
10
58.587955
20
182.104242
11
57.563312
21
181.079309
0
LINE
8
annotation
62
1
39
211
10
60.316192
20
177.495369
11
61.339680
21
177.495369
0
LINE
8
annotation
62
1
39
211
10
61.339680
20
177.495369
11
61.339680
21
177.495369
0
LINE
8
annotation
62
1
39
211
10
61.339680
20
177.495369
11
61.523756
21
177.511882
0
LINE
8
annotation
62
1
39
211
10
61.523756
20
177.511882
11
61.696966
21
177.559473
0
LINE
8
annotation
62
1
39
211
10
61.696966
20
177.559473
11
61.856428
21
177.635221
0
LINE
8
annotation
62
1
39
211
10
61.856428
20
177.635221
11
61.999261
21
177.736205
0
LINE
8
annotation
62
1
39
211
10
61.999261
20
177.736205
11
62.122585
21
177.859503
0
LINE
8
annotation
62
1
39
211
10
62.122585
20
177.859503
11
62.223519
21
178.002194
0
LINE
8
annotation
62
1
39
211
10
62.223519
20
178.002194
11
62.299181
21
178.161356
0
LINE
8
annotation
62
1
39
211
10
62.299181
20
178.161356
11
62.346690
21
178.334069
0
LINE
8
annotation
62
1
39
211
10
62.346690
20
178.334069
11
62.363167
21
178.517411
0
LINE
8
annotation
62
1
39
211
10
62.363167
20
178.517411
11
62.363167
21
179.029877
0
LINE
8
annotation
62
1
39
211
10
62.363167
20
179.029877
11
62.363167
21
179.029877
0
LINE
8
annotation
62
1
39
211
10
62.363167
20
179.029877
11
62.346690
21
179.213143
0
LINE
8
annotation
62
1
39
211
10
62.346690
20
179.213143
11
62.299181
21
179.385816
0
LINE
8
annotation
62
1
39
211
10
62.299181
20
179.385816
11
62.223519
21
179.544967
0
LINE
8
annotation
62
1
39
211
10
62.223519
20
179.544967
11
62.122585
21
179.687667
0
LINE
8
annotation
62
1
39
211
10
62.122585
20
179.687667
11
61.999261
21
179.810989
0
LINE
8
annotation
62
1
39
211
10
61.999261
20
179.810989
11
61.856428
21
179.912003
0
LINE
8
annotation
62
1
39
211
10
61.856428
20
179.912003
11
61.696966
21
179.987782
0
LINE
8
annotation
62
1
39
211
10
61.696966
20
179.987782
11
61.523756
21
180.035397
0
LINE
8
annotation
62
1
39
211
10
61.523756
20
180.035397
11
61.339680
21
180.051920
0
LINE
8
annotation
62
1
39
211
10
61.339680
20
180.051920
11
60.827213
21
180.051920
0
LINE
8
annotation
62
1
39
211
10
60.827213
20
180.051920
11
61.339680
21
180.051920
0
LINE
8
annotation
62
1
39
211
10
61.339680
20
180.051920
11
61.339680
21
180.051920
0
LINE
8
annotation
62
1
39
211
10
61.339680
20
180.051920
11
61.523756
21
180.068446
0
LINE
8
annotation
62
1
39
211
10
61.523756
20
180.068446
11
61.696966
21
180.116089
0
LINE
8
annotation
62
1
39
211
10
61.696966
20
180.116089
11
61.856428
21
180.191943
0
LINE
8
annotation
62
1
39
211
10
61.856428
20
180.191943
11
61.999261
21
180.293104
0
LINE
8
annotation
62
1
39
211
10
61.999261
20
180.293104
11
62.122585
21
180.416668
0
LINE
8
annotation
62
1
39
211
10
62.122585
20
180.416668
11
62.223519
21
180.559729
0
LINE
8
annotation
62
1
39
211
10
62.223519
20
180.559729
11
62.299181
21
180.719384
0
LINE
8
annotation
62
1
39
211
10
62.299181
20
180.719384
11
62.346690
21
180.892726
0
LINE
8
annotation
62
1
39
211
10
62.346690
20
180.892726
11
62.363167
21
181.076852
0
LINE
8
annotation
62
1
39
211
10
62.363167
20
181.076852
11
62.363167
21
181.076852
0
LINE
8
annotation
62
1
39
211
10
62.363167
20
181.076852
11
62.346690
21
181.260118
0
LINE
8
annotation
62
1
39
211
10
62.346690
20
181.260118
11
62.299181
21
181.432791
0
LINE
8
annotation
62
1
39
211
10
62.299181
20
181.432791
11
62.223519
21
181.591941
0
LINE
8
annotation
62
1
39
211
10
62.223519
20
181.591941
11
62.122585
21
181.734642
0
LINE
8
annotation
62
1
39
211
10
62.122585
20
181.734642
11
61.999261
21
181.857964
0
LINE
8
annotation
62
1
39
211
10
61.999261
20
181.857964
11
61.856428
21
181.958978
0
LINE
8
annotation
62
1
39
211
10
61.856428
20
181.958978
11
61.696966
21
182.034757
0
LINE
8
annotation
62
1
39
211
10
61.696966
20
182.034757
11
61.523756
21
182.082372
0
LINE
8
annotation
62
1
39
211
10
61.523756
20
182.082372
11
61.339680
21
182.098895
0
LINE
8
annotation
62
1
39
211
10
61.339680
20
182.098895
11
60.316192
21
182.098895
0
LINE
8
annotation
62
1
39
211
10
63.984669
20
196.594169
11
63.984669
21
200.758805
0
LINE
8
annotation
62
1
39
211
10
63.984669
20
200.758805
11
63.058817
21
199.832692
0
LINE
8
annotation
62
1
39
211
10
67.858687
20
197.520021
11
65.546277
21
197.520021
0
LINE
8
annotation
62
1
39
211
10
65.546277
20
197.520021
11
66.469778
21
200.758805
0
LINE
8
annotation
62
1
39
211
10
67.165538
20
196.594169
11
67.165538
21
198.443783
0
LINE
8
annotation
62
1
39
211
10
69.915068
20
215.248732
11
69.915068
21
219.857749
0
LINE
8
annotation
62
1
39
211
10
69.915068
20
219.857749
11
68.890424
21
218.832817
0
LINE
8
annotation
62
1
39
211
10
71.643305
20
215.248732
11
72.666793
21
215.248732
0
LINE
8
annotation
62
1
39
211
10
72.666793
20
215.248732
11
72.666793
21
215.248732
0
LINE
8
annotation
62
1
39
211
10
72.666793
20
215.248732
11
72.850489
21
215.265248
0
LINE
8
annotation
62
1
39
211
10
72.850489
20
215.265248
11
73.023496
21
215.312865
0
LINE
8
annotation
62
1
39
211
10
73.023496
20
215.312865
11
73.182899
21
215.388680
0
LINE
8
annotation
62
1
39
211
10
73.182899
20
215.388680
11
73.325779
21
215.489796
0
LINE
8
annotation
62
1
39
211
10
73.325779
20
215.489796
11
73.449222
21
215.613312
0
LINE
8
annotation
62
1
39
211
10
73.449222
20
215.613312
11
73.550310
21
215.756327
0
LINE
8
annotation
62
1
39
211
10
73.550310
20
215.756327
11
73.626127
21
215.915943
0
LINE
8
annotation
62
1
39
211
10
73.626127
20
215.915943
11
73.673756
21
216.089259
0
LINE
8
annotation
62
1
39
211
10
73.673756
20
216.089259
11
73.690280
21
216.273376
0
LINE
8
annotation
62
1
39
211
10
73.690280
20
216.273376
11
73.690280
21
216.783241
0
LINE
8
annotation
62
1
39
211
10
73.690280
20
216.783241
11
73.690280
21
216.783241
0
LINE
8
annotation
62
1
39
211
10
73.690280
20
216.783241
11
73.673765
21
216.967268
0
LINE
8
annotation
62
1
39
211
10
73.673765
20
216.967268
11
73.626160
21
217.140345
0
LINE
8
annotation
62
1
39
211
10
73.626160
20
217.140345
11
73.550374
21
217.299614
0
LINE
8
annotation
62
1
39
211
10
73.550374
20
217.299614
11
73.449317
21
217.442220
0
LINE
8
annotation
62
1
39
211
10
73.449317
20
217.442220
11
73.325898
21
217.565303
0
LINE
8
annotation
62
1
39
211
10
73.325898
20
217.565303
11
73.183027
21
217.666009
0
LINE
8
annotation
62
1
39
211
10
73.183027
20
217.666009
11
73.023613
21
217.741478
0
LINE
8
annotation
62
1
39
211
10
73.023613
20
217.741478
11
72.850565
21
217.788856
0
LINE
8
annotation
62
1
39
211
10
72.850565
20
217.788856
11
72.666793
21
217.805283
0
LINE
8
annotation
62
1
39
211
10
72.666793
20
217.805283
11
71.643305
21
217.805283
0
LINE
8
annotation
62
1
39
211
10
71.643305
20
217.805283
11
71.643305
21
219.857749
0
LINE
8
annotation
62
1
39
211
10
71.643305
20
219.857749
11
73.690280
21
219.857749
0
LINE
8
annotation
62
1
39
211
10
75.982363
20
234.125486
11
75.982363
21
238.734503
0
LINE
8
annotation
62
1
39
211
10
75.982363
20
238.734503
11
74.957720
21
237.709571
0
LINE
8
annotation
62
1
39
211
10
79.247999
20
238.734503
11
79.247999
21
238.734503
0
LINE
8
annotation
62
1
39
211
10
79.247999
20
238.734503
11
78.954796
21
238.624570
0
LINE
8
annotation
62
1
39
211
10
78.954796
20
238.624570
11
78.685743
21
238.476447
0
LINE
8
annotation
62
1
39
211
10
78.685743
20
238.476447
11
78.443604
21
238.293847
0
LINE
8
annotation
62
1
39
211
10
78.443604
20
238.293847
11
78.231138
21
238.080480
0
LINE
8
annotation
62
1
39
211
10
78.231138
20
238.080480
11
78.051110
21
237.840058
0
LINE
8
annotation
62
1
39
211
10
78.051110
20
237.840058
11
77.906280
21
237.576291
0
LINE
8
annotation
62
1
39
211
10
77.906280
20
237.576291
11
77.799410
21
237.292892
0
LINE
8
annotation
62
1
39
211
10
77.799410
20
237.292892
11
77.733263
21
236.993570
0
LINE
8
annotation
62
1
39
211
10
77.733263
20
236.993570
11
77.710600
21
236.682037
0
LINE
8
annotation
62
1
39
211
10
77.710600
20
236.682037
11
77.710600
21
235.150129
0
LINE
8
annotation
62
1
39
211
10
77.710600
20
235.150129
11
77.710600
21
235.150129
0
LINE
8
annotation
62
1
39
211
10
77.710600
20
235.150129
11
77.727125
21
234.966013
0
LINE
8
annotation
62
1
39
211
10
77.727125
20
234.966013
11
77.774754
21
234.792697
0
LINE
8
annotation
62
1
39
211
10
77.774754
20
234.792697
11
77.850570
21
234.633081
0
LINE
8
annotation
62
1
39
211
10
77.850570
20
234.633081
11
77.951658
21
234.490066
0
LINE
8
annotation
62
1
39
211
10
77.951658
20
234.490066
11
78.075101
21
234.366550
0
LINE
8
annotation
62
1
39
211
10
78.075101
20
234.366550
11
78.217982
21
234.265434
0
LINE
8
annotation
62
1
39
211
10
78.217982
20
234.265434
11
78.377384
21
234.189618
0
LINE
8
annotation
62
1
39
211
10
78.377384
20
234.189618
11
78.550392
21
234.142002
0
LINE
8
annotation
62
1
39
211
10
78.550392
20
234.142002
11
78.734088
21
234.125486
0
LINE
8
annotation
62
1
39
211
10
78.734088
20
234.125486
11
78.734088
21
234.125486
0
LINE
8
annotation
62
1
39
211
10
78.734088
20
234.125486
11
78.918164
21
234.142002
0
LINE
8
annotation
62
1
39
211
10
78.918164
20
234.142002
11
79.091374
21
234.189618
0
LINE
8
annotation
62
1
39
211
10
79.091374
20
234.189618
11
79.250836
21
234.265434
0
LINE
8
annotation
62
1
39
211
10
79.250836
20
234.265434
11
79.393669
21
234.366550
0
LINE
8
annotation
62
1
39
211
10
79.393669
20
234.366550
11
79.516993
21
234.490066
0
LINE
8
annotation
62
1
39
211
10
79.516993
20
234.490066
11
79.617927
21
234.633081
0
LINE
8
annotation
62
1
39
211
10
79.617927
20
234.633081
11
79.693589
21
234.792697
0
LINE
8
annotation
62
1
39
211
10
79.693589
20
234.792697
11
79.741098
21
234.966013
0
LINE
8
annotation
62
1
39
211
10
79.741098
20
234.966013
11
79.757575
21
235.150129
0
LINE
8
annotation
62
1
39
211
10
79.757575
20
235.150129
11
79.757575
21
235.659994
0
LINE
8
annotation
62
1
39
211
10
79.757575
20
235.659994
11
79.757575
21
235.659994
0
LINE
8
annotation
62
1
39
211
10
79.757575
20
235.659994
11
79.741098
21
235.844021
0
LINE
8
annotation
62
1
39
211
10
79.741098
20
235.844021
11
79.693589
21
236.017098
0
LINE
8
annotation
62
1
39
211
10
79.693589
20
236.017098
11
79.617927
21
236.176368
0
LINE
8
annotation
62
1
39
211
10
79.617927
20
236.176368
11
79.516993
21
236.318973
0
LINE
8
annotation
62
1
39
211
10
79.516993
20
236.318973
11
79.393669
21
236.442057
0
LINE
8
annotation
62
1
39
211
10
79.393669
20
236.442057
11
79.250836
21
236.542763
0
LINE
8
annotation
62
1
39
211
10
79.250836
20
236.542763
11
79.091374
21
236.618232
0
LINE
8
annotation
62
1
39
211
10
79.091374
20
236.618232
11
78.918164
21
236.665609
0
LINE
8
annotation
62
1
39
211
10
78.918164
20
236.665609
11
78.734088
21
236.682037
0
LINE
8
annotation
62
1
39
211
10
78.734088
20
236.682037
11
77.710600
21
236.682037
0
LINE
8
annotation
62
1
39
211
10
77.582412
20
233.549359
11
79.886920
21
233.549359
0
LINE
8
annotation
62
1
39
211
10
82.291039
20
253.003488
11
82.291039
21
257.610009
0
LINE
8
annotation
62
1
39
211
10
82.291039
20
257.610009
11
81.266950
21
256.585631
0
LINE
8
annotation
62
1
39
211
10
85.042573
20
253.003488
11
86.066661
21
257.610009
0
LINE
8
annotation
62
1
39
211
10
86.066661
20
257.610009
11
84.018195
21
257.610009
0
LINE
8
annotation
62
1
39
211
10
86.066661
20
255.558654
11
85.042573
21
255.558654
0
LINE
8
annotation
62
1
39
211
10
88.894180
20
271.878993
11
88.894180
21
276.488011
0
LINE
8
annotation
62
1
39
211
10
88.894180
20
276.488011
11
87.869537
21
275.463078
0
LINE
8
annotation
62
1
39
211
10
90.622417
20
272.900891
11
90.622417
21
272.900891
0
LINE
8
annotation
62
1
39
211
10
90.622417
20
272.900891
11
90.638942
21
272.716864
0
LINE
8
annotation
62
1
39
211
10
90.638942
20
272.716864
11
90.686570
21
272.543787
0
LINE
8
annotation
62
1
39
211
10
90.686570
20
272.543787
11
90.762387
21
272.384517
0
LINE
8
annotation
62
1
39
211
10
90.762387
20
272.384517
11
90.863475
21
272.241912
0
LINE
8
annotation
62
1
39
211
10
90.863475
20
272.241912
11
90.986918
21
272.118828
0
LINE
8
annotation
62
1
39
211
10
90.986918
20
272.118828
11
91.129799
21
272.018123
0
LINE
8
annotation
62
1
39
211
10
91.129799
20
272.018123
11
91.289201
21
271.942653
0
LINE
8
annotation
62
1
39
211
10
91.289201
20
271.942653
11
91.462209
21
271.895276
0
LINE
8
annotation
62
1
39
211
10
91.462209
20
271.895276
11
91.645905
21
271.878849
0
LINE
8
annotation
62
1
39
211
10
91.645905
20
271.878849
11
91.645905
21
271.878849
0
LINE
8
annotation
62
1
39
211
10
91.645905
20
271.878849
11
91.829601
21
271.895276
0
LINE
8
annotation
62
1
39
211
10
91.829601
20
271.895276
11
92.002608
21
271.942653
0
LINE
8
annotation
62
1
39
211
10
92.002608
20
271.942653
11
92.162011
21
272.018123
0
LINE
8
annotation
62
1
39
211
10
92.162011
20
272.018123
11
92.304892
21
272.118828
0
LINE
8
annotation
62
1
39
211
10
92.304892
20
272.118828
11
92.428334
21
272.241912
0
LINE
8
annotation
62
1
39
211
10
92.428334
20
272.241912
11
92.529422
21
272.384517
0
LINE
8
annotation
62
1
39
211
10
92.529422
20
272.384517
11
92.605239
21
272.543787
0
LINE
8
annotation
62
1
39
211
10
92.605239
20
272.543787
11
92.652868
21
272.716864
0
LINE
8
annotation
62
1
39
211
10
92.652868
20
272.716864
11
92.669392
21
272.900891
0
LINE
8
annotation
62
1
39
211
10
92.669392
20
272.900891
11
92.669392
21
273.410756
0
LINE
8
annotation
62
1
39
211
10
92.669392
20
273.410756
11
92.669392
21
273.410756
0
LINE
8
annotation
62
1
39
211
10
92.669392
20
273.410756
11
92.652877
21
273.594872
0
LINE
8
annotation
62
1
39
211
10
92.652877
20
273.594872
11
92.605272
21
273.768188
0
LINE
8
annotation
62
1
39
211
10
92.605272
20
273.768188
11
92.529487
21
273.927804
0
LINE
8
annotation
62
1
39
211
10
92.529487
20
273.927804
11
92.428430
21
274.070820
0
LINE
8
annotation
62
1
39
211
10
92.428430
20
274.070820
11
92.305011
21
274.194335
0
LINE
8
annotation
62
1
39
211
10
92.305011
20
274.194335
11
92.162139
21
274.295451
0
LINE
8
annotation
62
1
39
211
10
92.162139
20
274.295451
11
92.002725
21
274.371267
0
LINE
8
annotation
62
1
39
211
10
92.002725
20
274.371267
11
91.829677
21
274.418883
0
LINE
8
annotation
62
1
39
211
10
91.829677
20
274.418883
11
91.645905
21
274.435400
0
LINE
8
annotation
62
1
39
211
10
91.645905
20
274.435400
11
91.645905
21
274.435400
0
LINE
8
annotation
62
1
39
211
10
91.645905
20
274.435400
11
91.462133
21
274.418874
0
LINE
8
annotation
62
1
39
211
10
91.462133
20
274.418874
11
91.289085
21
274.371234
0
LINE
8
annotation
62
1
39
211
10
91.289085
20
274.371234
11
91.129670
21
274.295387
0
LINE
8
annotation
62
1
39
211
10
91.129670
20
274.295387
11
90.986799
21
274.194240
0
LINE
8
annotation
62
1
39
211
10
90.986799
20
274.194240
11
90.863380
21
274.070701
0
LINE
8
annotation
62
1
39
211
10
90.863380
20
274.070701
11
90.762323
21
273.927676
0
LINE
8
annotation
62
1
39
211
10
90.762323
20
273.927676
11
90.686537
21
273.768072
0
LINE
8
annotation
62
1
39
211
10
90.686537
20
273.768072
11
90.638932
21
273.594796
0
LINE
8
annotation
62
1
39
211
10
90.638932
20
273.594796
11
90.622417
21
273.410756
0
LINE
8
annotation
62
1
39
211
10
90.622417
20
273.410756
11
90.622417
21
272.900891
0
LINE
8
annotation
62
1
39
211
10
92.669392
20
275.460332
11
92.669392
21
275.460332
0
LINE
8
annotation
62
1
39
211
10
92.669392
20
275.460332
11
92.652877
21
275.643598
0
LINE
8
annotation
62
1
39
211
10
92.652877
20
275.643598
11
92.605272
21
275.816271
0
LINE
8
annotation
62
1
39
211
10
92.605272
20
275.816271
11
92.529487
21
275.975421
0
LINE
8
annotation
62
1
39
211
10
92.529487
20
275.975421
11
92.428430
21
276.118122
0
LINE
8
annotation
62
1
39
211
10
92.428430
20
276.118122
11
92.305011
21
276.241444
0
LINE
8
annotation
62
1
39
211
10
92.305011
20
276.241444
11
92.162139
21
276.342458
0
LINE
8
annotation
62
1
39
211
10
92.162139
20
276.342458
11
92.002725
21
276.418237
0
LINE
8
annotation
62
1
39
211
10
92.002725
20
276.418237
11
91.829677
21
276.465852
0
LINE
8
annotation
62
1
39
211
10
91.829677
20
276.465852
11
91.645905
21
276.482374
0
LINE
8
annotation
62
1
39
211
10
91.645905
20
276.482374
11
91.645905
21
276.482374
0
LINE
8
annotation
62
1
39
211
10
91.645905
20
276.482374
11
91.462133
21
276.465852
0
LINE
8
annotation
62
1
39
211
10
91.462133
20
276.465852
11
91.289085
21
276.418237
0
LINE
8
annotation
62
1
39
211
10
91.289085
20
276.418237
11
91.129670
21
276.342458
0
LINE
8
annotation
62
1
39
211
10
91.129670
20
276.342458
11
90.986799
21
276.241444
0
LINE
8
annotation
62
1
39
211
10
90.986799
20
276.241444
11
90.863380
21
276.118122
0
LINE
8
annotation
62
1
39
211
10
90.863380
20
276.118122
11
90.762323
21
275.975421
0
LINE
8
annotation
62
1
39
211
10
90.762323
20
275.975421
11
90.686537
21
275.816271
0
LINE
8
annotation
62
1
39
211
10
90.686537
20
275.816271
11
90.638932
21
275.643598
0
LINE
8
annotation
62
1
39
211
10
90.638932
20
275.643598
11
90.622417
21
275.460332
0
LINE
8
annotation
62
1
39
211
10
90.622417
20
275.460332
11
90.622417
21
275.460332
0
LINE
8
annotation
62
1
39
211
10
90.622417
20
275.460332
11
90.638942
21
275.276206
0
LINE
8
annotation
62
1
39
211
10
90.638942
20
275.276206
11
90.686570
21
275.102863
0
LINE
8
annotation
62
1
39
211
10
90.686570
20
275.102863
11
90.762387
21
274.943209
0
LINE
8
annotation
62
1
39
211
10
90.762387
20
274.943209
11
90.863475
21
274.800148
0
LINE
8
annotation
62
1
39
211
10
90.863475
20
274.800148
11
90.986918
21
274.676584
0
LINE
8
annotation
62
1
39
211
10
90.986918
20
274.676584
11
91.129799
21
274.575423
0
LINE
8
annotation
62
1
39
211
10
91.129799
20
274.575423
11
91.289201
21
274.499569
0
LINE
8
annotation
62
1
39
211
10
91.289201
20
274.499569
11
91.462209
21
274.451926
0
LINE
8
annotation
62
1
39
211
10
91.462209
20
274.451926
11
91.645905
21
274.435400
0
LINE
8
annotation
62
1
39
211
10
91.645905
20
274.435400
11
91.645905
21
274.435400
0
LINE
8
annotation
62
1
39
211
10
91.645905
20
274.435400
11
91.829601
21
274.451926
0
LINE
8
annotation
62
1
39
211
10
91.829601
20
274.451926
11
92.002608
21
274.499569
0
LINE
8
annotation
62
1
39
211
10
92.002608
20
274.499569
11
92.162011
21
274.575423
0
LINE
8
annotation
62
1
39
211
10
92.162011
20
274.575423
11
92.304892
21
274.676584
0
LINE
8
annotation
62
1
39
211
10
92.304892
20
274.676584
11
92.428334
21
274.800148
0
LINE
8
annotation
62
1
39
211
10
92.428334
20
274.800148
11
92.529422
21
274.943209
0
LINE
8
annotation
62
1
39
211
10
92.529422
20
274.943209
11
92.605239
21
275.102863
0
LINE
8
annotation
62
1
39
211
10
92.605239
20
275.102863
11
92.652868
21
275.276206
0
LINE
8
annotation
62
1
39
211
10
92.652868
20
275.276206
11
92.669392
21
275.460332
0
LINE
8
annotation
62
1
39
211
10
95.719272
20
290.755747
11
95.719272
21
295.364765
0
LINE
8
annotation
62
1
39
211
10
95.719272
20
295.364765
11
94.694628
21
294.339832
0
LINE
8
annotation
62
1
39
211
10
97.958530
20
290.755747
11
97.958530
21
290.755747
0
LINE
8
annotation
62
1
39
211
10
97.958530
20
290.755747
11
98.251217
21
290.864817
0
LINE
8
annotation
62
1
39
211
10
98.251217
20
290.864817
11
98.519868
21
291.012244
0
LINE
8
annotation
62
1
39
211
10
98.519868
20
291.012244
11
98.761706
21
291.194273
0
LINE
8
annotation
62
1
39
211
10
98.761706
20
291.194273
11
98.973954
21
291.407147
0
LINE
8
annotation
62
1
39
211
10
98.973954
20
291.407147
11
99.153838
21
291.647110
0
LINE
8
annotation
62
1
39
211
10
99.153838
20
291.647110
11
99.298580
21
291.910405
0
LINE
8
annotation
62
1
39
211
10
99.298580
20
291.910405
11
99.405404
21
292.193276
0
LINE
8
annotation
62
1
39
211
10
99.405404
20
292.193276
11
99.471534
21
292.491967
0
LINE
8
annotation
62
1
39
211
10
99.471534
20
292.491967
11
99.494195
21
292.802722
0
LINE
8
annotation
62
1
39
211
10
99.494195
20
292.802722
11
99.494195
21
294.339832
0
LINE
8
annotation
62
1
39
211
10
99.494195
20
294.339832
11
99.494195
21
294.339832
0
LINE
8
annotation
62
1
39
211
10
99.494195
20
294.339832
11
99.477718
21
294.523958
0
LINE
8
annotation
62
1
39
211
10
99.477718
20
294.523958
11
99.430208
21
294.697301
0
LINE
8
annotation
62
1
39
211
10
99.430208
20
294.697301
11
99.354546
21
294.856955
0
LINE
8
annotation
62
1
39
211
10
99.354546
20
294.856955
11
99.253613
21
295.000016
0
LINE
8
annotation
62
1
39
211
10
99.253613
20
295.000016
11
99.130289
21
295.123580
0
LINE
8
annotation
62
1
39
211
10
99.130289
20
295.123580
11
98.987456
21
295.224741
0
LINE
8
annotation
62
1
39
211
10
98.987456
20
295.224741
11
98.827994
21
295.300595
0
LINE
8
annotation
62
1
39
211
10
98.827994
20
295.300595
11
98.654784
21
295.348238
0
LINE
8
annotation
62
1
39
211
10
98.654784
20
295.348238
11
98.470707
21
295.364765
0
LINE
8
annotation
62
1
39
211
10
98.470707
20
295.364765
11
98.470707
21
295.364765
0
LINE
8
annotation
62
1
39
211
10
98.470707
20
295.364765
11
98.287011
21
295.348238
0
LINE
8
annotation
62
1
39
211
10
98.287011
20
295.348238
11
98.114004
21
295.300595
0
LINE
8
annotation
62
1
39
211
10
98.114004
20
295.300595
11
97.954601
21
295.224741
0
LINE
8
annotation
62
1
39
211
10
97.954601
20
295.224741
11
97.811720
21
295.123580
0
LINE
8
annotation
62
1
39
211
10
97.811720
20
295.123580
11
97.688278
21
295.000016
0
LINE
8
annotation
62
1
39
211
10
97.688278
20
295.000016
11
97.587190
21
294.856955
0
LINE
8
annotation
62
1
39
211
10
97.587190
20
294.856955
11
97.511373
21
294.697301
0
LINE
8
annotation
62
1
39
211
10
97.511373
20
294.697301
11
97.463744
21
294.523958
0
LINE
8
annotation
62
1
39
211
10
97.463744
20
294.523958
11
97.447220
21
294.339832
0
LINE
8
annotation
62
1
39
211
10
97.447220
20
294.339832
11
97.447220
21
293.827366
0
LINE
8
annotation
62
1
39
211
10
97.447220
20
293.827366
11
97.447220
21
293.827366
0
LINE
8
annotation
62
1
39
211
10
97.447220
20
293.827366
11
97.463744
21
293.643249
0
LINE
8
annotation
62
1
39
211
10
97.463744
20
293.643249
11
97.511373
21
293.469933
0
LINE
8
annotation
62
1
39
211
10
97.511373
20
293.469933
11
97.587190
21
293.310317
0
LINE
8
annotation
62
1
39
211
10
97.587190
20
293.310317
11
97.688278
21
293.167302
0
LINE
8
annotation
62
1
39
211
10
97.688278
20
293.167302
11
97.811720
21
293.043786
0
LINE
8
annotation
62
1
39
211
10
97.811720
20
293.043786
11
97.954601
21
292.942670
0
LINE
8
annotation
62
1
39
211
10
97.954601
20
292.942670
11
98.114004
21
292.866855
0
LINE
8
annotation
62
1
39
211
10
98.114004
20
292.866855
11
98.287011
21
292.819238
0
LINE
8
annotation
62
1
39
211
10
98.287011
20
292.819238
11
98.470707
21
292.802722
0
LINE
8
annotation
62
1
39
211
10
98.470707
20
292.802722
11
99.494195
21
292.802722
0
LINE
8
annotation
62
1
39
211
10
97.319320
20
290.179620
11
99.623829
21
290.179620
0
LINE
8
annotation
62
1
39
211
10
103.217094
20
310.034385
11
101.527120
21
310.034385
0
LINE
8
annotation
62
1
39
211
10
101.527120
20
310.034385
11
103.088712
21
312.548348
0
LINE
8
annotation
62
1
39
211
10
103.088712
20
312.548348
11
103.088712
21
312.548348
0
LINE
8
annotation
62
1
39
211
10
103.088712
20
312.548348
11
103.090578
21
312.550658
0
LINE
8
annotation
62
1
39
211
10
103.090578
20
312.550658
11
103.092369
21
312.552987
0
LINE
8
annotation
62
1
39
211
10
103.092369
20
312.552987
11
103.094094
21
312.555356
0
LINE
8
annotation
62
1
39
211
10
103.094094
20
312.555356
11
103.095766
21
312.557784
0
LINE
8
annotation
62
1
39
211
10
103.095766
20
312.557784
11
103.097397
21
312.560290
0
LINE
8
annotation
62
1
39
211
10
103.097397
20
312.560290
11
103.098999
21
312.562895
0
LINE
8
annotation
62
1
39
211
10
103.098999
20
312.562895
11
103.100583
21
312.565618
0
LINE
8
annotation
62
1
39
211
10
103.100583
20
312.565618
11
103.102161
21
312.568478
0
LINE
8
annotation
62
1
39
211
10
103.102161
20
312.568478
11
103.103745
21
312.571495
0
LINE
8
annotation
62
1
39
211
10
103.103745
20
312.571495
11
103.103745
21
312.571495
0
LINE
8
annotation
62
1
39
211
10
103.103745
20
312.571495
11
103.168223
21
312.709934
0
LINE
8
annotation
62
1
39
211
10
103.168223
20
312.709934
11
103.205890
21
312.853438
0
LINE
8
annotation
62
1
39
211
10
103.205890
20
312.853438
11
103.217669
21
312.998765
0
LINE
8
annotation
62
1
39
211
10
103.217669
20
312.998765
11
103.204483
21
313.142672
0
LINE
8
annotation
62
1
39
211
10
103.204483
20
313.142672
11
103.167255
21
313.281917
0
LINE
8
annotation
62
1
39
211
10
103.167255
20
313.281917
11
103.106909
21
313.413256
0
LINE
8
annotation
62
1
39
211
10
103.106909
20
313.413256
11
103.024368
21
313.533447
0
LINE
8
annotation
62
1
39
211
10
103.024368
20
313.533447
11
102.920554
21
313.639248
0
LINE
8
annotation
62
1
39
211
10
102.920554
20
313.639248
11
102.796390
21
313.727416
0
LINE
8
annotation
62
1
39
211
10
102.796390
20
313.727416
11
102.796390
21
313.727416
0
LINE
8
annotation
62
1
39
211
10
102.796390
20
313.727416
11
102.657566
21
313.790978
0
LINE
8
annotation
62
1
39
211
10
102.657566
20
313.790978
11
102.513842
21
313.828064
0
LINE
8
annotation
62
1
39
211
10
102.513842
20
313.828064
11
102.368430
21
313.839510
0
LINE
8
annotation
62
1
39
211
10
102.368430
20
313.839510
11
102.224545
21
313.826150
0
LINE
8
annotation
62
1
39
211
10
102.224545
20
313.826150
11
102.085399
21
313.788820
0
LINE
8
annotation
62
1
39
211
10
102.085399
20
313.788820
11
101.954205
21
313.728353
0
LINE
8
annotation
62
1
39
211
10
101.954205
20
313.728353
11
101.834177
21
313.645585
0
LINE
8
annotation
62
1
39
211
10
101.834177
20
313.645585
11
101.728527
21
313.541349
0
LINE
8
annotation
62
1
39
211
10
101.728527
20
313.541349
11
101.640469
21
313.416482
0
LINE
8
annotation
62
1
39
211
10
101.640469
20
313.416482
11
101.529506
21
313.203624
0
LINE
8
annotation
62
1
39
211
10
105.255541
20
310.084608
11
105.255541
21
310.084608
0
LINE
8
annotation
62
1
39
211
10
105.255541
20
310.084608
11
105.343978
21
310.051548
0
LINE
8
annotation
62
1
39
211
10
105.343978
20
310.051548
11
105.434678
21
310.035123
0
LINE
8
annotation
62
1
39
211
10
105.434678
20
310.035123
11
105.525590
21
310.034664
0
LINE
8
annotation
62
1
39
211
10
105.525590
20
310.034664
11
105.614663
21
310.049500
0
LINE
8
annotation
62
1
39
211
10
105.614663
20
310.049500
11
105.699848
21
310.078963
0
LINE
8
annotation
62
1
39
211
10
105.699848
20
310.078963
11
105.779094
21
310.122382
0
LINE
8
annotation
62
1
39
211
10
105.779094
20
310.122382
11
105.850350
21
310.179088
0
LINE
8
annotation
62
1
39
211
10
105.850350
20
310.179088
11
105.911566
21
310.248411
0
LINE
8
annotation
62
1
39
211
10
105.911566
20
310.248411
11
105.960691
21
310.329681
0
LINE
8
annotation
62
1
39
211
10
105.960691
20
310.329681
11
105.960691
21
310.329681
0
LINE
8
annotation
62
1
39
211
10
105.960691
20
310.329681
11
106.107263
21
310.672767
0
LINE
8
annotation
62
1
39
211
10
106.107263
20
310.672767
11
106.217191
21
311.025784
0
LINE
8
annotation
62
1
39
211
10
106.217191
20
311.025784
11
106.290477
21
311.385917
0
LINE
8
annotation
62
1
39
211
10
106.290477
20
311.385917
11
106.327120
21
311.750351
0
LINE
8
annotation
62
1
39
211
10
106.327120
20
311.750351
11
106.327120
21
312.116271
0
LINE
8
annotation
62
1
39
211
10
106.327120
20
312.116271
11
106.290477
21
312.480864
0
LINE
8
annotation
62
1
39
211
10
106.290477
20
312.480864
11
106.217191
21
312.841315
0
LINE
8
annotation
62
1
39
211
10
106.217191
20
312.841315
11
106.107263
21
313.194809
0
LINE
8
annotation
62
1
39
211
10
106.107263
20
313.194809
11
105.960691
21
313.538532
0
LINE
8
annotation
62
1
39
211
10
105.960691
20
313.538532
11
105.960691
21
313.538532
0
LINE
8
annotation
62
1
39
211
10
105.960691
20
313.538532
11
105.942051
21
313.573221
0
LINE
8
annotation
62
1
39
211
10
105.942051
20
313.573221
11
105.920919
21
313.606386
0
LINE
8
annotation
62
1
39
211
10
105.920919
20
313.606386
11
105.897454
21
313.637864
0
LINE
8
annotation
62
1
39
211
10
105.897454
20
313.637864
11
105.871815
21
313.667491
0
LINE
8
annotation
62
1
39
211
10
105.871815
20
313.667491
11
105.844160
21
313.695106
0
LINE
8
annotation
62
1
39
211
10
105.844160
20
313.695106
11
105.814650
21
313.720544
0
LINE
8
annotation
62
1
39
211
10
105.814650
20
313.720544
11
105.783442
21
313.743644
0
LINE
8
annotation
62
1
39
211
10
105.783442
20
313.743644
11
105.750697
21
313.764241
0
LINE
8
annotation
62
1
39
211
10
105.750697
20
313.764241
11
105.716573
21
313.782173
0
LINE
8
annotation
62
1
39
211
10
105.716573
20
313.782173
11
105.716573
21
313.782173
0
LINE
8
annotation
62
1
39
211
10
105.716573
20
313.782173
11
105.627434
21
313.815949
0
LINE
8
annotation
62
1
39
211
10
105.627434
20
313.815949
11
105.536202
21
313.832936
0
LINE
8
annotation
62
1
39
211
10
105.536202
20
313.832936
11
105.444906
21
313.833805
0
LINE
8
annotation
62
1
39
211
10
105.444906
20
313.833805
11
105.355573
21
313.819231
0
LINE
8
annotation
62
1
39
211
10
105.355573
20
313.819231
11
105.270228
21
313.789888
0
LINE
8
annotation
62
1
39
211
10
105.270228
20
313.789888
11
105.190899
21
313.746449
0
LINE
8
annotation
62
1
39
211
10
105.190899
20
313.746449
11
105.119612
21
313.689588
0
LINE
8
annotation
62
1
39
211
10
105.119612
20
313.689588
11
105.058395
21
313.619978
0
LINE
8
annotation
62
1
39
211
10
105.058395
20
313.619978
11
105.009275
21
313.538293
0
LINE
8
annotation
62
1
39
211
10
105.009275
20
313.538293
11
105.009275
21
313.538293
0
LINE
8
annotation
62
1
39
211
10
105.009275
20
313.538293
11
104.863410
21
313.195277
0
LINE
8
annotation
62
1
39
211
10
104.863410
20
313.195277
11
104.754012
21
312.842313
0
LINE
8
annotation
62
1
39
211
10
104.754012
20
312.842313
11
104.681080
21
312.482216
0
LINE
8
annotation
62
1
39
211
10
104.681080
20
312.482216
11
104.644614
21
312.117800
0
LINE
8
annotation
62
1
39
211
10
104.644614
20
312.117800
11
104.644614
21
311.751880
0
LINE
8
annotation
62
1
39
211
10
104.644614
20
311.751880
11
104.681080
21
311.387269
0
LINE
8
annotation
62
1
39
211
10
104.681080
20
311.387269
11
104.754012
21
311.026783
0
LINE
8
annotation
62
1
39
211
10
104.754012
20
311.026783
11
104.863410
21
310.673236
0
LINE
8
annotation
62
1
39
211
10
104.863410
20
310.673236
11
105.009275
21
310.329442
0
LINE
8
annotation
62
1
39
211
10
105.009275
20
310.329442
11
105.009275
21
310.329442
0
LINE
8
annotation
62
1
39
211
10
105.009275
20
310.329442
11
105.027847
21
310.294822
0
LINE
8
annotation
62
1
39
211
10
105.027847
20
310.294822
11
105.048823
21
310.261822
0
LINE
8
annotation
62
1
39
211
10
105.048823
20
310.261822
11
105.072114
21
310.230543
0
LINE
8
annotation
62
1
39
211
10
105.072114
20
310.230543
11
105.097633
21
310.201085
0
LINE
8
annotation
62
1
39
211
10
105.097633
20
310.201085
11
105.125290
21
310.173547
0
LINE
8
annotation
62
1
39
211
10
105.125290
20
310.173547
11
105.154998
21
310.148030
0
LINE
8
annotation
62
1
39
211
10
105.154998
20
310.148030
11
105.186668
21
310.124635
0
LINE
8
annotation
62
1
39
211
10
105.186668
20
310.124635
11
105.220212
21
310.103461
0
LINE
8
annotation
62
1
39
211
10
105.220212
20
310.103461
11
105.255541
21
310.084608
0
LINE
8
annotation
62
1
39
211
10
110.070310
20
328.509551
11
108.023632
21
328.509551
0
LINE
8
annotation
62
1
39
211
10
108.023632
20
328.509551
11
109.914830
21
331.554137
0
LINE
8
annotation
62
1
39
211
10
109.914830
20
331.554137
11
109.914830
21
331.554137
0
LINE
8
annotation
62
1
39
211
10
109.914830
20
331.554137
11
109.917090
21
331.556934
0
LINE
8
annotation
62
1
39
211
10
109.917090
20
331.556934
11
109.919258
21
331.559756
0
LINE
8
annotation
62
1
39
211
10
109.919258
20
331.559756
11
109.921348
21
331.562625
0
LINE
8
annotation
62
1
39
211
10
109.921348
20
331.562625
11
109.923373
21
331.565565
0
LINE
8
annotation
62
1
39
211
10
109.923373
20
331.565565
11
109.925349
21
331.568601
0
LINE
8
annotation
62
1
39
211
10
109.925349
20
331.568601
11
109.927289
21
331.571755
0
LINE
8
annotation
62
1
39
211
10
109.927289
20
331.571755
11
109.929207
21
331.575052
0
LINE
8
annotation
62
1
39
211
10
109.929207
20
331.575052
11
109.931118
21
331.578516
0
LINE
8
annotation
62
1
39
211
10
109.931118
20
331.578516
11
109.933036
21
331.582170
0
LINE
8
annotation
62
1
39
211
10
109.933036
20
331.582170
11
109.933036
21
331.582170
0
LINE
8
annotation
62
1
39
211
10
109.933036
20
331.582170
11
110.011124
21
331.749829
0
LINE
8
annotation
62
1
39
211
10
110.011124
20
331.749829
11
110.056741
21
331.923623
0
LINE
8
annotation
62
1
39
211
10
110.056741
20
331.923623
11
110.071006
21
332.099624
0
LINE
8
annotation
62
1
39
211
10
110.071006
20
332.099624
11
110.055037
21
332.273906
0
LINE
8
annotation
62
1
39
211
10
110.055037
20
332.273906
11
110.009952
21
332.442541
0
LINE
8
annotation
62
1
39
211
10
110.009952
20
332.442541
11
109.936868
21
332.601602
0
LINE
8
annotation
62
1
39
211
10
109.936868
20
332.601602
11
109.836905
21
332.747162
0
LINE
8
annotation
62
1
39
211
10
109.836905
20
332.747162
11
109.711179
21
332.875294
0
LINE
8
annotation
62
1
39
211
10
109.711179
20
332.875294
11
109.560808
21
332.982072
0
LINE
8
annotation
62
1
39
211
10
109.560808
20
332.982072
11
109.560808
21
332.982072
0
LINE
8
annotation
62
1
39
211
10
109.560808
20
332.982072
11
109.392682
21
333.059049
0
LINE
8
annotation
62
1
39
211
10
109.392682
20
333.059049
11
109.218622
21
333.103964
0
LINE
8
annotation
62
1
39
211
10
109.218622
20
333.103964
11
109.042518
21
333.117826
0
LINE
8
annotation
62
1
39
211
10
109.042518
20
333.117826
11
108.868263
21
333.101646
0
LINE
8
annotation
62
1
39
211
10
108.868263
20
333.101646
11
108.699747
21
333.056436
0
LINE
8
annotation
62
1
39
211
10
108.699747
20
333.056436
11
108.540862
21
332.983207
0
LINE
8
annotation
62
1
39
211
10
108.540862
20
332.983207
11
108.395499
21
332.882968
0
LINE
8
annotation
62
1
39
211
10
108.395499
20
332.882968
11
108.267550
21
332.756732
0
LINE
8
annotation
62
1
39
211
10
108.267550
20
332.756732
11
108.160906
21
332.605509
0
LINE
8
annotation
62
1
39
211
10
108.160906
20
332.605509
11
108.026522
21
332.347723
0
LINE
8
annotation
62
1
39
211
10
112.823429
20
328.509589
11
112.823429
21
333.117938
0
LINE
8
annotation
62
1
39
211
10
112.823429
20
333.117938
11
111.798933
21
332.093154
0
LINE
8
annotation
62
1
39
211
10
113.795713
20
348.394840
11
112.644850
21
348.394840
0
LINE
8
annotation
62
1
39
211
10
112.644850
20
348.394840
11
113.708285
21
350.106835
0
LINE
8
annotation
62
1
39
211
10
113.708285
20
350.106835
11
113.708285
21
350.106835
0
LINE
8
annotation
62
1
39
211
10
113.708285
20
350.106835
11
113.709557
21
350.108408
0
LINE
8
annotation
62
1
39
211
10
113.709557
20
350.108408
11
113.710776
21
350.109995
0
LINE
8
annotation
62
1
39
211
10
113.710776
20
350.109995
11
113.711951
21
350.111608
0
LINE
8
annotation
62
1
39
211
10
113.711951
20
350.111608
11
113.713090
21
350.113261
0
LINE
8
annotation
62
1
39
211
10
113.713090
20
350.113261
11
113.714200
21
350.114968
0
LINE
8
annotation
62
1
39
211
10
113.714200
20
350.114968
11
113.715291
21
350.116742
0
LINE
8
annotation
62
1
39
211
10
113.715291
20
350.116742
11
113.716370
21
350.118596
0
LINE
8
annotation
62
1
39
211
10
113.716370
20
350.118596
11
113.717445
21
350.120544
0
LINE
8
annotation
62
1
39
211
10
113.717445
20
350.120544
11
113.718523
21
350.122598
0
LINE
8
annotation
62
1
39
211
10
113.718523
20
350.122598
11
113.718523
21
350.122598
0
LINE
8
annotation
62
1
39
211
10
113.718523
20
350.122598
11
113.762432
21
350.216875
0
LINE
8
annotation
62
1
39
211
10
113.762432
20
350.216875
11
113.788083
21
350.314600
0
LINE
8
annotation
62
1
39
211
10
113.788083
20
350.314600
11
113.796105
21
350.413567
0
LINE
8
annotation
62
1
39
211
10
113.796105
20
350.413567
11
113.787125
21
350.511567
0
LINE
8
annotation
62
1
39
211
10
113.787125
20
350.511567
11
113.761773
21
350.606392
0
LINE
8
annotation
62
1
39
211
10
113.761773
20
350.606392
11
113.720678
21
350.695833
0
LINE
8
annotation
62
1
39
211
10
113.720678
20
350.695833
11
113.664468
21
350.777683
0
LINE
8
annotation
62
1
39
211
10
113.664468
20
350.777683
11
113.593771
21
350.849733
0
LINE
8
annotation
62
1
39
211
10
113.593771
20
350.849733
11
113.509216
21
350.909775
0
LINE
8
annotation
62
1
39
211
10
113.509216
20
350.909775
11
113.509216
21
350.909775
0
LINE
8
annotation
62
1
39
211
10
113.509216
20
350.909775
11
113.414678
21
350.953060
0
LINE
8
annotation
62
1
39
211
10
113.414678
20
350.953060
11
113.316802
21
350.978316
0
LINE
8
annotation
62
1
39
211
10
113.316802
20
350.978316
11
113.217778
21
350.986110
0
LINE
8
annotation
62
1
39
211
10
113.217778
20
350.986110
11
113.119792
21
350.977012
0
LINE
8
annotation
62
1
39
211
10
113.119792
20
350.977012
11
113.025035
21
350.951590
0
LINE
8
annotation
62
1
39
211
10
113.025035
20
350.951590
11
112.935692
21
350.910413
0
LINE
8
annotation
62
1
39
211
10
112.935692
20
350.910413
11
112.853953
21
350.854048
0
LINE
8
annotation
62
1
39
211
10
112.853953
20
350.854048
11
112.782007
21
350.783064
0
LINE
8
annotation
62
1
39
211
10
112.782007
20
350.783064
11
112.722040
21
350.698030
0
LINE
8
annotation
62
1
39
211
10
112.722040
20
350.698030
11
112.646475
21
350.553075
0
LINE
8
annotation
62
1
39
211
10
115.918710
20
348.394840
11
114.767847
21
348.394840
0
LINE
8
annotation
62
1
39
211
10
114.767847
20
348.394840
11
115.831283
21
350.106835
0
LINE
8
annotation
62
1
39
211
10
115.831283
20
350.106835
11
115.831283
21
350.106835
0
LINE
8
annotation
62
1
39
211
10
115.831283
20
350.106835
11
115.832554
21
350.108408
0
LINE
8
annotation
62
1
39
211
10
115.832554
20
350.108408
11
115.833773
21
350.109995
0
LINE
8
annotation
62
1
39
211
10
115.833773
20
350.109995
11
115.834948
21
350.111608
0
LINE
8
annotation
62
1
39
211
10
115.834948
20
350.111608
11
115.836087
21
350.113261
0
LINE
8
annotation
62
1
39
211
10
115.836087
20
350.113261
11
115.837198
21
350.114968
0
LINE
8
annotation
62
1
39
211
10
115.837198
20
350.114968
11
115.838288
21
350.116742
0
LINE
8
annotation
62
1
39
211
10
115.838288
20
350.116742
11
115.839367
21
350.118596
0
LINE
8
annotation
62
1
39
211
10
115.839367
20
350.118596
11
115.840442
21
350.120544
0
LINE
8
annotation
62
1
39
211
10
115.840442
20
350.120544
11
115.841520
21
350.122598
0
LINE
8
annotation
62
1
39
211
10
115.841520
20
350.122598
11
115.841520
21
350.122598
0
LINE
8
annotation
62
1
39
211
10
115.841520
20
350.122598
11
115.885429
21
350.216875
0
LINE
8
annotation
62
1
39
211
10
115.885429
20
350.216875
11
115.911080
21
350.314600
0
LINE
8
annotation
62
1
39
211
10
115.911080
20
350.314600
11
115.919102
21
350.413567
0
LINE
8
annotation
62
1
39
211
10
115.919102
20
350.413567
11
115.910122
21
350.511567
0
LINE
8
annotation
62
1
39
211
10
115.910122
20
350.511567
11
115.884770
21
350.606392
0
LINE
8
annotation
62
1
39
211
10
115.884770
20
350.606392
11
115.843675
21
350.695833
0
LINE
8
annotation
62
1
39
211
10
115.843675
20
350.695833
11
115.787465
21
350.777683
0
LINE
8
annotation
62
1
39
211
10
115.787465
20
350.777683
11
115.716768
21
350.849733
0
LINE
8
annotation
62
1
39
211
10
115.716768
20
350.849733
11
115.632213
21
350.909775
0
LINE
8
annotation
62
1
39
211
10
115.632213
20
350.909775
11
115.632213
21
350.909775
0
LINE
8
annotation
62
1
39
211
10
115.632213
20
350.909775
11
115.537675
21
350.953060
0
LINE
8
annotation
62
1
39
211
10
115.537675
20
350.953060
11
115.439799
21
350.978316
0
LINE
8
annotation
62
1
39
211
10
115.439799
20
350.978316
11
115.340775
21
350.986110
0
LINE
8
annotation
62
1
39
211
10
115.340775
20
350.986110
11
115.242790
21
350.977012
0
LINE
8
annotation
62
1
39
211
10
115.242790
20
350.977012
11
115.148032
21
350.951590
0
LINE
8
annotation
62
1
39
211
10
115.148032
20
350.951590
11
115.058689
21
350.910413
0
LINE
8
annotation
62
1
39
211
10
115.058689
20
350.910413
11
114.976951
21
350.854048
0
LINE
8
annotation
62
1
39
211
10
114.976951
20
350.854048
11
114.905004
21
350.783064
0
LINE
8
annotation
62
1
39
211
10
114.905004
20
350.783064
11
114.845037
21
350.698030
0
LINE
8
annotation
62
1
39
211
10
114.845037
20
350.698030
11
114.769472
21
350.553075
0
LINE
8
annotation
62
1
39
211
10
90.206652
20
305.980758
11
88.118618
21
302.960608
0
LINE
8
annotation
62
1
39
211
10
88.118618
20
302.960608
11
86.030192
21
305.980758
0
LINE
8
annotation
62
1
39
211
10
88.118618
20
303.203649
11
88.118618
21
299.719404
0
LINE
8
annotation
62
1
39
211
10
95.978684
20
302.850081
11
92.555298
21
302.850081
0
LINE
8
annotation
62
1
39
211
10
99.718044
20
299.719601
11
99.718044
21
305.980561
0
LINE
8
annotation
62
1
39
211
10
99.718044
20
305.980561
11
98.326152
21
304.588277
0
LINE
8
annotation
62
1
39
211
10
102.065708
20
299.719797
11
103.456029
21
299.719797
0
LINE
8
annotation
62
1
39
211
10
103.456029
20
299.719797
11
103.456029
21
299.719797
0
LINE
8
annotation
62
1
39
211
10
103.456029
20
299.719797
11
103.706081
21
299.742228
0
LINE
8
annotation
62
1
39
211
10
103.706081
20
299.742228
11
103.941372
21
299.806877
0
LINE
8
annotation
62
1
39
211
10
103.941372
20
299.806877
11
104.157988
21
299.909774
0
LINE
8
annotation
62
1
39
211
10
104.157988
20
299.909774
11
104.352015
21
300.046952
0
LINE
8
annotation
62
1
39
211
10
104.352015
20
300.046952
11
104.519540
21
300.214442
0
LINE
8
annotation
62
1
39
211
10
104.519540
20
300.214442
11
104.656649
21
300.408275
0
LINE
8
annotation
62
1
39
211
10
104.656649
20
300.408275
11
104.759430
21
300.624484
0
LINE
8
annotation
62
1
39
211
10
104.759430
20
300.624484
11
104.823968
21
300.859100
0
LINE
8
annotation
62
1
39
211
10
104.823968
20
300.859100
11
104.846350
21
301.108155
0
LINE
8
annotation
62
1
39
211
10
104.846350
20
301.108155
11
104.846350
21
301.804297
0
LINE
8
annotation
62
1
39
211
10
104.846350
20
301.804297
11
104.846350
21
301.804297
0
LINE
8
annotation
62
1
39
211
10
104.846350
20
301.804297
11
104.823968
21
302.053248
0
LINE
8
annotation
62
1
39
211
10
104.823968
20
302.053248
11
104.759430
21
302.287809
0
LINE
8
annotation
62
1
39
211
10
104.759430
20
302.287809
11
104.656649
21
302.504002
0
LINE
8
annotation
62
1
39
211
10
104.656649
20
302.504002
11
104.519540
21
302.697849
0
LINE
8
annotation
62
1
39
211
10
104.519540
20
302.697849
11
104.352015
21
302.865371
0
LINE
8
annotation
62
1
39
211
10
104.352015
20
302.865371
11
104.157988
21
303.002591
0
LINE
8
annotation
62
1
39
211
10
104.157988
20
303.002591
11
103.941372
21
303.105530
0
LINE
8
annotation
62
1
39
211
10
103.941372
20
303.105530
11
103.706081
21
303.170211
0
LINE
8
annotation
62
1
39
211
10
103.706081
20
303.170211
11
103.456029
21
303.192655
0
LINE
8
annotation
62
1
39
211
10
103.456029
20
303.192655
11
102.759887
21
303.192655
0
LINE
8
annotation
62
1
39
211
10
102.759887
20
303.192655
11
103.456029
21
303.192655
0
LINE
8
annotation
62
1
39
211
10
103.456029
20
303.192655
11
103.456029
21
303.192655
0
LINE
8
annotation
62
1
39
211
10
103.456029
20
303.192655
11
103.706081
21
303.215105
0
LINE
8
annotation
62
1
39
211
10
103.706081
20
303.215105
11
103.941372
21
303.279823
0
LINE
8
annotation
62
1
39
211
10
103.941372
20
303.279823
11
104.157988
21
303.382865
0
LINE
8
annotation
62
1
39
211
10
104.157988
20
303.382865
11
104.352015
21
303.520284
0
LINE
8
annotation
62
1
39
211
10
104.352015
20
303.520284
11
104.519540
21
303.688135
0
LINE
8
annotation
62
1
39
211
10
104.519540
20
303.688135
11
104.656649
21
303.882472
0
LINE
8
annotation
62
1
39
211
10
104.656649
20
303.882472
11
104.759430
21
304.099348
0
LINE
8
annotation
62
1
39
211
10
104.759430
20
304.099348
11
104.823968
21
304.334820
0
LINE
8
annotation
62
1
39
211
10
104.823968
20
304.334820
11
104.846350
21
304.584940
0
LINE
8
annotation
62
1
39
211
10
104.846350
20
304.584940
11
104.846350
21
304.584940
0
LINE
8
annotation
62
1
39
211
10
104.846350
20
304.584940
11
104.823968
21
304.833891
0
LINE
8
annotation
62
1
39
211
10
104.823968
20
304.833891
11
104.759430
21
305.068452
0
LINE
8
annotation
62
1
39
211
10
104.759430
20
305.068452
11
104.656649
21
305.284645
0
LINE
8
annotation
62
1
39
211
10
104.656649
20
305.284645
11
104.519540
21
305.478491
0
LINE
8
annotation
62
1
39
211
10
104.519540
20
305.478491
11
104.352015
21
305.646013
0
LINE
8
annotation
62
1
39
211
10
104.352015
20
305.646013
11
104.157988
21
305.783233
0
LINE
8
annotation
62
1
39
211
10
104.157988
20
305.783233
11
103.941372
21
305.886173
0
LINE
8
annotation
62
1
39
211
10
103.941372
20
305.886173
11
103.706081
21
305.950853
0
LINE
8
annotation
62
1
39
211
10
103.706081
20
305.950853
11
103.456029
21
305.973298
0
LINE
8
annotation
62
1
39
211
10
103.456029
20
305.973298
11
102.065708
21
305.973298
0
LINE
8
boundary
62
5
39
2
10
10.712675
20
359.411004
11
11.275819
21
359.747598
0
LINE
8
boundary
62
5
39
2
10
11.275819
20
359.747598
11
12.028032
21
360.214367
0
LINE
8
boundary
62
5
39
2
10
12.028032
20
360.214367
11
12.741961
21
360.672084
0
LINE
8
boundary
62
5
39
2
10
12.741961
20
360.672084
11
13.491387
21
361.167107
0
LINE
8
boundary
62
5
39
2
10
13.491387
20
361.167107
11
14.276203
21
361.701254
0
LINE
8
boundary
62
5
39
2
10
14.276203
20
361.701254
11
15.096355
21
362.276545
0
LINE
8
boundary
62
5
39
2
10
15.096355
20
362.276545
11
15.656107
21
362.679935
0
LINE
8
boundary
62
5
39
2
10
15.656107
20
362.679935
11
16.728505
21
363.473253
0
LINE
8
boundary
62
5
39
2
10
16.728505
20
363.473253
11
17.309023
21
363.917301
0
LINE
8
boundary
62
5
39
2
10
17.309023
20
363.917301
11
17.778280
21
364.283168
0
LINE
8
boundary
62
5
39
2
10
17.778280
20
364.283168
11
18.761773
21
365.073968
0
LINE
8
boundary
62
5
39
2
10
18.761773
20
365.073968
11
19.223648
21
365.456443
0
LINE
8
boundary
62
5
39
2
10
19.223648
20
365.456443
11
19.782132
21
365.919671
0
LINE
8
boundary
62
5
39
2
10
19.782132
20
365.919671
11
20.657962
21
366.667958
0
LINE
8
boundary
62
5
39
2
10
20.657962
20
366.667958
11
21.273329
21
367.205226
0
LINE
8
boundary
62
5
39
2
10
21.273329
20
367.205226
11
21.952751
21
367.812538
0
LINE
8
boundary
62
5
39
2
10
21.952751
20
367.812538
11
22.525216
21
368.343062
0
LINE
8
boundary
62
5
39
2
10
22.525216
20
368.343062
11
23.515199
21
369.259348
0
LINE
8
boundary
62
5
39
2
10
23.515199
20
369.259348
11
24.544026
21
370.250848
0
LINE
8
boundary
62
5
39
2
10
24.544026
20
370.250848
11
25.168792
21
370.862447
0
LINE
8
boundary
62
5
39
2
10
25.168792
20
370.862447
11
26.112773
21
371.824308
0
LINE
8
boundary
62
5
39
2
10
26.112773
20
371.824308
11
26.934001
21
372.659491
0
LINE
8
boundary
62
5
39
2
10
26.934001
20
372.659491
11
27.414930
21
373.168009
0
LINE
8
boundary
62
5
39
2
10
27.414930
20
373.168009
11
28.830935
21
374.690280
0
LINE
8
boundary
62
5
39
2
10
28.830935
20
374.690280
11
29.999842
21
375.995025
0
LINE
8
boundary
62
5
39
2
10
29.999842
20
375.995025
11
30.870969
21
376.984397
0
LINE
8
boundary
62
5
39
2
10
30.870969
20
376.984397
11
32.377580
21
378.757499
0
LINE
8
boundary
62
5
39
2
10
32.377580
20
378.757499
11
33.094791
21
379.616986
0
LINE
8
boundary
62
5
39
2
10
33.094791
20
379.616986
11
34.588282
21
381.466981
0
LINE
8
boundary
62
5
39
2
10
34.588282
20
381.466981
11
35.557448
21
382.690375
0
LINE
8
boundary
62
5
39
2
10
35.557448
20
382.690375
11
36.667003
21
384.133973
0
LINE
8
boundary
62
5
39
2
10
36.667003
20
384.133973
11
38.335932
21
386.348368
0
LINE
8
boundary
62
5
39
2
10
38.335932
20
386.348368
11
38.643295
21
386.767390
0
LINE
8
boundary
62
5
39
2
10
38.643295
20
386.767390
11
39.093854
21
387.394193
0
LINE
8
boundary
62
5
39
2
10
39.093854
20
387.394193
11
40.517595
21
389.365558
0
LINE
8
boundary
62
5
39
2
10
40.517595
20
389.365558
11
41.615561
21
390.917552
0
LINE
8
boundary
62
5
39
2
10
41.615561
20
390.917552
11
42.322734
21
391.939528
0
LINE
8
boundary
62
5
39
2
10
42.322734
20
391.939528
11
42.896958
21
392.787066
0
LINE
8
boundary
62
5
39
2
10
42.896958
20
392.787066
11
44.057205
21
394.487133
0
LINE
8
boundary
62
5
39
2
10
44.057205
20
394.487133
11
45.734999
21
396.998667
0
LINE
8
boundary
62
5
39
2
10
45.734999
20
396.998667
11
47.372246
21
399.521061
0
LINE
8
boundary
62
5
39
2
10
47.372246
20
399.521061
11
49.252399
21
402.493800
0
LINE
8
boundary
62
5
39
2
10
49.252399
20
402.493800
11
50.516937
21
404.478693
0
LINE
8
boundary
62
5
39
2
10
50.516937
20
404.478693
11
52.339266
21
407.425583
0
LINE
8
boundary
62
5
39
2
10
52.339266
20
407.425583
11
53.370006
21
409.104675
0
LINE
8
boundary
62
5
39
2
10
53.370006
20
409.104675
11
53.676763
21
409.616488
0
LINE
8
boundary
62
5
39
2
10
53.676763
20
409.616488
11
55.953090
21
413.389546
0
LINE
8
boundary
62
5
39
2
10
55.953090
20
413.389546
11
56.671661
21
414.606381
0
LINE
8
boundary
62
5
39
2
10
56.671661
20
414.606381
11
58.553358
21
417.776709
0
LINE
8
boundary
62
5
39
2
10
58.553358
20
417.776709
11
59.402020
21
419.233247
0
LINE
8
boundary
62
5
39
2
10
59.402020
20
419.233247
11
61.671522
21
423.124005
0
LINE
8
boundary
62
5
39
2
10
61.671522
20
423.124005
11
62.378365
21
424.352208
0
LINE
8
boundary
62
5
39
2
10
62.378365
20
424.352208
11
62.924640
21
425.314699
0
LINE
8
boundary
62
5
39
2
10
62.924640
20
425.314699
11
65.511422
21
429.827001
0
LINE
8
boundary
62
5
39
2
10
65.511422
20
429.827001
11
65.836656
21
430.405991
0
LINE
8
boundary
62
5
39
2
10
65.836656
20
430.405991
11
67.724516
21
433.788311
0
LINE
8
boundary
62
5
39
2
10
67.724516
20
433.788311
11
68.489115
21
435.136903
0
LINE
8
boundary
62
5
39
2
10
68.489115
20
435.136903
11
69.645689
21
437.256510
0
LINE
8
boundary
62
5
39
2
10
69.645689
20
437.256510
11
71.260090
21
440.171427
0
LINE
8
boundary
62
5
39
2
10
71.260090
20
440.171427
11
71.755740
21
441.093844
0
LINE
8
boundary
62
5
39
2
10
71.755740
20
441.093844
11
72.968713
21
443.379642
0
LINE
8
boundary
62
5
39
2
10
72.968713
20
443.379642
11
73.815051
21
444.953380
0
LINE
8
boundary
62
5
39
2
10
73.815051
20
444.953380
11
74.398160
21
446.087054
0
LINE
8
boundary
62
5
39
2
10
74.398160
20
446.087054
11
75.150749
21
447.533825
0
LINE
8
boundary
62
5
39
2
10
75.150749
20
447.533825
11
75.679562
21
448.574474
0
LINE
8
boundary
62
5
39
2
10
75.679562
20
448.574474
11
76.132915
21
449.456658
0
LINE
8
boundary
62
5
39
2
10
76.132915
20
449.456658
11
76.805772
21
450.838729
0
LINE
8
boundary
62
5
39
2
10
76.805772
20
450.838729
11
77.529804
21
452.313680
0
LINE
8
boundary
62
5
39
2
10
77.529804
20
452.313680
11
77.843151
21
452.972709
0
LINE
8
boundary
62
5
39
2
10
77.843151
20
452.972709
11
78.163816
21
453.641635
0
LINE
8
boundary
62
5
39
2
10
78.163816
20
453.641635
11
78.718872
21
454.883040
0
LINE
8
boundary
62
5
39
2
10
78.718872
20
454.883040
11
79.225168
21
456.011023
0
LINE
8
boundary
62
5
39
2
10
79.225168
20
456.011023
11
79.509829
21
456.675566
0
LINE
8
boundary
62
5
39
2
10
79.509829
20
456.675566
11
79.851392
21
457.470227
0
LINE
8
boundary
62
5
39
2
10
79.851392
20
457.470227
11
80.125913
21
458.162071
0
LINE
8
boundary
62
5
39
2
10
80.125913
20
458.162071
11
80.450586
21
458.981833
0
LINE
8
boundary
62
5
39
2
10
80.450586
20
458.981833
11
80.753349
21
459.805519
0
LINE
8
boundary
62
5
39
2
10
80.753349
20
459.805519
11
81.000454
21
460.544722
0
LINE
8
boundary
62
5
39
2
10
81.000454
20
460.544722
11
81.255668
21
461.314792
0
LINE
8
boundary
62
5
39
2
10
81.255668
20
461.314792
11
81.438001
21
461.942888
0
LINE
8
boundary
62
5
39
2
10
81.438001
20
461.942888
11
81.594189
21
462.576469
0
LINE
8
boundary
62
5
39
2
10
81.594189
20
462.576469
11
81.733667
21
463.154215
0
LINE
8
boundary
62
5
39
2
10
81.733667
20
463.154215
11
81.857578
21
463.850468
0
LINE
8
boundary
62
5
39
2
10
81.857578
20
463.850468
11
81.941370
21
464.584160
0
LINE
8
boundary
62
5
39
2
10
81.941370
20
464.584160
11
81.944884
21
465.481245
0
LINE
8
boundary
62
5
39
2
10
81.944884
20
465.481245
11
81.833579
21
466.026492
0
LINE
8
boundary
62
5
39
2
10
81.833579
20
466.026492
11
81.480420
21
466.741253
0
LINE
8
boundary
62
5
39
2
10
81.480420
20
466.741253
11
81.060770
21
467.093883
0
LINE
8
boundary
62
5
39
2
10
81.060770
20
467.093883
11
80.445917
21
467.214740
0
LINE
8
boundary
62
5
39
2
10
80.445917
20
467.214740
11
79.895140
21
467.154502
0
LINE
8
boundary
62
5
39
2
10
79.895140
20
467.154502
11
79.354577
21
466.979542
0
LINE
8
boundary
62
5
39
2
10
79.354577
20
466.979542
11
78.799527
21
466.724044
0
LINE
8
boundary
62
5
39
2
10
78.799527
20
466.724044
11
78.185540
21
466.380476
0
LINE
8
boundary
62
5
39
2
10
78.185540
20
466.380476
11
78.112184
21
463.342421
0
LINE
8
boundary
62
5
39
2
10
78.112184
20
463.342421
11
74.536078
21
463.342421
0
LINE
8
boundary
62
5
39
2
10
74.536078
20
463.342421
11
74.095038
21
462.897162
0
LINE
8
boundary
62
5
39
2
10
74.095038
20
462.897162
11
73.014282
21
461.710698
0
LINE
8
boundary
62
5
39
2
10
73.014282
20
461.710698
11
72.523081
21
461.128818
0
LINE
8
boundary
62
5
39
2
10
72.523081
20
461.128818
11
71.872192
21
460.363805
0
LINE
8
boundary
62
5
39
2
10
71.872192
20
460.363805
11
70.985297
21
459.247220
0
LINE
8
boundary
62
5
39
2
10
70.985297
20
459.247220
11
69.965439
21
457.915711
0
LINE
8
boundary
62
5
39
2
10
69.965439
20
457.915711
11
69.396992
21
457.155241
0
LINE
8
boundary
62
5
39
2
10
69.396992
20
457.155241
11
68.988912
21
456.580678
0
LINE
8
boundary
62
5
39
2
10
68.988912
20
456.580678
11
68.049460
21
455.260957
0
LINE
8
boundary
62
5
39
2
10
68.049460
20
455.260957
11
67.063702
21
453.812123
0
LINE
8
boundary
62
5
39
2
10
67.063702
20
453.812123
11
66.629231
21
453.171017
0
LINE
8
boundary
62
5
39
2
10
66.629231
20
453.171017
11
64.801893
21
450.357133
0
LINE
8
boundary
62
5
39
2
10
64.801893
20
450.357133
11
64.369807
21
449.680344
0
LINE
8
boundary
62
5
39
2
10
64.369807
20
449.680344
11
63.514304
21
448.322265
0
LINE
8
boundary
62
5
39
2
10
63.514304
20
448.322265
11
62.918831
21
447.361667
0
LINE
8
boundary
62
5
39
2
10
62.918831
20
447.361667
11
68.201407
21
447.211667
0
LINE
8
boundary
62
5
39
2
10
68.201407
20
447.211667
11
68.201407
21
444.465667
0
LINE
8
boundary
62
5
39
2
10
68.201407
20
444.465667
11
61.137817
21
444.465667
0
LINE
8
boundary
62
5
39
2
10
61.137817
20
444.465667
11
60.492002
21
443.400213
0
LINE
8
boundary
62
5
39
2
10
60.492002
20
443.400213
11
59.977139
21
442.555287
0
LINE
8
boundary
62
5
39
2
10
59.977139
20
442.555287
11
59.233397
21
441.324757
0
LINE
8
boundary
62
5
39
2
10
59.233397
20
441.324757
11
58.686309
21
440.418560
0
LINE
8
boundary
62
5
39
2
10
58.686309
20
440.418560
11
58.330515
21
439.825071
0
LINE
8
boundary
62
5
39
2
10
58.330515
20
439.825071
11
57.317252
21
438.149447
0
LINE
8
boundary
62
5
39
2
10
57.317252
20
438.149447
11
56.287571
21
436.437842
0
LINE
8
boundary
62
5
39
2
10
56.287571
20
436.437842
11
55.883778
21
435.773777
0
LINE
8
boundary
62
5
39
2
10
55.883778
20
435.773777
11
54.538039
21
433.552396
0
LINE
8
boundary
62
5
39
2
10
54.538039
20
433.552396
11
53.536524
21
431.914305
0
LINE
8
boundary
62
5
39
2
10
53.536524
20
431.914305
11
53.223857
21
431.405593
0
LINE
8
boundary
62
5
39
2
10
53.223857
20
431.405593
11
52.701386
21
430.552354
0
LINE
8
boundary
62
5
39
2
10
52.701386
20
430.552354
11
52.044320
21
429.481985
0
LINE
8
boundary
62
5
39
2
10
52.044320
20
429.481985
11
51.444838
21
428.503547
0
LINE
8
boundary
62
5
39
2
10
51.444838
20
428.503547
11
57.385542
21
428.334914
0
LINE
8
boundary
62
5
39
2
10
57.385542
20
428.334914
11
57.385541
21
425.588914
0
LINE
8
boundary
62
5
39
2
10
57.385541
20
425.588914
11
49.621886
21
425.588914
0
LINE
8
boundary
62
5
39
2
10
49.621886
20
425.588914
11
49.109420
21
424.769449
0
LINE
8
boundary
62
5
39
2
10
49.109420
20
424.769449
11
48.606092
21
423.965494
0
LINE
8
boundary
62
5
39
2
10
48.606092
20
423.965494
11
48.123694
21
423.210748
0
LINE
8
boundary
62
5
39
2
10
48.123694
20
423.210748
11
47.078591
21
421.576344
0
LINE
8
boundary
62
5
39
2
10
47.078591
20
421.576344
11
46.213845
21
420.226471
0
LINE
8
boundary
62
5
39
2
10
46.213845
20
420.226471
11
45.751859
21
419.504485
0
LINE
8
boundary
62
5
39
2
10
45.751859
20
419.504485
11
44.914726
21
418.224492
0
LINE
8
boundary
62
5
39
2
10
44.914726
20
418.224492
11
44.376641
21
417.403477
0
LINE
8
boundary
62
5
39
2
10
44.376641
20
417.403477
11
43.761897
21
416.463464
0
LINE
8
boundary
62
5
39
2
10
43.761897
20
416.463464
11
42.844781
21
415.063982
0
LINE
8
boundary
62
5
39
2
10
42.844781
20
415.063982
11
42.414140
21
414.420301
0
LINE
8
boundary
62
5
39
2
10
42.414140
20
414.420301
11
41.318295
21
412.781154
0
LINE
8
boundary
62
5
39
2
10
41.318295
20
412.781154
11
40.223933
21
411.146623
0
LINE
8
boundary
62
5
39
2
10
40.223933
20
411.146623
11
39.855368
21
410.595717
0
LINE
8
boundary
62
5
39
2
10
39.855368
20
410.595717
11
39.182212
21
409.608160
0
LINE
8
boundary
62
5
39
2
10
39.182212
20
409.608160
11
45.708552
21
409.458160
0
LINE
8
boundary
62
5
39
2
10
45.708552
20
409.458160
11
45.708552
21
406.712160
0
LINE
8
boundary
62
5
39
2
10
45.708552
20
406.712160
11
37.207684
21
406.712160
0
LINE
8
boundary
62
5
39
2
10
37.207684
20
406.712160
11
36.765234
21
406.062932
0
LINE
8
boundary
62
5
39
2
10
36.765234
20
406.062932
11
34.372460
21
402.595820
0
LINE
8
boundary
62
5
39
2
10
34.372460
20
402.595820
11
33.595354
21
401.468577
0
LINE
8
boundary
62
5
39
2
10
33.595354
20
401.468577
11
31.120726
21
397.895730
0
LINE
8
boundary
62
5
39
2
10
31.120726
20
397.895730
11
30.396423
21
396.847312
0
LINE
8
boundary
62
5
39
2
10
30.396423
20
396.847312
11
29.947525
21
396.196205
0
LINE
8
boundary
62
5
39
2
10
29.947525
20
396.196205
11
27.742732
21
392.999298
0
LINE
8
boundary
62
5
39
2
10
27.742732
20
392.999298
11
26.189536
21
390.731406
0
LINE
8
boundary
62
5
39
2
10
26.189536
20
390.731406
11
33.134552
21
390.581406
0
LINE
8
boundary
62
5
39
2
10
33.134552
20
390.581406
11
33.134551
21
387.835406
0
LINE
8
boundary
62
5
39
2
10
33.134551
20
387.835406
11
24.215412
21
387.835406
0
LINE
8
boundary
62
5
39
2
10
24.215412
20
387.835406
11
22.592271
21
385.439057
0
LINE
8
boundary
62
5
39
2
10
22.592271
20
385.439057
11
22.043580
21
384.618308
0
LINE
8
boundary
62
5
39
2
10
22.043580
20
384.618308
11
19.986678
21
381.527907
0
LINE
8
boundary
62
5
39
2
10
19.986678
20
381.527907
11
18.751076
21
379.645464
0
LINE
8
boundary
62
5
39
2
10
18.751076
20
379.645464
11
17.534299
21
377.771684
0
LINE
8
boundary
62
5
39
2
10
17.534299
20
377.771684
11
16.337817
21
375.907167
0
LINE
8
boundary
62
5
39
2
10
16.337817
20
375.907167
11
15.162863
21
374.052224
0
LINE
8
boundary
62
5
39
2
10
15.162863
20
374.052224
11
14.767574
21
373.419073
0
LINE
8
boundary
62
5
39
2
10
14.767574
20
373.419073
11
14.097707
21
372.342229
0
LINE
8
boundary
62
5
39
2
10
14.097707
20
372.342229
11
13.798158
21
371.854652
0
LINE
8
boundary
62
5
39
2
10
13.798158
20
371.854652
11
19.304476
21
371.704652
0
LINE
8
boundary
62
5
39
2
10
19.304476
20
371.704652
11
19.304476
21
368.958652
0
LINE
8
boundary
62
5
39
2
10
19.304476
20
368.958652
11
12.044463
21
368.958652
0
LINE
8
boundary
62
5
39
2
10
12.044463
20
368.958652
11
11.389625
21
367.850818
0
LINE
8
boundary
62
5
39
2
10
11.389625
20
367.850818
11
10.764491
21
366.787157
0
LINE
8
boundary
62
5
39
2
10
10.764491
20
366.787157
11
10.110589
21
365.646475
0
LINE
8
boundary
62
5
39
2
10
10.110589
20
365.646475
11
9.749563
21
365.008254
0
LINE
8
boundary
62
5
39
2
10
9.749563
20
365.008254
11
9.405347
21
364.380550
0
LINE
8
boundary
62
5
39
2
10
9.405347
20
364.380550
11
9.063954
21
363.758117
0
LINE
8
boundary
62
5
39
2
10
9.063954
20
363.758117
11
8.797019
21
363.263948
0
LINE
8
boundary
62
5
39
2
10
8.797019
20
363.263948
11
8.525244
21
362.740997
0
LINE
8
boundary
62
5
39
2
10
8.525244
20
362.740997
11
8.211751
21
362.133371
0
LINE
8
boundary
62
5
39
2
10
8.211751
20
362.133371
11
7.920918
21
361.559702
0
LINE
8
boundary
62
5
39
2
10
7.920918
20
361.559702
11
7.627195
21
360.937495
0
LINE
8
boundary
62
5
39
2
10
7.627195
20
360.937495
11
7.358568
21
360.349499
0
LINE
8
boundary
62
5
39
2
10
7.358568
20
360.349499
11
7.080440
21
359.688642
0
LINE
8
boundary
62
5
39
2
10
7.080440
20
359.688642
11
6.907094
21
359.209533
0
LINE
8
boundary
62
5
39
2
10
6.907094
20
359.209533
11
6.732571
21
358.633554
0
LINE
8
boundary
62
5
39
2
10
6.732571
20
358.633554
11
6.671184
21
358.073079
0
LINE
8
boundary
62
5
39
2
10
6.671184
20
358.073079
11
6.963872
21
357.653114
0
LINE
8
boundary
62
5
39
2
10
6.963872
20
357.653114
11
7.511379
21
357.721323
0
LINE
8
boundary
62
5
39
2
10
7.511379
20
357.721323
11
8.024383
21
357.934018
0
LINE
8
boundary
62
5
39
2
10
8.024383
20
357.934018
11
8.921241
21
358.395244
0
LINE
8
boundary
62
5
39
2
10
8.921241
20
358.395244
11
9.476948
21
358.701293
0
LINE
8
boundary
62
5
39
2
10
9.476948
20
358.701293
11
10.055597
21
359.028515
0
LINE
8
boundary
62
5
39
2
10
10.055597
20
359.028515
11
10.680298
21
359.391504
0
LINE
8
boundary
62
5
39
2
10
10.680298
20
359.391504
11
10.712675
21
359.411004
0
LINE
8
annotation
62
1
39
211
10
21.760961
20
369.198498
11
22.264254
21
369.198498
0
LINE
8
annotation
62
1
39
211
10
22.264254
20
369.198498
11
22.264254
21
369.198498
0
LINE
8
annotation
62
1
39
211
10
22.264254
20
369.198498
11
22.354772
21
369.206618
0
LINE
8
annotation
62
1
39
211
10
22.354772
20
369.206618
11
22.439947
21
369.230021
0
LINE
8
annotation
62
1
39
211
10
22.439947
20
369.230021
11
22.518361
21
369.267270
0
LINE
8
annotation
62
1
39
211
10
22.518361
20
369.267270
11
22.588598
21
369.316927
0
LINE
8
annotation
62
1
39
211
10
22.588598
20
369.316927
11
22.649242
21
369.377558
0
LINE
8
annotation
62
1
39
211
10
22.649242
20
369.377558
11
22.698875
21
369.447726
0
LINE
8
annotation
62
1
39
211
10
22.698875
20
369.447726
11
22.736081
21
369.525993
0
LINE
8
annotation
62
1
39
211
10
22.736081
20
369.525993
11
22.759444
21
369.610923
0
LINE
8
annotation
62
1
39
211
10
22.759444
20
369.610923
11
22.767546
21
369.701080
0
LINE
8
annotation
62
1
39
211
10
22.767546
20
369.701080
11
22.767546
21
369.953081
0
LINE
8
annotation
62
1
39
211
10
22.767546
20
369.953081
11
22.767546
21
369.953081
0
LINE
8
annotation
62
1
39
211
10
22.767546
20
369.953081
11
22.759444
21
370.043201
0
LINE
8
annotation
62
1
39
211
10
22.759444
20
370.043201
11
22.736081
21
370.128111
0
LINE
8
annotation
62
1
39
211
10
22.736081
20
370.128111
11
22.698875
21
370.206373
0
LINE
8
annotation
62
1
39
211
10
22.698875
20
370.206373
11
22.649242
21
370.276545
0
LINE
8
annotation
62
1
39
211
10
22.649242
20
370.276545
11
22.588598
21
370.337187
0
LINE
8
annotation
62
1
39
211
10
22.588598
20
370.337187
11
22.518361
21
370.386860
0
LINE
8
annotation
62
1
39
211
10
22.518361
20
370.386860
11
22.439947
21
370.424124
0
LINE
8
annotation
62
1
39
211
10
22.439947
20
370.424124
11
22.354772
21
370.447538
0
LINE
8
annotation
62
1
39
211
10
22.354772
20
370.447538
11
22.264254
21
370.455663
0
LINE
8
annotation
62
1
39
211
10
22.264254
20
370.455663
11
22.012252
21
370.455663
0
LINE
8
annotation
62
1
39
211
10
22.012252
20
370.455663
11
22.264254
21
370.455663
0
LINE
8
annotation
62
1
39
211
10
22.264254
20
370.455663
11
22.264254
21
370.455663
0
LINE
8
annotation
62
1
39
211
10
22.264254
20
370.455663
11
22.354772
21
370.463790
0
LINE
8
annotation
62
1
39
211
10
22.354772
20
370.463790
11
22.439947
21
370.487218
0
LINE
8
annotation
62
1
39
211
10
22.439947
20
370.487218
11
22.518361
21
370.524519
0
LINE
8
annotation
62
1
39
211
10
22.518361
20
370.524519
11
22.588598
21
370.574264
0
LINE
8
annotation
62
1
39
211
10
22.588598
20
370.574264
11
22.649242
21
370.635025
0
LINE
8
annotation
62
1
39
211
10
22.649242
20
370.635025
11
22.698875
21
370.705375
0
LINE
8
annotation
62
1
39
211
10
22.698875
20
370.705375
11
22.736081
21
370.783883
0
LINE
8
annotation
62
1
39
211
10
22.736081
20
370.783883
11
22.759444
21
370.869123
0
LINE
8
annotation
62
1
39
211
10
22.759444
20
370.869123
11
22.767546
21
370.959666
0
LINE
8
annotation
62
1
39
211
10
22.767546
20
370.959666
11
22.767546
21
370.959666
0
LINE
8
annotation
62
1
39
211
10
22.767546
20
370.959666
11
22.759444
21
371.049786
0
LINE
8
annotation
62
1
39
211
10
22.759444
20
371.049786
11
22.736081
21
371.134696
0
LINE
8
annotation
62
1
39
211
10
22.736081
20
371.134696
11
22.698875
21
371.212957
0
LINE
8
annotation
62
1
39
211
10
22.698875
20
371.212957
11
22.649242
21
371.283129
0
LINE
8
annotation
62
1
39
211
10
22.649242
20
371.283129
11
22.588598
21
371.343772
0
LINE
8
annotation
62
1
39
211
10
22.588598
20
371.343772
11
22.518361
21
371.393445
0
LINE
8
annotation
62
1
39
211
10
22.518361
20
371.393445
11
22.439947
21
371.430709
0
LINE
8
annotation
62
1
39
211
10
22.439947
20
371.430709
11
22.354772
21
371.454123
0
LINE
8
annotation
62
1
39
211
10
22.354772
20
371.454123
11
22.264254
21
371.462248
0
LINE
8
annotation
62
1
39
211
10
22.264254
20
371.462248
11
21.760961
21
371.462248
0
LINE
8
annotation
62
1
39
211
10
38.334993
20
388.286095
11
36.490787
21
388.286095
0
LINE
8
annotation
62
1
39
211
10
36.490787
20
388.286095
11
37.227303
21
390.869108
0
LINE
8
annotation
62
1
39
211
10
37.782189
20
387.547704
11
37.782189
21
389.022819
0
LINE
8
annotation
62
1
39
211
10
49.370186
20
406.365667
11
50.133854
21
406.365667
0
LINE
8
annotation
62
1
39
211
10
50.133854
20
406.365667
11
50.133854
21
406.365667
0
LINE
8
annotation
62
1
39
211
10
50.133854
20
406.365667
11
50.270918
21
406.377990
0
LINE
8
annotation
62
1
39
211
10
50.270918
20
406.377990
11
50.400006
21
406.413519
0
LINE
8
annotation
62
1
39
211
10
50.400006
20
406.413519
11
50.518943
21
406.470088
0
LINE
8
annotation
62
1
39
211
10
50.518943
20
406.470088
11
50.625553
21
406.545535
0
LINE
8
annotation
62
1
39
211
10
50.625553
20
406.545535
11
50.717659
21
406.637695
0
LINE
8
annotation
62
1
39
211
10
50.717659
20
406.637695
11
50.793085
21
406.744405
0
LINE
8
annotation
62
1
39
211
10
50.793085
20
406.744405
11
50.849655
21
406.863502
0
LINE
8
annotation
62
1
39
211
10
50.849655
20
406.863502
11
50.885193
21
406.992820
0
LINE
8
annotation
62
1
39
211
10
50.885193
20
406.992820
11
50.897522
21
407.130197
0
LINE
8
annotation
62
1
39
211
10
50.897522
20
407.130197
11
50.897522
21
407.510629
0
LINE
8
annotation
62
1
39
211
10
50.897522
20
407.510629
11
50.897522
21
407.510629
0
LINE
8
annotation
62
1
39
211
10
50.897522
20
407.510629
11
50.885200
21
407.647940
0
LINE
8
annotation
62
1
39
211
10
50.885200
20
407.647940
11
50.849680
21
407.777080
0
LINE
8
annotation
62
1
39
211
10
50.849680
20
407.777080
11
50.793133
21
407.895918
0
LINE
8
annotation
62
1
39
211
10
50.793133
20
407.895918
11
50.717730
21
408.002322
0
LINE
8
annotation
62
1
39
211
10
50.717730
20
408.002322
11
50.625642
21
408.094160
0
LINE
8
annotation
62
1
39
211
10
50.625642
20
408.094160
11
50.519039
21
408.169301
0
LINE
8
annotation
62
1
39
211
10
50.519039
20
408.169301
11
50.400093
21
408.225612
0
LINE
8
annotation
62
1
39
211
10
50.400093
20
408.225612
11
50.270975
21
408.260962
0
LINE
8
annotation
62
1
39
211
10
50.270975
20
408.260962
11
50.133854
21
408.273219
0
LINE
8
annotation
62
1
39
211
10
50.133854
20
408.273219
11
49.370186
21
408.273219
0
LINE
8
annotation
62
1
39
211
10
49.370186
20
408.273219
11
49.370186
21
409.804653
0
LINE
8
annotation
62
1
39
211
10
49.370186
20
409.804653
11
50.897522
21
409.804653
0
LINE
8
annotation
62
1
39
211
10
61.884411
20
428.567594
11
61.884411
21
428.567594
0
LINE
8
annotation
62
1
39
211
10
61.884411
20
428.567594
11
61.680119
21
428.490997
0
LINE
8
annotation
62
1
39
211
10
61.680119
20
428.490997
11
61.492655
21
428.387792
0
LINE
8
annotation
62
1
39
211
10
61.492655
20
428.387792
11
61.323943
21
428.260564
0
LINE
8
annotation
62
1
39
211
10
61.323943
20
428.260564
11
61.175907
21
428.111900
0
LINE
8
annotation
62
1
39
211
10
61.175907
20
428.111900
11
61.050471
21
427.944384
0
LINE
8
annotation
62
1
39
211
10
61.050471
20
427.944384
11
60.949559
21
427.760603
0
LINE
8
annotation
62
1
39
211
10
60.949559
20
427.760603
11
60.875097
21
427.563142
0
LINE
8
annotation
62
1
39
211
10
60.875097
20
427.563142
11
60.829009
21
427.354588
0
LINE
8
annotation
62
1
39
211
10
60.829009
20
427.354588
11
60.813219
21
427.137525
0
LINE
8
annotation
62
1
39
211
10
60.813219
20
427.137525
11
60.813219
21
426.070160
0
LINE
8
annotation
62
1
39
211
10
60.813219
20
426.070160
11
60.813219
21
426.070160
0
LINE
8
annotation
62
1
39
211
10
60.813219
20
426.070160
11
60.824732
21
425.941876
0
LINE
8
annotation
62
1
39
211
10
60.824732
20
425.941876
11
60.857918
21
425.821117
0
LINE
8
annotation
62
1
39
211
10
60.857918
20
425.821117
11
60.910743
21
425.709903
0
LINE
8
annotation
62
1
39
211
10
60.910743
20
425.709903
11
60.981177
21
425.610256
0
LINE
8
annotation
62
1
39
211
10
60.981177
20
425.610256
11
61.067187
21
425.524196
0
LINE
8
annotation
62
1
39
211
10
61.067187
20
425.524196
11
61.166740
21
425.453743
0
LINE
8
annotation
62
1
39
211
10
61.166740
20
425.453743
11
61.277804
21
425.400918
0
LINE
8
annotation
62
1
39
211
10
61.277804
20
425.400918
11
61.398348
21
425.367741
0
LINE
8
annotation
62
1
39
211
10
61.398348
20
425.367741
11
61.526340
21
425.356233
0
LINE
8
annotation
62
1
39
211
10
61.526340
20
425.356233
11
61.526340
21
425.356233
0
LINE
8
annotation
62
1
39
211
10
61.526340
20
425.356233
11
61.654596
21
425.367741
0
LINE
8
annotation
62
1
39
211
10
61.654596
20
425.367741
11
61.775281
21
425.400918
0
LINE
8
annotation
62
1
39
211
10
61.775281
20
425.400918
11
61.886387
21
425.453743
0
LINE
8
annotation
62
1
39
211
10
61.886387
20
425.453743
11
61.985907
21
425.524196
0
LINE
8
annotation
62
1
39
211
10
61.985907
20
425.524196
11
62.071834
21
425.610256
0
LINE
8
annotation
62
1
39
211
10
62.071834
20
425.610256
11
62.142160
21
425.709903
0
LINE
8
annotation
62
1
39
211
10
62.142160
20
425.709903
11
62.194878
21
425.821117
0
LINE
8
annotation
62
1
39
211
10
62.194878
20
425.821117
11
62.227980
21
425.941876
0
LINE
8
annotation
62
1
39
211
10
62.227980
20
425.941876
11
62.239461
21
426.070160
0
LINE
8
annotation
62
1
39
211
10
62.239461
20
426.070160
11
62.239461
21
426.425411
0
LINE
8
annotation
62
1
39
211
10
62.239461
20
426.425411
11
62.239461
21
426.425411
0
LINE
8
annotation
62
1
39
211
10
62.239461
20
426.425411
11
62.227980
21
426.553633
0
LINE
8
annotation
62
1
39
211
10
62.227980
20
426.553633
11
62.194878
21
426.674226
0
LINE
8
annotation
62
1
39
211
10
62.194878
20
426.674226
11
62.142160
21
426.785198
0
LINE
8
annotation
62
1
39
211
10
62.142160
20
426.785198
11
62.071834
21
426.884559
0
LINE
8
annotation
62
1
39
211
10
62.071834
20
426.884559
11
61.985907
21
426.970318
0
LINE
8
annotation
62
1
39
211
10
61.985907
20
426.970318
11
61.886387
21
427.040485
0
LINE
8
annotation
62
1
39
211
10
61.886387
20
427.040485
11
61.775281
21
427.093069
0
LINE
8
annotation
62
1
39
211
10
61.775281
20
427.093069
11
61.654596
21
427.126080
0
LINE
8
annotation
62
1
39
211
10
61.654596
20
427.126080
11
61.526340
21
427.137525
0
LINE
8
annotation
62
1
39
211
10
61.526340
20
427.137525
11
60.813219
21
427.137525
0
LINE
8
annotation
62
1
39
211
10
60.723902
20
424.954813
11
62.329583
21
424.954813
0
LINE
8
annotation
62
1
39
211
10
72.136136
20
444.315423
11
72.813409
21
447.361912
0
LINE
8
annotation
62
1
39
211
10
72.813409
20
447.361912
11
71.458671
21
447.361912
0
LINE
8
annotation
62
1
39
211
10
72.813409
20
446.005263
11
72.136136
21
446.005263
0
LINE
8
annotation
62
1
39
211
10
80.492592
20
464.105305
11
80.492592
21
464.105305
0
LINE
8
annotation
62
1
39
211
10
80.492592
20
464.105305
11
80.500453
21
464.017766
0
LINE
8
annotation
62
1
39
211
10
80.500453
20
464.017766
11
80.523109
21
463.935437
0
LINE
8
annotation
62
1
39
211
10
80.523109
20
463.935437
11
80.559174
21
463.859675
0
LINE
8
annotation
62
1
39
211
10
80.559174
20
463.859675
11
80.607260
21
463.791840
0
LINE
8
annotation
62
1
39
211
10
80.607260
20
463.791840
11
80.665979
21
463.733291
0
LINE
8
annotation
62
1
39
211
10
80.665979
20
463.733291
11
80.733945
21
463.685387
0
LINE
8
annotation
62
1
39
211
10
80.733945
20
463.685387
11
80.809770
21
463.649488
0
LINE
8
annotation
62
1
39
211
10
80.809770
20
463.649488
11
80.892067
21
463.626951
0
LINE
8
annotation
62
1
39
211
10
80.892067
20
463.626951
11
80.979448
21
463.619137
0
LINE
8
annotation
62
1
39
211
10
80.979448
20
463.619137
11
80.979448
21
463.619137
0
LINE
8
annotation
62
1
39
211
10
80.979448
20
463.619137
11
81.066829
21
463.626951
0
LINE
8
annotation
62
1
39
211
10
81.066829
20
463.626951
11
81.149126
21
463.649488
0
LINE
8
annotation
62
1
39
211
10
81.149126
20
463.649488
11
81.224951
21
463.685387
0
LINE
8
annotation
62
1
39
211
10
81.224951
20
463.685387
11
81.292917
21
463.733291
0
LINE
8
annotation
62
1
39
211
10
81.292917
20
463.733291
11
81.351636
21
463.791840
0
LINE
8
annotation
62
1
39
211
10
81.351636
20
463.791840
11
81.399722
21
463.859675
0
LINE
8
annotation
62
1
39
211
10
81.399722
20
463.859675
11
81.435787
21
463.935437
0
LINE
8
annotation
62
1
39
211
10
81.435787
20
463.935437
11
81.458443
21
464.017766
0
LINE
8
annotation
62
1
39
211
10
81.458443
20
464.017766
11
81.466304
21
464.105305
0
LINE
8
annotation
62
1
39
211
10
81.466304
20
464.105305
11
81.466304
21
464.347839
0
LINE
8
annotation
62
1
39
211
10
81.466304
20
464.347839
11
81.466304
21
464.347839
0
LINE
8
annotation
62
1
39
211
10
81.466304
20
464.347839
11
81.458448
21
464.435420
0
LINE
8
annotation
62
1
39
211
10
81.458448
20
464.435420
11
81.435803
21
464.517864
0
LINE
8
annotation
62
1
39
211
10
81.435803
20
464.517864
11
81.399753
21
464.593790
0
LINE
8
annotation
62
1
39
211
10
81.399753
20
464.593790
11
81.351682
21
464.661820
0
LINE
8
annotation
62
1
39
211
10
81.351682
20
464.661820
11
81.292973
21
464.720574
0
LINE
8
annotation
62
1
39
211
10
81.292973
20
464.720574
11
81.225012
21
464.768673
0
LINE
8
annotation
62
1
39
211
10
81.225012
20
464.768673
11
81.149181
21
464.804738
0
LINE
8
annotation
62
1
39
211
10
81.149181
20
464.804738
11
81.066865
21
464.827388
0
LINE
8
annotation
62
1
39
211
10
81.066865
20
464.827388
11
80.979448
21
464.835245
0
LINE
8
annotation
62
1
39
211
10
80.979448
20
464.835245
11
80.979448
21
464.835245
0
LINE
8
annotation
62
1
39
211
10
80.979448
20
464.835245
11
80.892031
21
464.827383
0
LINE
8
annotation
62
1
39
211
10
80.892031
20
464.827383
11
80.809715
21
464.804722
0
LINE
8
annotation
62
1
39
211
10
80.809715
20
464.804722
11
80.733884
21
464.768643
0
LINE
8
annotation
62
1
39
211
10
80.733884
20
464.768643
11
80.665923
21
464.720529
0
LINE
8
annotation
62
1
39
211
10
80.665923
20
464.720529
11
80.607214
21
464.661764
0
LINE
8
annotation
62
1
39
211
10
80.607214
20
464.661764
11
80.559143
21
464.593729
0
LINE
8
annotation
62
1
39
211
10
80.559143
20
464.593729
11
80.523093
21
464.517808
0
LINE
8
annotation
62
1
39
211
10
80.523093
20
464.517808
11
80.500448
21
464.435384
0
LINE
8
annotation
62
1
39
211
10
80.500448
20
464.435384
11
80.492592
21
464.347839
0
LINE
8
annotation
62
1
39
211
10
80.492592
20
464.347839
11
80.492592
21
464.105305
0
LINE
8
annotation
62
1
39
211
10
81.466304
20
465.322788
11
81.466304
21
465.322788
0
LINE
8
annotation
62
1
39
211
10
81.466304
20
465.322788
11
81.458448
21
465.409964
0
LINE
8
annotation
62
1
39
211
10
81.458448
20
465.409964
11
81.435803
21
465.492101
0
LINE
8
annotation
62
1
39
211
10
81.435803
20
465.492101
11
81.399753
21
465.567807
0
LINE
8
annotation
62
1
39
211
10
81.399753
20
465.567807
11
81.351682
21
465.635687
0
LINE
8
annotation
62
1
39
211
10
81.351682
20
465.635687
11
81.292973
21
465.694349
0
LINE
8
annotation
62
1
39
211
10
81.292973
20
465.694349
11
81.225012
21
465.742400
0
LINE
8
annotation
62
1
39
211
10
81.225012
20
465.742400
11
81.149181
21
465.778447
0
LINE
8
annotation
62
1
39
211
10
81.149181
20
465.778447
11
81.066865
21
465.801096
0
LINE
8
annotation
62
1
39
211
10
81.066865
20
465.801096
11
80.979448
21
465.808956
0
LINE
8
annotation
62
1
39
211
10
80.979448
20
465.808956
11
80.979448
21
465.808956
0
LINE
8
annotation
62
1
39
211
10
80.979448
20
465.808956
11
80.892031
21
465.801096
0
LINE
8
annotation
62
1
39
211
10
80.892031
20
465.801096
11
80.809715
21
465.778447
0
LINE
8
annotation
62
1
39
211
10
80.809715
20
465.778447
11
80.733884
21
465.742400
0
LINE
8
annotation
62
1
39
211
10
80.733884
20
465.742400
11
80.665923
21
465.694349
0
LINE
8
annotation
62
1
39
211
10
80.665923
20
465.694349
11
80.607214
21
465.635687
0
LINE
8
annotation
62
1
39
211
10
80.607214
20
465.635687
11
80.559143
21
465.567807
0
LINE
8
annotation
62
1
39
211
10
80.559143
20
465.567807
11
80.523093
21
465.492101
0
LINE
8
annotation
62
1
39
211
10
80.523093
20
465.492101
11
80.500448
21
465.409964
0
LINE
8
annotation
62
1
39
211
10
80.500448
20
465.409964
11
80.492592
21
465.322788
0
LINE
8
annotation
62
1
39
211
10
80.492592
20
465.322788
11
80.492592
21
465.322788
0
LINE
8
annotation
62
1
39
211
10
80.492592
20
465.322788
11
80.500453
21
465.235202
0
LINE
8
annotation
62
1
39
211
10
80.500453
20
465.235202
11
80.523109
21
465.152746
0
LINE
8
annotation
62
1
39
211
10
80.523109
20
465.152746
11
80.559174
21
465.076801
0
LINE
8
annotation
62
1
39
211
10
80.559174
20
465.076801
11
80.607260
21
465.008749
0
LINE
8
annotation
62
1
39
211
10
80.607260
20
465.008749
11
80.665979
21
464.949972
0
LINE
8
annotation
62
1
39
211
10
80.665979
20
464.949972
11
80.733945
21
464.901851
0
LINE
8
annotation
62
1
39
211
10
80.733945
20
464.901851
11
80.809770
21
464.865769
0
LINE
8
annotation
62
1
39
211
10
80.809770
20
464.865769
11
80.892067
21
464.843106
0
LINE
8
annotation
62
1
39
211
10
80.892067
20
464.843106
11
80.979448
21
464.835245
0
LINE
8
annotation
62
1
39
211
10
80.979448
20
464.835245
11
80.979448
21
464.835245
0
LINE
8
annotation
62
1
39
211
10
80.979448
20
464.835245
11
81.066829
21
464.843106
0
LINE
8
annotation
62
1
39
211
10
81.066829
20
464.843106
11
81.149126
21
464.865769
0
LINE
8
annotation
62
1
39
211
10
81.149126
20
464.865769
11
81.224951
21
464.901851
0
LINE
8
annotation
62
1
39
211
10
81.224951
20
464.901851
11
81.292917
21
464.949972
0
LINE
8
annotation
62
1
39
211
10
81.292917
20
464.949972
11
81.351636
21
465.008749
0
LINE
8
annotation
62
1
39
211
10
81.351636
20
465.008749
11
81.399722
21
465.076801
0
LINE
8
annotation
62
1
39
211
10
81.399722
20
465.076801
11
81.435787
21
465.152746
0
LINE
8
annotation
62
1
39
211
10
81.435787
20
465.152746
11
81.458443
21
465.235202
0
LINE
8
annotation
62
1
39
211
10
81.458443
20
465.235202
11
81.466304
21
465.322788
0
LINE
8
annotation
62
1
39
211
10
38.158001
20
400.570947
11
37.500150
21
399.619426
0
LINE
8
annotation
62
1
39
211
10
37.500150
20
399.619426
11
36.842176
21
400.570947
0
LINE
8
annotation
62
1
39
211
10
37.500150
20
399.695998
11
37.500150
21
398.598261
0
LINE
8
annotation
62
1
39
211
10
39.976523
20
399.584604
11
38.897959
21
399.584604
0
LINE
8
annotation
62
1
39
211
10
41.592259
20
398.598307
11
40.716197
21
398.598307
0
LINE
8
annotation
62
1
39
211
10
40.716197
20
398.598307
11
41.525707
21
399.901514
0
LINE
8
annotation
62
1
39
211
10
41.525707
20
399.901514
11
41.525707
21
399.901514
0
LINE
8
annotation
62
1
39
211
10
41.525707
20
399.901514
11
41.526675
21
399.902712
0
LINE
8
annotation
62
1
39
211
10
41.526675
20
399.902712
11
41.527603
21
399.903919
0
LINE
8
annotation
62
1
39
211
10
41.527603
20
399.903919
11
41.528498
21
399.905147
0
LINE
8
annotation
62
1
39
211
10
41.528498
20
399.905147
11
41.529365
21
399.906406
0
LINE
8
annotation
62
1
39
211
10
41.529365
20
399.906406
11
41.530210
21
399.907705
0
LINE
8
annotation
62
1
39
211
10
41.530210
20
399.907705
11
41.531040
21
399.909055
0
LINE
8
annotation
62
1
39
211
10
41.531040
20
399.909055
11
41.531862
21
399.910467
0
LINE
8
annotation
62
1
39
211
10
41.531862
20
399.910467
11
41.532680
21
399.911949
0
LINE
8
annotation
62
1
39
211
10
41.532680
20
399.911949
11
41.533501
21
399.913513
0
LINE
8
annotation
62
1
39
211
10
41.533501
20
399.913513
11
41.533501
21
399.913513
0
LINE
8
annotation
62
1
39
211
10
41.533501
20
399.913513
11
41.566925
21
399.985278
0
LINE
8
annotation
62
1
39
211
10
41.566925
20
399.985278
11
41.586451
21
400.059669
0
LINE
8
annotation
62
1
39
211
10
41.586451
20
400.059669
11
41.592557
21
400.135005
0
LINE
8
annotation
62
1
39
211
10
41.592557
20
400.135005
11
41.585722
21
400.209605
0
LINE
8
annotation
62
1
39
211
10
41.585722
20
400.209605
11
41.566424
21
400.281788
0
LINE
8
annotation
62
1
39
211
10
41.566424
20
400.281788
11
41.535141
21
400.349872
0
LINE
8
annotation
62
1
39
211
10
41.535141
20
400.349872
11
41.492352
21
400.412178
0
LINE
8
annotation
62
1
39
211
10
41.492352
20
400.412178
11
41.438536
21
400.467024
0
LINE
8
annotation
62
1
39
211
10
41.438536
20
400.467024
11
41.374172
21
400.512729
0
LINE
8
annotation
62
1
39
211
10
41.374172
20
400.512729
11
41.374172
21
400.512729
0
LINE
8
annotation
62
1
39
211
10
41.374172
20
400.512729
11
41.302207
21
400.545679
0
LINE
8
annotation
62
1
39
211
10
41.302207
20
400.545679
11
41.227702
21
400.564904
0
LINE
8
annotation
62
1
39
211
10
41.227702
20
400.564904
11
41.152322
21
400.570837
0
LINE
8
annotation
62
1
39
211
10
41.152322
20
400.570837
11
41.077734
21
400.563912
0
LINE
8
annotation
62
1
39
211
10
41.077734
20
400.563912
11
41.005602
21
400.544560
0
LINE
8
annotation
62
1
39
211
10
41.005602
20
400.544560
11
40.937593
21
400.513215
0
LINE
8
annotation
62
1
39
211
10
40.937593
20
400.513215
11
40.875372
21
400.470309
0
LINE
8
annotation
62
1
39
211
10
40.875372
20
400.470309
11
40.820604
21
400.416274
0
LINE
8
annotation
62
1
39
211
10
40.820604
20
400.416274
11
40.774956
21
400.351544
0
LINE
8
annotation
62
1
39
211
10
40.774956
20
400.351544
11
40.717434
21
400.241202
0
LINE
8
annotation
62
1
39
211
10
42.332119
20
398.598323
11
42.770151
21
398.598323
0
LINE
8
annotation
62
1
39
211
10
42.770151
20
398.598323
11
42.770151
21
398.598323
0
LINE
8
annotation
62
1
39
211
10
42.770151
20
398.598323
11
42.848769
21
398.605391
0
LINE
8
annotation
62
1
39
211
10
42.848769
20
398.605391
11
42.922812
21
398.625770
0
LINE
8
annotation
62
1
39
211
10
42.922812
20
398.625770
11
42.991033
21
398.658218
0
LINE
8
annotation
62
1
39
211
10
42.991033
20
398.658218
11
43.052183
21
398.701493
0
LINE
8
annotation
62
1
39
211
10
43.052183
20
398.701493
11
43.105014
21
398.754355
0
LINE
8
annotation
62
1
39
211
10
43.105014
20
398.754355
11
43.148278
21
398.815563
0
LINE
8
annotation
62
1
39
211
10
43.148278
20
398.815563
11
43.180725
21
398.883875
0
LINE
8
annotation
62
1
39
211
10
43.180725
20
398.883875
11
43.201110
21
398.958051
0
LINE
8
annotation
62
1
39
211
10
43.201110
20
398.958051
11
43.208182
21
399.036849
0
LINE
8
annotation
62
1
39
211
10
43.208182
20
399.036849
11
43.208182
21
399.255060
0
LINE
8
annotation
62
1
39
211
10
43.208182
20
399.255060
11
43.208182
21
399.255060
0
LINE
8
annotation
62
1
39
211
10
43.208182
20
399.255060
11
43.201114
21
399.333820
0
LINE
8
annotation
62
1
39
211
10
43.201114
20
399.333820
11
43.180740
21
399.407893
0
LINE
8
annotation
62
1
39
211
10
43.180740
20
399.407893
11
43.148305
21
399.476057
0
LINE
8
annotation
62
1
39
211
10
43.148305
20
399.476057
11
43.105055
21
399.537089
0
LINE
8
annotation
62
1
39
211
10
43.105055
20
399.537089
11
43.052234
21
399.589767
0
LINE
8
annotation
62
1
39
211
10
43.052234
20
399.589767
11
42.991088
21
399.632866
0
LINE
8
annotation
62
1
39
211
10
42.991088
20
399.632866
11
42.922862
21
399.665166
0
LINE
8
annotation
62
1
39
211
10
42.922862
20
399.665166
11
42.848801
21
399.685442
0
LINE
8
annotation
62
1
39
211
10
42.848801
20
399.685442
11
42.770151
21
399.692473
0
LINE
8
annotation
62
1
39
211
10
42.770151
20
399.692473
11
42.332119
21
399.692473
0
LINE
8
annotation
62
1
39
211
10
42.332119
20
399.692473
11
42.332119
21
400.570885
0
LINE
8
annotation
62
1
39
211
10
42.332119
20
400.570885
11
43.208182
21
400.570885
0
LINE
8
boundary
62
5
39
2
10
26.809080
20
546.039194
11
28.217346
21
543.990169
0
LINE
8
boundary
62
5
39
2
10
28.217346
20
543.990169
11
28.686864
21
543.309665
0
LINE
8
boundary
62
5
39
2
10
28.686864
20
543.309665
11
30.296247
21
540.978209
0
LINE
8
boundary
62
5
39
2
10
30.296247
20
540.978209
11
30.607981
21
540.527697
0
LINE
8
boundary
62
5
39
2
10
30.607981
20
540.527697
11
31.886852
21
538.681632
0
LINE
8
boundary
62
5
39
2
10
31.886852
20
538.681632
11
33.010327
21
537.058752
0
LINE
8
boundary
62
5
39
2
10
33.010327
20
537.058752
11
33.304000
21
536.633664
0
LINE
8
boundary
62
5
39
2
10
33.304000
20
536.633664
11
33.707989
21
536.048147
0
LINE
8
boundary
62
5
39
2
10
33.707989
20
536.048147
11
34.654752
21
534.679495
0
LINE
8
boundary
62
5
39
2
10
34.654752
20
534.679495
11
35.395646
21
533.606759
0
LINE
8
boundary
62
5
39
2
10
35.395646
20
533.606759
11
35.992914
21
532.737159
0
LINE
8
boundary
62
5
39
2
10
35.992914
20
532.737159
11
36.768341
21
531.605582
0
LINE
8
boundary
62
5
39
2
10
36.768341
20
531.605582
11
37.137492
21
531.068295
0
LINE
8
boundary
62
5
39
2
10
37.137492
20
531.068295
11
37.741286
21
530.187920
0
LINE
8
boundary
62
5
39
2
10
37.741286
20
530.187920
11
38.033412
21
529.757638
0
LINE
8
boundary
62
5
39
2
10
38.033412
20
529.757638
11
38.886793
21
528.500275
0
LINE
8
boundary
62
5
39
2
10
38.886793
20
528.500275
11
39.594422
21
527.455664
0
LINE
8
boundary
62
5
39
2
10
39.594422
20
527.455664
11
40.033427
21
526.808318
0
LINE
8
boundary
62
5
39
2
10
40.033427
20
526.808318
11
40.585657
21
525.983179
0
LINE
8
boundary
62
5
39
2
10
40.585657
20
525.983179
11
40.912350
21
525.493488
0
LINE
8
boundary
62
5
39
2
10
40.912350
20
525.493488
11
41.401847
21
524.762174
0
LINE
8
boundary
62
5
39
2
10
41.401847
20
524.762174
11
42.212767
21
523.546701
0
LINE
8
boundary
62
5
39
2
10
42.212767
20
523.546701
11
43.000922
21
522.351365
0
LINE
8
boundary
62
5
39
2
10
43.000922
20
522.351365
11
43.413911
21
521.721996
0
LINE
8
boundary
62
5
39
2
10
43.413911
20
521.721996
11
43.777730
21
521.169723
0
LINE
8
boundary
62
5
39
2
10
43.777730
20
521.169723
11
44.451571
21
520.142831
0
LINE
8
boundary
62
5
39
2
10
44.451571
20
520.142831
11
45.283143
21
518.858636
0
LINE
8
boundary
62
5
39
2
10
45.283143
20
518.858636
11
45.723724
21
518.175422
0
LINE
8
boundary
62
5
39
2
10
45.723724
20
518.175422
11
46.019386
21
517.719016
0
LINE
8
boundary
62
5
39
2
10
46.019386
20
517.719016
11
46.599585
21
516.819344
0
LINE
8
boundary
62
5
39
2
10
46.599585
20
516.819344
11
47.439289
21
515.499816
0
LINE
8
boundary
62
5
39
2
10
47.439289
20
515.499816
11
47.854202
21
514.844910
0
LINE
8
boundary
62
5
39
2
10
47.854202
20
514.844910
11
48.134829
21
514.404259
0
LINE
8
boundary
62
5
39
2
10
48.134829
20
514.404259
11
48.724220
21
513.474206
0
LINE
8
boundary
62
5
39
2
10
48.724220
20
513.474206
11
49.478929
21
512.268081
0
LINE
8
boundary
62
5
39
2
10
49.478929
20
512.268081
11
49.823198
21
511.715232
0
LINE
8
boundary
62
5
39
2
10
49.823198
20
511.715232
11
50.134677
21
511.217940
0
LINE
8
boundary
62
5
39
2
10
50.134677
20
511.217940
11
50.774762
21
510.190615
0
LINE
8
boundary
62
5
39
2
10
50.774762
20
510.190615
11
51.413397
21
509.155579
0
LINE
8
boundary
62
5
39
2
10
51.413397
20
509.155579
11
52.031190
21
508.151388
0
LINE
8
boundary
62
5
39
2
10
52.031190
20
508.151388
11
52.523421
21
507.348947
0
LINE
8
boundary
62
5
39
2
10
52.523421
20
507.348947
11
52.975149
21
506.614484
0
LINE
8
boundary
62
5
39
2
10
52.975149
20
506.614484
11
53.255076
21
506.153746
0
LINE
8
boundary
62
5
39
2
10
53.255076
20
506.153746
11
53.837471
21
505.195438
0
LINE
8
boundary
62
5
39
2
10
53.837471
20
505.195438
11
54.160363
21
504.661925
0
LINE
8
boundary
62
5
39
2
10
54.160363
20
504.661925
11
54.572810
21
503.986335
0
LINE
8
boundary
62
5
39
2
10
54.572810
20
503.986335
11
55.149853
21
503.034838
0
LINE
8
boundary
62
5
39
2
10
55.149853
20
503.034838
11
55.482079
21
502.482749
0
LINE
8
boundary
62
5
39
2
10
55.482079
20
502.482749
11
56.365067
21
501.018194
0
LINE
8
boundary
62
5
39
2
10
56.365067
20
501.018194
11
57.166663
21
499.684252
0
LINE
8
boundary
62
5
39
2
10
57.166663
20
499.684252
11
58.110536
21
498.117070
0
LINE
8
boundary
62
5
39
2
10
58.110536
20
498.117070
11
58.525565
21
497.422874
0
LINE
8
boundary
62
5
39
2
10
58.525565
20
497.422874
11
58.963789
21
496.699374
0
LINE
8
boundary
62
5
39
2
10
58.963789
20
496.699374
11
59.767018
21
495.366664
0
LINE
8
boundary
62
5
39
2
10
59.767018
20
495.366664
11
60.641006
21
493.923683
0
LINE
8
boundary
62
5
39
2
10
60.641006
20
493.923683
11
61.067343
21
493.217809
0
LINE
8
boundary
62
5
39
2
10
61.067343
20
493.217809
11
61.465288
21
492.568738
0
LINE
8
boundary
62
5
39
2
10
61.465288
20
492.568738
11
62.267062
21
491.257001
0
LINE
8
boundary
62
5
39
2
10
62.267062
20
491.257001
11
62.999887
21
490.073364
0
LINE
8
boundary
62
5
39
2
10
62.999887
20
490.073364
11
63.393366
21
489.436937
0
LINE
8
boundary
62
5
39
2
10
63.393366
20
489.436937
11
63.702853
21
488.944778
0
LINE
8
boundary
62
5
39
2
10
63.702853
20
488.944778
11
64.260744
21
488.057190
0
LINE
8
boundary
62
5
39
2
10
64.260744
20
488.057190
11
65.418912
21
486.257859
0
LINE
8
boundary
62
5
39
2
10
65.418912
20
486.257859
11
66.433582
21
484.693143
0
LINE
8
boundary
62
5
39
2
10
66.433582
20
484.693143
11
67.401375
21
483.258671
0
LINE
8
boundary
62
5
39
2
10
67.401375
20
483.258671
11
67.952174
21
482.449079
0
LINE
8
boundary
62
5
39
2
10
67.952174
20
482.449079
11
68.322453
21
481.925122
0
LINE
8
boundary
62
5
39
2
10
68.322453
20
481.925122
11
69.128468
21
480.791461
0
LINE
8
boundary
62
5
39
2
10
69.128468
20
480.791461
11
70.189482
21
479.361031
0
LINE
8
boundary
62
5
39
2
10
70.189482
20
479.361031
11
70.582770
21
478.839418
0
LINE
8
boundary
62
5
39
2
10
70.582770
20
478.839418
11
71.135414
21
478.139470
0
LINE
8
boundary
62
5
39
2
10
71.135414
20
478.139470
11
71.795377
21
477.311896
0
LINE
8
boundary
62
5
39
2
10
71.795377
20
477.311896
11
72.946131
21
475.952042
0
LINE
8
boundary
62
5
39
2
10
72.946131
20
475.952042
11
73.951755
21
474.845835
0
LINE
8
boundary
62
5
39
2
10
73.951755
20
474.845835
11
74.997644
21
473.779654
0
LINE
8
boundary
62
5
39
2
10
74.997644
20
473.779654
11
75.971625
21
472.874973
0
LINE
8
boundary
62
5
39
2
10
75.971625
20
472.874973
11
76.647851
21
472.310068
0
LINE
8
boundary
62
5
39
2
10
76.647851
20
472.310068
11
77.755991
21
471.481063
0
LINE
8
boundary
62
5
39
2
10
77.755991
20
471.481063
11
78.526111
21
471.012895
0
LINE
8
boundary
62
5
39
2
10
78.526111
20
471.012895
11
79.231182
21
470.674411
0
LINE
8
boundary
62
5
39
2
10
79.231182
20
470.674411
11
79.748206
21
470.500722
0
LINE
8
boundary
62
5
39
2
10
79.748206
20
470.500722
11
80.430853
21
470.389740
0
LINE
8
boundary
62
5
39
2
10
80.430853
20
470.389740
11
81.271013
21
470.616334
0
LINE
8
boundary
62
5
39
2
10
81.271013
20
470.616334
11
81.713805
21
471.140505
0
LINE
8
boundary
62
5
39
2
10
81.713805
20
471.140505
11
78.420589
21
471.415100
0
LINE
8
boundary
62
5
39
2
10
78.420589
20
471.415100
11
78.420589
21
474.161100
0
LINE
8
boundary
62
5
39
2
10
78.420589
20
474.161100
11
81.784620
21
474.161100
0
LINE
8
boundary
62
5
39
2
10
81.784620
20
474.161100
11
81.647440
21
474.899759
0
LINE
8
boundary
62
5
39
2
10
81.647440
20
474.899759
11
81.306844
21
476.221074
0
LINE
8
boundary
62
5
39
2
10
81.306844
20
476.221074
11
80.509589
21
478.547120
0
LINE
8
boundary
62
5
39
2
10
80.509589
20
478.547120
11
80.327604
21
479.025940
0
LINE
8
boundary
62
5
39
2
10
80.327604
20
479.025940
11
79.325425
21
481.459475
0
LINE
8
boundary
62
5
39
2
10
79.325425
20
481.459475
11
78.557614
21
483.154032
0
LINE
8
boundary
62
5
39
2
10
78.557614
20
483.154032
11
77.842081
21
484.717513
0
LINE
8
boundary
62
5
39
2
10
77.842081
20
484.717513
11
76.299570
21
487.870039
0
LINE
8
boundary
62
5
39
2
10
76.299570
20
487.870039
11
75.253339
21
489.933349
0
LINE
8
boundary
62
5
39
2
10
75.253339
20
489.933349
11
68.488869
21
490.337261
0
LINE
8
boundary
62
5
39
2
10
68.488869
20
490.337261
11
68.488870
21
493.083261
0
LINE
8
boundary
62
5
39
2
10
68.488870
20
493.083261
11
73.518726
21
493.083261
0
LINE
8
boundary
62
5
39
2
10
73.518726
20
493.083261
11
72.758212
21
494.691474
0
LINE
8
boundary
62
5
39
2
10
72.758212
20
494.691474
11
71.828723
21
496.416141
0
LINE
8
boundary
62
5
39
2
10
71.828723
20
496.416141
11
70.785720
21
498.337056
0
LINE
8
boundary
62
5
39
2
10
70.785720
20
498.337056
11
69.977176
21
499.807206
0
LINE
8
boundary
62
5
39
2
10
69.977176
20
499.807206
11
68.697863
21
502.119630
0
LINE
8
boundary
62
5
39
2
10
68.697863
20
502.119630
11
66.719050
21
505.658217
0
LINE
8
boundary
62
5
39
2
10
66.719050
20
505.658217
11
65.885303
21
507.128652
0
LINE
8
boundary
62
5
39
2
10
65.885303
20
507.128652
11
64.757822
21
509.109422
0
LINE
8
boundary
62
5
39
2
10
64.757822
20
509.109422
11
57.647151
21
509.259422
0
LINE
8
boundary
62
5
39
2
10
57.647151
20
509.259422
11
57.647151
21
512.005422
0
LINE
8
boundary
62
5
39
2
10
57.647151
20
512.005422
11
63.001389
21
512.005422
0
LINE
8
boundary
62
5
39
2
10
63.001389
20
512.005422
11
61.870255
21
514.132651
0
LINE
8
boundary
62
5
39
2
10
61.870255
20
514.132651
11
61.105353
21
515.456317
0
LINE
8
boundary
62
5
39
2
10
61.105353
20
515.456317
11
59.431352
21
518.315994
0
LINE
8
boundary
62
5
39
2
10
59.431352
20
518.315994
11
58.578592
21
519.773431
0
LINE
8
boundary
62
5
39
2
10
58.578592
20
519.773431
11
56.917690
21
522.570648
0
LINE
8
boundary
62
5
39
2
10
56.917690
20
522.570648
11
56.194172
21
523.791028
0
LINE
8
boundary
62
5
39
2
10
56.194172
20
523.791028
11
54.326776
21
526.889397
0
LINE
8
boundary
62
5
39
2
10
54.326776
20
526.889397
11
53.928027
21
527.552456
0
LINE
8
boundary
62
5
39
2
10
53.928027
20
527.552456
11
53.634606
21
528.031583
0
LINE
8
boundary
62
5
39
2
10
53.634606
20
528.031583
11
45.953185
21
528.181582
0
LINE
8
boundary
62
5
39
2
10
45.953185
20
528.181582
11
45.953185
21
530.927582
0
LINE
8
boundary
62
5
39
2
10
45.953185
20
530.927582
11
51.758420
21
530.927583
0
LINE
8
boundary
62
5
39
2
10
51.758420
20
530.927583
11
49.738083
21
534.331687
0
LINE
8
boundary
62
5
39
2
10
49.738083
20
534.331687
11
48.860652
21
535.710409
0
LINE
8
boundary
62
5
39
2
10
48.860652
20
535.710409
11
47.773330
21
537.419624
0
LINE
8
boundary
62
5
39
2
10
47.773330
20
537.419624
11
45.962197
21
540.207074
0
LINE
8
boundary
62
5
39
2
10
45.962197
20
540.207074
11
44.056274
21
543.071265
0
LINE
8
boundary
62
5
39
2
10
44.056274
20
543.071265
11
42.895067
21
544.775148
0
LINE
8
boundary
62
5
39
2
10
42.895067
20
544.775148
11
42.496212
21
545.361122
0
LINE
8
boundary
62
5
39
2
10
42.496212
20
545.361122
11
41.520076
21
546.770022
0
LINE
8
boundary
62
5
39
2
10
41.520076
20
546.770022
11
33.334816
21
547.103743
0
LINE
8
boundary
62
5
39
2
10
33.334816
20
547.103743
11
33.334816
21
549.849743
0
LINE
8
boundary
62
5
39
2
10
33.334816
20
549.849743
11
39.203216
21
549.849743
0
LINE
8
boundary
62
5
39
2
10
39.203216
20
549.849743
11
38.236738
21
551.335603
0
LINE
8
boundary
62
5
39
2
10
38.236738
20
551.335603
11
37.912702
21
551.769709
0
LINE
8
boundary
62
5
39
2
10
37.912702
20
551.769709
11
36.938373
21
553.063194
0
LINE
8
boundary
62
5
39
2
10
36.938373
20
553.063194
11
36.104641
21
554.152436
0
LINE
8
boundary
62
5
39
2
10
36.104641
20
554.152436
11
35.446067
21
555.005378
0
LINE
8
boundary
62
5
39
2
10
35.446067
20
555.005378
11
34.746042
21
555.891151
0
LINE
8
boundary
62
5
39
2
10
34.746042
20
555.891151
11
34.205214
21
556.565407
0
LINE
8
boundary
62
5
39
2
10
34.205214
20
556.565407
11
33.657119
21
557.247840
0
LINE
8
boundary
62
5
39
2
10
33.657119
20
557.247840
11
32.978014
21
558.081183
0
LINE
8
boundary
62
5
39
2
10
32.978014
20
558.081183
11
32.570539
21
558.571512
0
LINE
8
boundary
62
5
39
2
10
32.570539
20
558.571512
11
32.198851
21
559.012822
0
LINE
8
boundary
62
5
39
2
10
32.198851
20
559.012822
11
31.492509
21
559.848792
0
LINE
8
boundary
62
5
39
2
10
31.492509
20
559.848792
11
30.746849
21
560.719832
0
LINE
8
boundary
62
5
39
2
10
30.746849
20
560.719832
11
30.056356
21
561.503718
0
LINE
8
boundary
62
5
39
2
10
30.056356
20
561.503718
11
29.344768
21
562.302893
0
LINE
8
boundary
62
5
39
2
10
29.344768
20
562.302893
11
28.702394
21
563.016193
0
LINE
8
boundary
62
5
39
2
10
28.702394
20
563.016193
11
28.276845
21
563.476815
0
LINE
8
boundary
62
5
39
2
10
28.276845
20
563.476815
11
27.743279
21
564.048659
0
LINE
8
boundary
62
5
39
2
10
27.743279
20
564.048659
11
27.215660
21
564.610265
0
LINE
8
boundary
62
5
39
2
10
27.215660
20
564.610265
11
26.807054
21
565.041108
0
LINE
8
boundary
62
5
39
2
10
26.807054
20
565.041108
11
26.162340
21
565.701710
0
LINE
8
boundary
62
5
39
2
10
26.162340
20
565.701710
11
19.446745
21
566.025904
0
LINE
8
boundary
62
5
39
2
10
19.446745
20
566.025904
11
19.446745
21
568.771904
0
LINE
8
boundary
62
5
39
2
10
19.446745
20
568.771904
11
22.858430
21
568.771904
0
LINE
8
boundary
62
5
39
2
10
22.858430
20
568.771904
11
22.382249
21
569.373234
0
LINE
8
boundary
62
5
39
2
10
22.382249
20
569.373234
11
21.817238
21
569.890920
0
LINE
8
boundary
62
5
39
2
10
21.817238
20
569.890920
11
21.149953
21
570.481331
0
LINE
8
boundary
62
5
39
2
10
21.149953
20
570.481331
11
20.710112
21
570.870047
0
LINE
8
boundary
62
5
39
2
10
20.710112
20
570.870047
11
19.641491
21
571.786518
0
LINE
8
boundary
62
5
39
2
10
19.641491
20
571.786518
11
19.097893
21
572.238506
0
LINE
8
boundary
62
5
39
2
10
19.097893
20
572.238506
11
18.622038
21
572.629104
0
LINE
8
boundary
62
5
39
2
10
18.622038
20
572.629104
11
17.948545
21
573.164188
0
LINE
8
boundary
62
5
39
2
10
17.948545
20
573.164188
11
17.181320
21
573.762685
0
LINE
8
boundary
62
5
39
2
10
17.181320
20
573.762685
11
16.716554
21
574.122393
0
LINE
8
boundary
62
5
39
2
10
16.716554
20
574.122393
11
15.818476
21
574.793928
0
LINE
8
boundary
62
5
39
2
10
15.818476
20
574.793928
11
14.956871
21
575.418484
0
LINE
8
boundary
62
5
39
2
10
14.956871
20
575.418484
11
14.247220
21
575.909823
0
LINE
8
boundary
62
5
39
2
10
14.247220
20
575.909823
11
13.558862
21
576.373631
0
LINE
8
boundary
62
5
39
2
10
13.558862
20
576.373631
11
12.887250
21
576.814229
0
LINE
8
boundary
62
5
39
2
10
12.887250
20
576.814229
11
12.233657
21
577.231466
0
LINE
8
boundary
62
5
39
2
10
12.233657
20
577.231466
11
11.599394
21
577.625179
0
LINE
8
boundary
62
5
39
2
10
11.599394
20
577.625179
11
10.985787
21
577.995286
0
LINE
8
boundary
62
5
39
2
10
10.985787
20
577.995286
11
10.394225
21
578.341728
0
LINE
8
boundary
62
5
39
2
10
10.394225
20
578.341728
11
9.826085
21
578.664570
0
LINE
8
boundary
62
5
39
2
10
9.826085
20
578.664570
11
9.282804
21
578.963868
0
LINE
8
boundary
62
5
39
2
10
9.282804
20
578.963868
11
8.713595
21
579.263744
0
LINE
8
boundary
62
5
39
2
10
8.713595
20
579.263744
11
8.176116
21
579.537303
0
LINE
8
boundary
62
5
39
2
10
8.176116
20
579.537303
11
7.607165
21
579.776251
0
LINE
8
boundary
62
5
39
2
10
7.607165
20
579.776251
11
7.055248
21
579.895040
0
LINE
8
boundary
62
5
39
2
10
7.055248
20
579.895040
11
6.674385
21
579.554580
0
LINE
8
boundary
62
5
39
2
10
6.674385
20
579.554580
11
6.710321
21
579.038764
0
LINE
8
boundary
62
5
39
2
10
6.710321
20
579.038764
11
6.913401
21
578.307507
0
LINE
8
boundary
62
5
39
2
10
6.913401
20
578.307507
11
7.146189
21
577.700575
0
LINE
8
boundary
62
5
39
2
10
7.146189
20
577.700575
11
7.348007
21
577.217420
0
LINE
8
boundary
62
5
39
2
10
7.348007
20
577.217420
11
7.683825
21
576.497055
0
LINE
8
boundary
62
5
39
2
10
7.683825
20
576.497055
11
7.920530
21
576.005432
0
LINE
8
boundary
62
5
39
2
10
7.920530
20
576.005432
11
8.203228
21
575.442535
0
LINE
8
boundary
62
5
39
2
10
8.203228
20
575.442535
11
8.537653
21
574.799194
0
LINE
8
boundary
62
5
39
2
10
8.537653
20
574.799194
11
8.856867
21
574.195277
0
LINE
8
boundary
62
5
39
2
10
8.856867
20
574.195277
11
9.374440
21
573.248537
0
LINE
8
boundary
62
5
39
2
10
9.374440
20
573.248537
11
9.721010
21
572.623479
0
LINE
8
boundary
62
5
39
2
10
9.721010
20
572.623479
11
10.550153
21
571.167743
0
LINE
8
boundary
62
5
39
2
10
10.550153
20
571.167743
11
11.587891
21
569.404056
0
LINE
8
boundary
62
5
39
2
10
11.587891
20
569.404056
11
11.951136
21
568.798687
0
LINE
8
boundary
62
5
39
2
10
11.951136
20
568.798687
11
12.568548
21
567.771384
0
LINE
8
boundary
62
5
39
2
10
12.568548
20
567.771384
11
13.180788
21
566.768893
0
LINE
8
boundary
62
5
39
2
10
13.180788
20
566.768893
11
13.572111
21
566.129236
0
LINE
8
boundary
62
5
39
2
10
13.572111
20
566.129236
11
14.369306
21
564.844715
0
LINE
8
boundary
62
5
39
2
10
14.369306
20
564.844715
11
15.527056
21
563.001620
0
LINE
8
boundary
62
5
39
2
10
15.527056
20
563.001620
11
16.661542
21
561.221804
0
LINE
8
boundary
62
5
39
2
10
16.661542
20
561.221804
11
18.854543
21
557.843971
0
LINE
8
boundary
62
5
39
2
10
18.854543
20
557.843971
11
20.950772
21
554.677663
0
LINE
8
boundary
62
5
39
2
10
20.950772
20
554.677663
11
22.955029
21
551.694046
0
LINE
8
boundary
62
5
39
2
10
22.955029
20
551.694046
11
23.481190
21
550.913323
0
LINE
8
boundary
62
5
39
2
10
23.481190
20
550.913323
11
24.901703
21
548.826833
0
LINE
8
boundary
62
5
39
2
10
24.901703
20
548.826833
11
25.836932
21
547.455179
0
LINE
8
boundary
62
5
39
2
10
25.836932
20
547.455179
11
26.809080
21
546.039194
0
LINE
8
annotation
62
1
39
211
10
76.249265
20
473.349367
11
76.249265
21
474.626833
0
LINE
8
annotation
62
1
39
211
10
76.249265
20
474.626833
11
75.965268
21
474.342756
0
LINE
8
annotation
62
1
39
211
10
76.728275
20
473.632603
11
76.728275
21
473.632603
0
LINE
8
annotation
62
1
39
211
10
76.728275
20
473.632603
11
76.732855
21
473.581597
0
LINE
8
annotation
62
1
39
211
10
76.732855
20
473.581597
11
76.746056
21
473.533625
0
LINE
8
annotation
62
1
39
211
10
76.746056
20
473.533625
11
76.767070
21
473.489481
0
LINE
8
annotation
62
1
39
211
10
76.767070
20
473.489481
11
76.795088
21
473.449956
0
LINE
8
annotation
62
1
39
211
10
76.795088
20
473.449956
11
76.829303
21
473.415841
0
LINE
8
annotation
62
1
39
211
10
76.829303
20
473.415841
11
76.868904
21
473.387929
0
LINE
8
annotation
62
1
39
211
10
76.868904
20
473.387929
11
76.913086
21
473.367011
0
LINE
8
annotation
62
1
39
211
10
76.913086
20
473.367011
11
76.961037
21
473.353880
0
LINE
8
annotation
62
1
39
211
10
76.961037
20
473.353880
11
77.011952
21
473.349327
0
LINE
8
annotation
62
1
39
211
10
77.011952
20
473.349327
11
77.011952
21
473.349327
0
LINE
8
annotation
62
1
39
211
10
77.011952
20
473.349327
11
77.062866
21
473.353880
0
LINE
8
annotation
62
1
39
211
10
77.062866
20
473.353880
11
77.110818
21
473.367011
0
LINE
8
annotation
62
1
39
211
10
77.110818
20
473.367011
11
77.154999
21
473.387929
0
LINE
8
annotation
62
1
39
211
10
77.154999
20
473.387929
11
77.194601
21
473.415841
0
LINE
8
annotation
62
1
39
211
10
77.194601
20
473.415841
11
77.228815
21
473.449956
0
LINE
8
annotation
62
1
39
211
10
77.228815
20
473.449956
11
77.256834
21
473.489481
0
LINE
8
annotation
62
1
39
211
10
77.256834
20
473.489481
11
77.277847
21
473.533625
0
LINE
8
annotation
62
1
39
211
10
77.277847
20
473.533625
11
77.291049
21
473.581597
0
LINE
8
annotation
62
1
39
211
10
77.291049
20
473.581597
11
77.295629
21
473.632603
0
LINE
8
annotation
62
1
39
211
10
77.295629
20
473.632603
11
77.295629
21
473.773920
0
LINE
8
annotation
62
1
39
211
10
77.295629
20
473.773920
11
77.295629
21
473.773920
0
LINE
8
annotation
62
1
39
211
10
77.295629
20
473.773920
11
77.291051
21
473.824951
0
LINE
8
annotation
62
1
39
211
10
77.291051
20
473.824951
11
77.277857
21
473.872989
0
LINE
8
annotation
62
1
39
211
10
77.277857
20
473.872989
11
77.256851
21
473.917229
0
LINE
8
annotation
62
1
39
211
10
77.256851
20
473.917229
11
77.228842
21
473.956868
0
LINE
8
annotation
62
1
39
211
10
77.228842
20
473.956868
11
77.194634
21
473.991102
0
LINE
8
annotation
62
1
39
211
10
77.194634
20
473.991102
11
77.155035
21
474.019128
0
LINE
8
annotation
62
1
39
211
10
77.155035
20
474.019128
11
77.110851
21
474.040142
0
LINE
8
annotation
62
1
39
211
10
77.110851
20
474.040142
11
77.062887
21
474.053340
0
LINE
8
annotation
62
1
39
211
10
77.062887
20
474.053340
11
77.011952
21
474.057917
0
LINE
8
annotation
62
1
39
211
10
77.011952
20
474.057917
11
77.011952
21
474.057917
0
LINE
8
annotation
62
1
39
211
10
77.011952
20
474.057917
11
76.961016
21
474.053337
0
LINE
8
annotation
62
1
39
211
10
76.961016
20
474.053337
11
76.913053
21
474.040133
0
LINE
8
annotation
62
1
39
211
10
76.913053
20
474.040133
11
76.868869
21
474.019111
0
LINE
8
annotation
62
1
39
211
10
76.868869
20
474.019111
11
76.829270
21
473.991076
0
LINE
8
annotation
62
1
39
211
10
76.829270
20
473.991076
11
76.795062
21
473.956835
0
LINE
8
annotation
62
1
39
211
10
76.795062
20
473.956835
11
76.767052
21
473.917193
0
LINE
8
annotation
62
1
39
211
10
76.767052
20
473.917193
11
76.746047
21
473.872956
0
LINE
8
annotation
62
1
39
211
10
76.746047
20
473.872956
11
76.732853
21
473.824930
0
LINE
8
annotation
62
1
39
211
10
76.732853
20
473.824930
11
76.728275
21
473.773920
0
LINE
8
annotation
62
1
39
211
10
76.728275
20
473.773920
11
76.728275
21
473.632603
0
LINE
8
annotation
62
1
39
211
10
77.295629
20
474.341995
11
77.295629
21
474.341995
0
LINE
8
annotation
62
1
39
211
10
77.295629
20
474.341995
11
77.291051
21
474.392790
0
LINE
8
annotation
62
1
39
211
10
77.291051
20
474.392790
11
77.277857
21
474.440649
0
LINE
8
annotation
62
1
39
211
10
77.277857
20
474.440649
11
77.256851
21
474.484760
0
LINE
8
annotation
62
1
39
211
10
77.256851
20
474.484760
11
77.228842
21
474.524312
0
LINE
8
annotation
62
1
39
211
10
77.228842
20
474.524312
11
77.194634
21
474.558493
0
LINE
8
annotation
62
1
39
211
10
77.194634
20
474.558493
11
77.155035
21
474.586491
0
LINE
8
annotation
62
1
39
211
10
77.155035
20
474.586491
11
77.110851
21
474.607494
0
LINE
8
annotation
62
1
39
211
10
77.110851
20
474.607494
11
77.062887
21
474.620691
0
LINE
8
annotation
62
1
39
211
10
77.062887
20
474.620691
11
77.011952
21
474.625271
0
LINE
8
annotation
62
1
39
211
10
77.011952
20
474.625271
11
77.011952
21
474.625271
0
LINE
8
annotation
62
1
39
211
10
77.011952
20
474.625271
11
76.961016
21
474.620691
0
LINE
8
annotation
62
1
39
211
10
76.961016
20
474.620691
11
76.913053
21
474.607494
0
LINE
8
annotation
62
1
39
211
10
76.913053
20
474.607494
11
76.868869
21
474.586491
0
LINE
8
annotation
62
1
39
211
10
76.868869
20
474.586491
11
76.829270
21
474.558493
0
LINE
8
annotation
62
1
39
211
10
76.829270
20
474.558493
11
76.795062
21
474.524312
0
LINE
8
annotation
62
1
39
211
10
76.795062
20
474.524312
11
76.767052
21
474.484760
0
LINE
8
annotation
62
1
39
211
10
76.767052
20
474.484760
11
76.746047
21
474.440649
0
LINE
8
annotation
62
1
39
211
10
76.746047
20
474.440649
11
76.732853
21
474.392790
0
LINE
8
annotation
62
1
39
211
10
76.732853
20
474.392790
11
76.728275
21
474.341995
0
LINE
8
annotation
62
1
39
211
10
76.728275
20
474.341995
11
76.728275
21
474.341995
0
LINE
8
annotation
62
1
39
211
10
76.728275
20
474.341995
11
76.732855
21
474.290961
0
LINE
8
annotation
62
1
39
211
10
76.732855
20
474.290961
11
76.746056
21
474.242916
0
LINE
8
annotation
62
1
39
211
10
76.746056
20
474.242916
11
76.767070
21
474.198665
0
LINE
8
annotation
62
1
39
211
10
76.767070
20
474.198665
11
76.795088
21
474.159014
0
LINE
8
annotation
62
1
39
211
10
76.795088
20
474.159014
11
76.829303
21
474.124766
0
LINE
8
annotation
62
1
39
211
10
76.829303
20
474.124766
11
76.868904
21
474.096727
0
LINE
8
annotation
62
1
39
211
10
76.868904
20
474.096727
11
76.913086
21
474.075703
0
LINE
8
annotation
62
1
39
211
10
76.913086
20
474.075703
11
76.961037
21
474.062498
0
LINE
8
annotation
62
1
39
211
10
76.961037
20
474.062498
11
77.011952
21
474.057917
0
LINE
8
annotation
62
1
39
211
10
77.011952
20
474.057917
11
77.011952
21
474.057917
0
LINE
8
annotation
62
1
39
211
10
77.011952
20
474.057917
11
77.062866
21
474.062498
0
LINE
8
annotation
62
1
39
211
10
77.062866
20
474.062498
11
77.110818
21
474.075703
0
LINE
8
annotation
62
1
39
211
10
77.110818
20
474.075703
11
77.154999
21
474.096727
0
LINE
8
annotation
62
1
39
211
10
77.154999
20
474.096727
11
77.194601
21
474.124766
0
LINE
8
annotation
62
1
39
211
10
77.194601
20
474.124766
11
77.228815
21
474.159014
0
LINE
8
annotation
62
1
39
211
10
77.228815
20
474.159014
11
77.256834
21
474.198665
0
LINE
8
annotation
62
1
39
211
10
77.256834
20
474.198665
11
77.277847
21
474.242916
0
LINE
8
annotation
62
1
39
211
10
77.277847
20
474.242916
11
77.291049
21
474.290961
0
LINE
8
annotation
62
1
39
211
10
77.291049
20
474.290961
11
77.295629
21
474.341995
0
LINE
8
annotation
62
1
39
211
10
64.208757
20
490.412653
11
64.208757
21
493.007869
0
LINE
8
annotation
62
1
39
211
10
64.208757
20
493.007869
11
63.631807
21
492.430756
0
LINE
8
annotation
62
1
39
211
10
65.469624
20
490.412653
11
65.469624
21
490.412653
0
LINE
8
annotation
62
1
39
211
10
65.469624
20
490.412653
11
65.634428
21
490.474067
0
LINE
8
annotation
62
1
39
211
10
65.634428
20
490.474067
11
65.785698
21
490.557079
0
LINE
8
annotation
62
1
39
211
10
65.785698
20
490.557079
11
65.921871
21
490.659575
0
LINE
8
annotation
62
1
39
211
10
65.921871
20
490.659575
11
66.041383
21
490.779439
0
LINE
8
annotation
62
1
39
211
10
66.041383
20
490.779439
11
66.142670
21
490.914555
0
LINE
8
annotation
62
1
39
211
10
66.142670
20
490.914555
11
66.224171
21
491.062810
0
LINE
8
annotation
62
1
39
211
10
66.224171
20
491.062810
11
66.284320
21
491.222087
0
LINE
8
annotation
62
1
39
211
10
66.284320
20
491.222087
11
66.321557
21
491.390272
0
LINE
8
annotation
62
1
39
211
10
66.321557
20
491.390272
11
66.334316
21
491.565250
0
LINE
8
annotation
62
1
39
211
10
66.334316
20
491.565250
11
66.334316
21
492.430756
0
LINE
8
annotation
62
1
39
211
10
66.334316
20
492.430756
11
66.334316
21
492.430756
0
LINE
8
annotation
62
1
39
211
10
66.334316
20
492.430756
11
66.325039
21
492.534433
0
LINE
8
annotation
62
1
39
211
10
66.325039
20
492.534433
11
66.298287
21
492.632037
0
LINE
8
annotation
62
1
39
211
10
66.298287
20
492.632037
11
66.255684
21
492.721935
0
LINE
8
annotation
62
1
39
211
10
66.255684
20
492.721935
11
66.198851
21
492.802489
0
LINE
8
annotation
62
1
39
211
10
66.198851
20
492.802489
11
66.129411
21
492.872064
0
LINE
8
annotation
62
1
39
211
10
66.129411
20
492.872064
11
66.048985
21
492.929025
0
LINE
8
annotation
62
1
39
211
10
66.048985
20
492.929025
11
65.959196
21
492.971737
0
LINE
8
annotation
62
1
39
211
10
65.959196
20
492.971737
11
65.861666
21
492.998563
0
LINE
8
annotation
62
1
39
211
10
65.861666
20
492.998563
11
65.758018
21
493.007869
0
LINE
8
annotation
62
1
39
211
10
65.758018
20
493.007869
11
65.758018
21
493.007869
0
LINE
8
annotation
62
1
39
211
10
65.758018
20
493.007869
11
65.654583
21
492.998563
0
LINE
8
annotation
62
1
39
211
10
65.654583
20
492.998563
11
65.557167
21
492.971737
0
LINE
8
annotation
62
1
39
211
10
65.557167
20
492.971737
11
65.467412
21
492.929025
0
LINE
8
annotation
62
1
39
211
10
65.467412
20
492.929025
11
65.386959
21
492.872064
0
LINE
8
annotation
62
1
39
211
10
65.386959
20
492.872064
11
65.317452
21
492.802489
0
LINE
8
annotation
62
1
39
211
10
65.317452
20
492.802489
11
65.260532
21
492.721935
0
LINE
8
annotation
62
1
39
211
10
65.260532
20
492.721935
11
65.217842
21
492.632037
0
LINE
8
annotation
62
1
39
211
10
65.217842
20
492.632037
11
65.191023
21
492.534433
0
LINE
8
annotation
62
1
39
211
10
65.191023
20
492.534433
11
65.181719
21
492.430756
0
LINE
8
annotation
62
1
39
211
10
65.181719
20
492.430756
11
65.181719
21
492.142200
0
LINE
8
annotation
62
1
39
211
10
65.181719
20
492.142200
11
65.181719
21
492.142200
0
LINE
8
annotation
62
1
39
211
10
65.181719
20
492.142200
11
65.191023
21
492.038529
0
LINE
8
annotation
62
1
39
211
10
65.191023
20
492.038529
11
65.217842
21
491.940939
0
LINE
8
annotation
62
1
39
211
10
65.217842
20
491.940939
11
65.260532
21
491.851064
0
LINE
8
annotation
62
1
39
211
10
65.260532
20
491.851064
11
65.317452
21
491.770535
0
LINE
8
annotation
62
1
39
211
10
65.317452
20
491.770535
11
65.386959
21
491.700987
0
LINE
8
annotation
62
1
39
211
10
65.386959
20
491.700987
11
65.467412
21
491.644051
0
LINE
8
annotation
62
1
39
211
10
65.467412
20
491.644051
11
65.557167
21
491.601362
0
LINE
8
annotation
62
1
39
211
10
65.557167
20
491.601362
11
65.654583
21
491.574550
0
LINE
8
annotation
62
1
39
211
10
65.654583
20
491.574550
11
65.758018
21
491.565250
0
LINE
8
annotation
62
1
39
211
10
65.758018
20
491.565250
11
66.334316
21
491.565250
0
LINE
8
annotation
62
1
39
211
10
65.109702
20
490.088251
11
66.407310
21
490.088251
0
LINE
8
annotation
62
1
39
211
10
53.235146
20
509.417445
11
52.155963
21
509.417445
0
LINE
8
annotation
62
1
39
211
10
52.155963
20
509.417445
11
53.153163
21
511.022809
0
LINE
8
annotation
62
1
39
211
10
53.153163
20
511.022809
11
53.153163
21
511.022809
0
LINE
8
annotation
62
1
39
211
10
53.153163
20
511.022809
11
53.154355
21
511.024285
0
LINE
8
annotation
62
1
39
211
10
53.154355
20
511.024285
11
53.155499
21
511.025772
0
LINE
8
annotation
62
1
39
211
10
53.155499
20
511.025772
11
53.156600
21
511.027285
0
LINE
8
annotation
62
1
39
211
10
53.156600
20
511.027285
11
53.157668
21
511.028835
0
LINE
8
annotation
62
1
39
211
10
53.157668
20
511.028835
11
53.158710
21
511.030436
0
LINE
8
annotation
62
1
39
211
10
53.158710
20
511.030436
11
53.159733
21
511.032099
0
LINE
8
annotation
62
1
39
211
10
53.159733
20
511.032099
11
53.160744
21
511.033838
0
LINE
8
annotation
62
1
39
211
10
53.160744
20
511.033838
11
53.161752
21
511.035664
0
LINE
8
annotation
62
1
39
211
10
53.161752
20
511.035664
11
53.162764
21
511.037591
0
LINE
8
annotation
62
1
39
211
10
53.162764
20
511.037591
11
53.162764
21
511.037591
0
LINE
8
annotation
62
1
39
211
10
53.162764
20
511.037591
11
53.203938
21
511.125995
0
LINE
8
annotation
62
1
39
211
10
53.203938
20
511.125995
11
53.227991
21
511.217634
0
LINE
8
annotation
62
1
39
211
10
53.227991
20
511.217634
11
53.235513
21
511.310437
0
LINE
8
annotation
62
1
39
211
10
53.235513
20
511.310437
11
53.227093
21
511.402333
0
LINE
8
annotation
62
1
39
211
10
53.227093
20
511.402333
11
53.203320
21
511.491252
0
LINE
8
annotation
62
1
39
211
10
53.203320
20
511.491252
11
53.164784
21
511.575122
0
LINE
8
annotation
62
1
39
211
10
53.164784
20
511.575122
11
53.112075
21
511.651874
0
LINE
8
annotation
62
1
39
211
10
53.112075
20
511.651874
11
53.045781
21
511.719436
0
LINE
8
annotation
62
1
39
211
10
53.045781
20
511.719436
11
52.966493
21
511.775738
0
LINE
8
annotation
62
1
39
211
10
52.966493
20
511.775738
11
52.966493
21
511.775738
0
LINE
8
annotation
62
1
39
211
10
52.966493
20
511.775738
11
52.877843
21
511.816327
0
LINE
8
annotation
62
1
39
211
10
52.877843
20
511.816327
11
52.786063
21
511.840010
0
LINE
8
annotation
62
1
39
211
10
52.786063
20
511.840010
11
52.693207
21
511.847319
0
LINE
8
annotation
62
1
39
211
10
52.693207
20
511.847319
11
52.601324
21
511.838788
0
LINE
8
annotation
62
1
39
211
10
52.601324
20
511.838788
11
52.512469
21
511.814949
0
LINE
8
annotation
62
1
39
211
10
52.512469
20
511.814949
11
52.428691
21
511.776336
0
LINE
8
annotation
62
1
39
211
10
52.428691
20
511.776336
11
52.352043
21
511.723482
0
LINE
8
annotation
62
1
39
211
10
52.352043
20
511.723482
11
52.284577
21
511.656920
0
LINE
8
annotation
62
1
39
211
10
52.284577
20
511.656920
11
52.228345
21
511.577182
0
LINE
8
annotation
62
1
39
211
10
52.228345
20
511.577182
11
52.157487
21
511.441256
0
LINE
8
annotation
62
1
39
211
10
54.536856
20
509.449516
11
54.536856
21
509.449516
0
LINE
8
annotation
62
1
39
211
10
54.536856
20
509.449516
11
54.593330
21
509.428405
0
LINE
8
annotation
62
1
39
211
10
54.593330
20
509.428405
11
54.651249
21
509.417916
0
LINE
8
annotation
62
1
39
211
10
54.651249
20
509.417916
11
54.709304
21
509.417623
0
LINE
8
annotation
62
1
39
211
10
54.709304
20
509.417623
11
54.766184
21
509.427097
0
LINE
8
annotation
62
1
39
211
10
54.766184
20
509.427097
11
54.820581
21
509.445911
0
LINE
8
annotation
62
1
39
211
10
54.820581
20
509.445911
11
54.871186
21
509.473638
0
LINE
8
annotation
62
1
39
211
10
54.871186
20
509.473638
11
54.916689
21
509.509849
0
LINE
8
annotation
62
1
39
211
10
54.916689
20
509.509849
11
54.955780
21
509.554117
0
LINE
8
annotation
62
1
39
211
10
54.955780
20
509.554117
11
54.987150
21
509.606014
0
LINE
8
annotation
62
1
39
211
10
54.987150
20
509.606014
11
54.987150
21
509.606014
0
LINE
8
annotation
62
1
39
211
10
54.987150
20
509.606014
11
55.080748
21
509.825103
0
LINE
8
annotation
62
1
39
211
10
55.080748
20
509.825103
11
55.150946
21
510.050532
0
LINE
8
annotation
62
1
39
211
10
55.150946
20
510.050532
11
55.197745
21
510.280505
0
LINE
8
annotation
62
1
39
211
10
55.197745
20
510.280505
11
55.221144
21
510.513225
0
LINE
8
annotation
62
1
39
211
10
55.221144
20
510.513225
11
55.221144
21
510.746894
0
LINE
8
annotation
62
1
39
211
10
55.221144
20
510.746894
11
55.197745
21
510.979716
0
LINE
8
annotation
62
1
39
211
10
55.197745
20
510.979716
11
55.150946
21
511.209892
0
LINE
8
annotation
62
1
39
211
10
55.150946
20
511.209892
11
55.080748
21
511.435626
0
LINE
8
annotation
62
1
39
211
10
55.080748
20
511.435626
11
54.987150
21
511.655121
0
LINE
8
annotation
62
1
39
211
10
54.987150
20
511.655121
11
54.987150
21
511.655121
0
LINE
8
annotation
62
1
39
211
10
54.987150
20
511.655121
11
54.975247
21
511.677272
0
LINE
8
annotation
62
1
39
211
10
54.975247
20
511.677272
11
54.961753
21
511.698451
0
LINE
8
annotation
62
1
39
211
10
54.961753
20
511.698451
11
54.946768
21
511.718552
0
LINE
8
annotation
62
1
39
211
10
54.946768
20
511.718552
11
54.930396
21
511.737472
0
LINE
8
annotation
62
1
39
211
10
54.930396
20
511.737472
11
54.912736
21
511.755106
0
LINE
8
annotation
62
1
39
211
10
54.912736
20
511.755106
11
54.893891
21
511.771350
0
LINE
8
annotation
62
1
39
211
10
54.893891
20
511.771350
11
54.873963
21
511.786101
0
LINE
8
annotation
62
1
39
211
10
54.873963
20
511.786101
11
54.853052
21
511.799254
0
LINE
8
annotation
62
1
39
211
10
54.853052
20
511.799254
11
54.831261
21
511.810705
0
LINE
8
annotation
62
1
39
211
10
54.831261
20
511.810705
11
54.831261
21
511.810705
0
LINE
8
annotation
62
1
39
211
10
54.831261
20
511.810705
11
54.774339
21
511.832274
0
LINE
8
annotation
62
1
39
211
10
54.774339
20
511.832274
11
54.716081
21
511.843121
0
LINE
8
annotation
62
1
39
211
10
54.716081
20
511.843121
11
54.657781
21
511.843676
0
LINE
8
annotation
62
1
39
211
10
54.657781
20
511.843676
11
54.600734
21
511.834370
0
LINE
8
annotation
62
1
39
211
10
54.600734
20
511.834370
11
54.546235
21
511.815632
0
LINE
8
annotation
62
1
39
211
10
54.546235
20
511.815632
11
54.495577
21
511.787892
0
LINE
8
annotation
62
1
39
211
10
54.495577
20
511.787892
11
54.450055
21
511.751582
0
LINE
8
annotation
62
1
39
211
10
54.450055
20
511.751582
11
54.410963
21
511.707130
0
LINE
8
annotation
62
1
39
211
10
54.410963
20
511.707130
11
54.379596
21
511.654968
0
LINE
8
annotation
62
1
39
211
10
54.379596
20
511.654968
11
54.379596
21
511.654968
0
LINE
8
annotation
62
1
39
211
10
54.379596
20
511.654968
11
54.286449
21
511.435925
0
LINE
8
annotation
62
1
39
211
10
54.286449
20
511.435925
11
54.216590
21
511.210530
0
LINE
8
annotation
62
1
39
211
10
54.216590
20
511.210530
11
54.170017
21
510.980579
0
LINE
8
annotation
62
1
39
211
10
54.170017
20
510.980579
11
54.146730
21
510.747871
0
LINE
8
annotation
62
1
39
211
10
54.146730
20
510.747871
11
54.146730
21
510.514201
0
LINE
8
annotation
62
1
39
211
10
54.146730
20
510.514201
11
54.170017
21
510.281369
0
LINE
8
annotation
62
1
39
211
10
54.170017
20
510.281369
11
54.216590
21
510.051170
0
LINE
8
annotation
62
1
39
211
10
54.216590
20
510.051170
11
54.286449
21
509.825402
0
LINE
8
annotation
62
1
39
211
10
54.286449
20
509.825402
11
54.379596
21
509.605862
0
LINE
8
annotation
62
1
39
211
10
54.379596
20
509.605862
11
54.379596
21
509.605862
0
LINE
8
annotation
62
1
39
211
10
54.379596
20
509.605862
11
54.391455
21
509.583755
0
LINE
8
annotation
62
1
39
211
10
54.391455
20
509.583755
11
54.404850
21
509.562682
0
LINE
8
annotation
62
1
39
211
10
54.404850
20
509.562682
11
54.419723
21
509.542707
0
LINE
8
annotation
62
1
39
211
10
54.419723
20
509.542707
11
54.436019
21
509.523896
0
LINE
8
annotation
62
1
39
211
10
54.436019
20
509.523896
11
54.453680
21
509.506311
0
LINE
8
annotation
62
1
39
211
10
54.453680
20
509.506311
11
54.472651
21
509.490016
0
LINE
8
annotation
62
1
39
211
10
54.472651
20
509.490016
11
54.492875
21
509.475077
0
LINE
8
annotation
62
1
39
211
10
54.492875
20
509.475077
11
54.514295
21
509.461555
0
LINE
8
annotation
62
1
39
211
10
54.514295
20
509.461555
11
54.536856
21
509.449516
0
LINE
8
annotation
62
1
39
211
10
41.597208
20
528.020880
11
40.234922
21
528.020880
0
LINE
8
annotation
62
1
39
211
10
40.234922
20
528.020880
11
41.493719
21
530.047381
0
LINE
8
annotation
62
1
39
211
10
41.493719
20
530.047381
11
41.493719
21
530.047381
0
LINE
8
annotation
62
1
39
211
10
41.493719
20
530.047381
11
41.495224
21
530.049243
0
LINE
8
annotation
62
1
39
211
10
41.495224
20
530.049243
11
41.496667
21
530.051121
0
LINE
8
annotation
62
1
39
211
10
41.496667
20
530.051121
11
41.498058
21
530.053031
0
LINE
8
annotation
62
1
39
211
10
41.498058
20
530.053031
11
41.499406
21
530.054988
0
LINE
8
annotation
62
1
39
211
10
41.499406
20
530.054988
11
41.500721
21
530.057008
0
LINE
8
annotation
62
1
39
211
10
41.500721
20
530.057008
11
41.502012
21
530.059108
0
LINE
8
annotation
62
1
39
211
10
41.502012
20
530.059108
11
41.503289
21
530.061303
0
LINE
8
annotation
62
1
39
211
10
41.503289
20
530.061303
11
41.504561
21
530.063608
0
LINE
8
annotation
62
1
39
211
10
41.504561
20
530.063608
11
41.505838
21
530.066040
0
LINE
8
annotation
62
1
39
211
10
41.505838
20
530.066040
11
41.505838
21
530.066040
0
LINE
8
annotation
62
1
39
211
10
41.505838
20
530.066040
11
41.557813
21
530.177636
0
LINE
8
annotation
62
1
39
211
10
41.557813
20
530.177636
11
41.588177
21
530.293314
0
LINE
8
annotation
62
1
39
211
10
41.588177
20
530.293314
11
41.597672
21
530.410462
0
LINE
8
annotation
62
1
39
211
10
41.597672
20
530.410462
11
41.587042
21
530.526465
0
LINE
8
annotation
62
1
39
211
10
41.587042
20
530.526465
11
41.557033
21
530.638710
0
LINE
8
annotation
62
1
39
211
10
41.557033
20
530.638710
11
41.508389
21
530.744583
0
LINE
8
annotation
62
1
39
211
10
41.508389
20
530.744583
11
41.441852
21
530.841469
0
LINE
8
annotation
62
1
39
211
10
41.441852
20
530.841469
11
41.358168
21
530.926755
0
LINE
8
annotation
62
1
39
211
10
41.358168
20
530.926755
11
41.258080
21
530.997827
0
LINE
8
annotation
62
1
39
211
10
41.258080
20
530.997827
11
41.258080
21
530.997827
0
LINE
8
annotation
62
1
39
211
10
41.258080
20
530.997827
11
41.146174
21
531.049064
0
LINE
8
annotation
62
1
39
211
10
41.146174
20
531.049064
11
41.030318
21
531.078959
0
LINE
8
annotation
62
1
39
211
10
41.030318
20
531.078959
11
40.913102
21
531.088185
0
LINE
8
annotation
62
1
39
211
10
40.913102
20
531.088185
11
40.797116
21
531.077416
0
LINE
8
annotation
62
1
39
211
10
40.797116
20
531.077416
11
40.684950
21
531.047324
0
LINE
8
annotation
62
1
39
211
10
40.684950
20
531.047324
11
40.579195
21
530.998582
0
LINE
8
annotation
62
1
39
211
10
40.579195
20
530.998582
11
40.482440
21
530.931862
0
LINE
8
annotation
62
1
39
211
10
40.482440
20
530.931862
11
40.397276
21
530.847838
0
LINE
8
annotation
62
1
39
211
10
40.397276
20
530.847838
11
40.326293
21
530.747183
0
LINE
8
annotation
62
1
39
211
10
40.326293
20
530.747183
11
40.236846
21
530.575599
0
LINE
8
annotation
62
1
39
211
10
43.429707
20
528.020905
11
43.429707
21
531.088260
0
LINE
8
annotation
62
1
39
211
10
43.429707
20
531.088260
11
42.747795
21
530.406156
0
LINE
8
annotation
62
1
39
211
10
28.352822
20
547.103033
11
27.132646
21
547.103033
0
LINE
8
annotation
62
1
39
211
10
27.132646
20
547.103033
11
28.260129
21
548.918135
0
LINE
8
annotation
62
1
39
211
10
28.260129
20
548.918135
11
28.260129
21
548.918135
0
LINE
8
annotation
62
1
39
211
10
28.260129
20
548.918135
11
28.261477
21
548.919802
0
LINE
8
annotation
62
1
39
211
10
28.261477
20
548.919802
11
28.262769
21
548.921484
0
LINE
8
annotation
62
1
39
211
10
28.262769
20
548.921484
11
28.264015
21
548.923195
0
LINE
8
annotation
62
1
39
211
10
28.264015
20
548.923195
11
28.265222
21
548.924948
0
LINE
8
annotation
62
1
39
211
10
28.265222
20
548.924948
11
28.266400
21
548.926757
0
LINE
8
annotation
62
1
39
211
10
28.266400
20
548.926757
11
28.267556
21
548.928638
0
LINE
8
annotation
62
1
39
211
10
28.267556
20
548.928638
11
28.268700
21
548.930604
0
LINE
8
annotation
62
1
39
211
10
28.268700
20
548.930604
11
28.269839
21
548.932669
0
LINE
8
annotation
62
1
39
211
10
28.269839
20
548.932669
11
28.270983
21
548.934847
0
LINE
8
annotation
62
1
39
211
10
28.270983
20
548.934847
11
28.270983
21
548.934847
0
LINE
8
annotation
62
1
39
211
10
28.270983
20
548.934847
11
28.317537
21
549.034801
0
LINE
8
annotation
62
1
39
211
10
28.317537
20
549.034801
11
28.344732
21
549.138413
0
LINE
8
annotation
62
1
39
211
10
28.344732
20
549.138413
11
28.353237
21
549.243340
0
LINE
8
annotation
62
1
39
211
10
28.353237
20
549.243340
11
28.343717
21
549.347242
0
LINE
8
annotation
62
1
39
211
10
28.343717
20
549.347242
11
28.316838
21
549.447778
0
LINE
8
annotation
62
1
39
211
10
28.316838
20
549.447778
11
28.273268
21
549.542606
0
LINE
8
annotation
62
1
39
211
10
28.273268
20
549.542606
11
28.213672
21
549.629385
0
LINE
8
annotation
62
1
39
211
10
28.213672
20
549.629385
11
28.138717
21
549.705774
0
LINE
8
annotation
62
1
39
211
10
28.138717
20
549.705774
11
28.049070
21
549.769432
0
LINE
8
annotation
62
1
39
211
10
28.049070
20
549.769432
11
28.049070
21
549.769432
0
LINE
8
annotation
62
1
39
211
10
28.049070
20
549.769432
11
27.948838
21
549.815324
0
LINE
8
annotation
62
1
39
211
10
27.948838
20
549.815324
11
27.845068
21
549.842101
0
LINE
8
annotation
62
1
39
211
10
27.845068
20
549.842101
11
27.740080
21
549.850365
0
LINE
8
annotation
62
1
39
211
10
27.740080
20
549.850365
11
27.636193
21
549.840719
0
LINE
8
annotation
62
1
39
211
10
27.636193
20
549.840719
11
27.535728
21
549.813766
0
LINE
8
annotation
62
1
39
211
10
27.535728
20
549.813766
11
27.441005
21
549.770108
0
LINE
8
annotation
62
1
39
211
10
27.441005
20
549.770108
11
27.354344
21
549.710349
0
LINE
8
annotation
62
1
39
211
10
27.354344
20
549.710349
11
27.278064
21
549.635090
0
LINE
8
annotation
62
1
39
211
10
27.278064
20
549.635090
11
27.214485
21
549.544935
0
LINE
8
annotation
62
1
39
211
10
27.214485
20
549.544935
11
27.134369
21
549.391250
0
LINE
8
annotation
62
1
39
211
10
30.603679
20
547.103033
11
29.383503
21
547.103033
0
LINE
8
annotation
62
1
39
211
10
29.383503
20
547.103033
11
30.510985
21
548.918135
0
LINE
8
annotation
62
1
39
211
10
30.510985
20
548.918135
11
30.510985
21
548.918135
0
LINE
8
annotation
62
1
39
211
10
30.510985
20
548.918135
11
30.512333
21
548.919802
0
LINE
8
annotation
62
1
39
211
10
30.512333
20
548.919802
11
30.513626
21
548.921484
0
LINE
8
annotation
62
1
39
211
10
30.513626
20
548.921484
11
30.514872
21
548.923195
0
LINE
8
annotation
62
1
39
211
10
30.514872
20
548.923195
11
30.516079
21
548.924948
0
LINE
8
annotation
62
1
39
211
10
30.516079
20
548.924948
11
30.517257
21
548.926757
0
LINE
8
annotation
62
1
39
211
10
30.517257
20
548.926757
11
30.518413
21
548.928638
0
LINE
8
annotation
62
1
39
211
10
30.518413
20
548.928638
11
30.519557
21
548.930604
0
LINE
8
annotation
62
1
39
211
10
30.519557
20
548.930604
11
30.520696
21
548.932669
0
LINE
8
annotation
62
1
39
211
10
30.520696
20
548.932669
11
30.521840
21
548.934847
0
LINE
8
annotation
62
1
39
211
10
30.521840
20
548.934847
11
30.521840
21
548.934847
0
LINE
8
annotation
62
1
39
211
10
30.521840
20
548.934847
11
30.568393
21
549.034801
0
LINE
8
annotation
62
1
39
211
10
30.568393
20
549.034801
11
30.595589
21
549.138413
0
LINE
8
annotation
62
1
39
211
10
30.595589
20
549.138413
11
30.604094
21
549.243340
0
LINE
8
annotation
62
1
39
211
10
30.604094
20
549.243340
11
30.594573
21
549.347242
0
LINE
8
annotation
62
1
39
211
10
30.594573
20
549.347242
11
30.567695
21
549.447778
0
LINE
8
annotation
62
1
39
211
10
30.567695
20
549.447778
11
30.524124
21
549.542606
0
LINE
8
annotation
62
1
39
211
10
30.524124
20
549.542606
11
30.464529
21
549.629385
0
LINE
8
annotation
62
1
39
211
10
30.464529
20
549.629385
11
30.389574
21
549.705774
0
LINE
8
annotation
62
1
39
211
10
30.389574
20
549.705774
11
30.299927
21
549.769432
0
LINE
8
annotation
62
1
39
211
10
30.299927
20
549.769432
11
30.299927
21
549.769432
0
LINE
8
annotation
62
1
39
211
10
30.299927
20
549.769432
11
30.199695
21
549.815324
0
LINE
8
annotation
62
1
39
211
10
30.199695
20
549.815324
11
30.095925
21
549.842101
0
LINE
8
annotation
62
1
39
211
10
30.095925
20
549.842101
11
29.990936
21
549.850365
0
LINE
8
annotation
62
1
39
211
10
29.990936
20
549.850365
11
29.887050
21
549.840719
0
LINE
8
annotation
62
1
39
211
10
29.887050
20
549.840719
11
29.786585
21
549.813766
0
LINE
8
annotation
62
1
39
211
10
29.786585
20
549.813766
11
29.691862
21
549.770108
0
LINE
8
annotation
62
1
39
211
10
29.691862
20
549.770108
11
29.605201
21
549.710349
0
LINE
8
annotation
62
1
39
211
10
29.605201
20
549.710349
11
29.528921
21
549.635090
0
LINE
8
annotation
62
1
39
211
10
29.528921
20
549.635090
11
29.465342
21
549.544935
0
LINE
8
annotation
62
1
39
211
10
29.465342
20
549.544935
11
29.385226
21
549.391250
0
LINE
8
annotation
62
1
39
211
10
15.330380
20
566.269953
11
14.327607
21
566.269953
0
LINE
8
annotation
62
1
39
211
10
14.327607
20
566.269953
11
15.254202
21
567.761651
0
LINE
8
annotation
62
1
39
211
10
15.254202
20
567.761651
11
15.254202
21
567.761651
0
LINE
8
annotation
62
1
39
211
10
15.254202
20
567.761651
11
15.255309
21
567.763022
0
LINE
8
annotation
62
1
39
211
10
15.255309
20
567.763022
11
15.256372
21
567.764404
0
LINE
8
annotation
62
1
39
211
10
15.256372
20
567.764404
11
15.257395
21
567.765810
0
LINE
8
annotation
62
1
39
211
10
15.257395
20
567.765810
11
15.258388
21
567.767250
0
LINE
8
annotation
62
1
39
211
10
15.258388
20
567.767250
11
15.259356
21
567.768738
0
LINE
8
annotation
62
1
39
211
10
15.259356
20
567.768738
11
15.260306
21
567.770283
0
LINE
8
annotation
62
1
39
211
10
15.260306
20
567.770283
11
15.261246
21
567.771899
0
LINE
8
annotation
62
1
39
211
10
15.261246
20
567.771899
11
15.262182
21
567.773596
0
LINE
8
annotation
62
1
39
211
10
15.262182
20
567.773596
11
15.263122
21
567.775386
0
LINE
8
annotation
62
1
39
211
10
15.263122
20
567.775386
11
15.263122
21
567.775386
0
LINE
8
annotation
62
1
39
211
10
15.263122
20
567.775386
11
15.301381
21
567.857531
0
LINE
8
annotation
62
1
39
211
10
15.301381
20
567.857531
11
15.323731
21
567.942681
0
LINE
8
annotation
62
1
39
211
10
15.323731
20
567.942681
11
15.330720
21
568.028913
0
LINE
8
annotation
62
1
39
211
10
15.330720
20
568.028913
11
15.322896
21
568.114303
0
LINE
8
annotation
62
1
39
211
10
15.322896
20
568.114303
11
15.300807
21
568.196926
0
LINE
8
annotation
62
1
39
211
10
15.300807
20
568.196926
11
15.265000
21
568.274858
0
LINE
8
annotation
62
1
39
211
10
15.265000
20
568.274858
11
15.216022
21
568.346175
0
LINE
8
annotation
62
1
39
211
10
15.216022
20
568.346175
11
15.154423
21
568.408954
0
LINE
8
annotation
62
1
39
211
10
15.154423
20
568.408954
11
15.080748
21
568.461270
0
LINE
8
annotation
62
1
39
211
10
15.080748
20
568.461270
11
15.080748
21
568.461270
0
LINE
8
annotation
62
1
39
211
10
15.080748
20
568.461270
11
14.998375
21
568.498985
0
LINE
8
annotation
62
1
39
211
10
14.998375
20
568.498985
11
14.913094
21
568.520991
0
LINE
8
annotation
62
1
39
211
10
14.913094
20
568.520991
11
14.826812
21
568.527783
0
LINE
8
annotation
62
1
39
211
10
14.826812
20
568.527783
11
14.741435
21
568.519855
0
LINE
8
annotation
62
1
39
211
10
14.741435
20
568.519855
11
14.658870
21
568.497705
0
LINE
8
annotation
62
1
39
211
10
14.658870
20
568.497705
11
14.581025
21
568.461826
0
LINE
8
annotation
62
1
39
211
10
14.581025
20
568.461826
11
14.509804
21
568.412714
0
LINE
8
annotation
62
1
39
211
10
14.509804
20
568.412714
11
14.447115
21
568.350864
0
LINE
8
annotation
62
1
39
211
10
14.447115
20
568.350864
11
14.394864
21
568.276772
0
LINE
8
annotation
62
1
39
211
10
14.394864
20
568.276772
11
14.329023
21
568.150470
0
LINE
8
annotation
62
1
39
211
10
16.177250
20
566.270042
11
16.678636
21
566.270042
0
LINE
8
annotation
62
1
39
211
10
16.678636
20
566.270042
11
16.678636
21
566.270042
0
LINE
8
annotation
62
1
39
211
10
16.678636
20
566.270042
11
16.768812
21
566.278131
0
LINE
8
annotation
62
1
39
211
10
16.768812
20
566.278131
11
16.853664
21
566.301445
0
LINE
8
annotation
62
1
39
211
10
16.853664
20
566.301445
11
16.931781
21
566.338553
0
LINE
8
annotation
62
1
39
211
10
16.931781
20
566.338553
11
17.001752
21
566.388023
0
LINE
8
annotation
62
1
39
211
10
17.001752
20
566.388023
11
17.062166
21
566.448424
0
LINE
8
annotation
62
1
39
211
10
17.062166
20
566.448424
11
17.111611
21
566.518325
0
LINE
8
annotation
62
1
39
211
10
17.111611
20
566.518325
11
17.148677
21
566.596296
0
LINE
8
annotation
62
1
39
211
10
17.148677
20
566.596296
11
17.171951
21
566.680905
0
LINE
8
annotation
62
1
39
211
10
17.171951
20
566.680905
11
17.180022
21
566.770720
0
LINE
8
annotation
62
1
39
211
10
17.180022
20
566.770720
11
17.180022
21
567.021767
0
LINE
8
annotation
62
1
39
211
10
17.180022
20
567.021767
11
17.180022
21
567.021767
0
LINE
8
annotation
62
1
39
211
10
17.180022
20
567.021767
11
17.171951
21
567.111546
0
LINE
8
annotation
62
1
39
211
10
17.171951
20
567.111546
11
17.148677
21
567.196134
0
LINE
8
annotation
62
1
39
211
10
17.148677
20
567.196134
11
17.111611
21
567.274099
0
LINE
8
annotation
62
1
39
211
10
17.111611
20
567.274099
11
17.062166
21
567.344005
0
LINE
8
annotation
62
1
39
211
10
17.062166
20
567.344005
11
17.001752
21
567.404418
0
LINE
8
annotation
62
1
39
211
10
17.001752
20
567.404418
11
16.931781
21
567.453903
0
LINE
8
annotation
62
1
39
211
10
16.931781
20
567.453903
11
16.853664
21
567.491026
0
LINE
8
annotation
62
1
39
211
10
16.853664
20
567.491026
11
16.768812
21
567.514352
0
LINE
8
annotation
62
1
39
211
10
16.768812
20
567.514352
11
16.678636
21
567.522446
0
LINE
8
annotation
62
1
39
211
10
16.678636
20
567.522446
11
16.427589
21
567.522446
0
LINE
8
annotation
62
1
39
211
10
16.427589
20
567.522446
11
16.678636
21
567.522446
0
LINE
8
annotation
62
1
39
211
10
16.678636
20
567.522446
11
16.678636
21
567.522446
0
LINE
8
annotation
62
1
39
211
10
16.678636
20
567.522446
11
16.768812
21
567.530542
0
LINE
8
annotation
62
1
39
211
10
16.768812
20
567.530542
11
16.853664
21
567.553881
0
LINE
8
annotation
62
1
39
211
10
16.853664
20
567.553881
11
16.931781
21
567.591040
0
LINE
8
annotation
62
1
39
211
10
16.931781
20
567.591040
11
17.001752
21
567.640597
0
LINE
8
annotation
62
1
39
211
10
17.001752
20
567.640597
11
17.062166
21
567.701129
0
LINE
8
annotation
62
1
39
211
10
17.062166
20
567.701129
11
17.111611
21
567.771211
0
LINE
8
annotation
62
1
39
211
10
17.111611
20
567.771211
11
17.148677
21
567.849423
0
LINE
8
annotation
62
1
39
211
10
17.148677
20
567.849423
11
17.171951
21
567.934340
0
LINE
8
annotation
62
1
39
211
10
17.171951
20
567.934340
11
17.180022
21
568.024540
0
LINE
8
annotation
62
1
39
211
10
17.180022
20
568.024540
11
17.180022
21
568.024540
0
LINE
8
annotation
62
1
39
211
10
17.180022
20
568.024540
11
17.171951
21
568.114318
0
LINE
8
annotation
62
1
39
211
10
17.171951
20
568.114318
11
17.148677
21
568.198907
0
LINE
8
annotation
62
1
39
211
10
17.148677
20
568.198907
11
17.111611
21
568.276872
0
LINE
8
annotation
62
1
39
211
10
17.111611
20
568.276872
11
17.062166
21
568.346778
0
LINE
8
annotation
62
1
39
211
10
17.062166
20
568.346778
11
17.001752
21
568.407191
0
LINE
8
annotation
62
1
39
211
10
17.001752
20
568.407191
11
16.931781
21
568.456676
0
LINE
8
annotation
62
1
39
211
10
16.931781
20
568.456676
11
16.853664
21
568.493798
0
LINE
8
annotation
62
1
39
211
10
16.853664
20
568.493798
11
16.768812
21
568.517124
0
LINE
8
annotation
62
1
39
211
10
16.768812
20
568.517124
11
16.678636
21
568.525218
0
LINE
8
annotation
62
1
39
211
10
16.678636
20
568.525218
11
16.177250
21
568.525218
0
LINE
8
annotation
62
1
39
211
10
39.947570
20
535.279488
11
38.853012
21
535.279488
0
LINE
8
annotation
62
1
39
211
10
38.853012
20
535.279488
11
39.947570
21
537.250780
0
LINE
8
annotation
62
1
39
211
10
39.947570
20
537.250780
11
38.853012
21
537.250780
0
LINE
8
annotation
62
1
39
211
10
41.764859
20
536.265134
11
40.686990
21
536.265134
0
LINE
8
annotation
62
1
39
211
10
42.942214
20
535.279488
11
42.942214
21
537.250780
0
LINE
8
annotation
62
1
39
211
10
42.942214
20
537.250780
11
42.503970
21
536.812413
0
LINE
8
boundary
62
5
39
2
10
133.346050
20
355.241822
11
132.682267
21
355.389728
0
LINE
8
boundary
62
5
39
2
10
132.682267
20
355.389728
11
131.565294
21
355.586712
0
LINE
8
boundary
62
5
39
2
10
131.565294
20
355.586712
11
130.528361
21
355.673545
0
LINE
8
boundary
62
5
39
2
10
130.528361
20
355.673545
11
129.566867
21
355.663840
0
LINE
8
boundary
62
5
39
2
10
129.566867
20
355.663840
11
128.677055
21
355.568640
0
LINE
8
boundary
62
5
39
2
10
128.677055
20
355.568640
11
127.855815
21
355.397104
0
LINE
8
boundary
62
5
39
2
10
127.855815
20
355.397104
11
127.100564
21
355.156929
0
LINE
8
boundary
62
5
39
2
10
127.100564
20
355.156929
11
126.615072
21
354.974004
0
LINE
8
boundary
62
5
39
2
10
126.615072
20
354.974004
11
125.873430
21
354.569311
0
LINE
8
boundary
62
5
39
2
10
125.873430
20
354.569311
11
125.256325
21
354.117487
0
LINE
8
boundary
62
5
39
2
10
125.256325
20
354.117487
11
124.720975
21
353.601474
0
LINE
8
boundary
62
5
39
2
10
124.720975
20
353.601474
11
124.283812
21
353.076166
0
LINE
8
boundary
62
5
39
2
10
124.283812
20
353.076166
11
123.895257
21
352.513001
0
LINE
8
boundary
62
5
39
2
10
123.895257
20
352.513001
11
123.551133
21
351.915906
0
LINE
8
boundary
62
5
39
2
10
123.551133
20
351.915906
11
123.251113
21
351.294534
0
LINE
8
boundary
62
5
39
2
10
123.251113
20
351.294534
11
123.003172
21
350.601158
0
LINE
8
boundary
62
5
39
2
10
123.003172
20
350.601158
11
122.791203
21
349.889558
0
LINE
8
boundary
62
5
39
2
10
122.791203
20
349.889558
11
122.609827
21
349.155301
0
LINE
8
boundary
62
5
39
2
10
122.609827
20
349.155301
11
122.458788
21
348.413375
0
LINE
8
boundary
62
5
39
2
10
122.458788
20
348.413375
11
122.350036
21
347.593164
0
LINE
8
boundary
62
5
39
2
10
122.350036
20
347.593164
11
122.267088
21
346.767001
0
LINE
8
boundary
62
5
39
2
10
122.267088
20
346.767001
11
122.213252
21
346.150926
0
LINE
8
boundary
62
5
39
2
10
122.213252
20
346.150926
11
122.184915
21
345.372314
0
LINE
8
boundary
62
5
39
2
10
122.184915
20
345.372314
11
122.170744
21
344.142565
0
LINE
8
boundary
62
5
39
2
10
122.170744
20
344.142565
11
122.169865
21
343.620407
0
LINE
8
boundary
62
5
39
2
10
122.169865
20
343.620407
11
122.217095
21
342.318958
0
LINE
8
boundary
62
5
39
2
10
122.217095
20
342.318958
11
122.283171
21
341.288734
0
LINE
8
boundary
62
5
39
2
10
122.283171
20
341.288734
11
122.362022
21
340.285642
0
LINE
8
boundary
62
5
39
2
10
122.362022
20
340.285642
11
122.450441
21
339.308458
0
LINE
8
boundary
62
5
39
2
10
122.450441
20
339.308458
11
122.575753
21
338.202853
0
LINE
8
boundary
62
5
39
2
10
122.575753
20
338.202853
11
122.709647
21
337.120415
0
LINE
8
boundary
62
5
39
2
10
122.709647
20
337.120415
11
122.850462
21
336.059049
0
LINE
8
boundary
62
5
39
2
10
122.850462
20
336.059049
11
123.060009
21
334.643193
0
LINE
8
boundary
62
5
39
2
10
123.060009
20
334.643193
11
123.287938
21
333.212769
0
LINE
8
boundary
62
5
39
2
10
123.287938
20
333.212769
11
123.410500
21
332.460802
0
LINE
8
boundary
62
5
39
2
10
123.410500
20
332.460802
11
123.509637
21
331.896315
0
LINE
8
boundary
62
5
39
2
10
123.509637
20
331.896315
11
123.660363
21
331.038552
0
LINE
8
boundary
62
5
39
2
10
123.660363
20
331.038552
11
123.931512
21
329.575894
0
LINE
8
boundary
62
5
39
2
10
123.931512
20
329.575894
11
124.187258
21
328.232620
0
LINE
8
boundary
62
5
39
2
10
124.187258
20
328.232620
11
124.440734
21
326.932333
0
LINE
8
boundary
62
5
39
2
10
124.440734
20
326.932333
11
124.706923
21
325.605153
0
LINE
8
boundary
62
5
39
2
10
124.706923
20
325.605153
11
124.869424
21
324.807376
0
LINE
8
boundary
62
5
39
2
10
124.869424
20
324.807376
11
124.985866
21
324.250348
0
LINE
8
boundary
62
5
39
2
10
124.985866
20
324.250348
11
125.222434
21
323.124474
0
LINE
8
boundary
62
5
39
2
10
125.222434
20
323.124474
11
125.527031
21
321.711941
0
LINE
8
boundary
62
5
39
2
10
125.527031
20
321.711941
11
125.964488
21
319.686454
0
LINE
8
boundary
62
5
39
2
10
125.964488
20
319.686454
11
126.079801
21
319.161687
0
LINE
8
boundary
62
5
39
2
10
126.079801
20
319.161687
11
126.398940
21
317.705779
0
LINE
8
boundary
62
5
39
2
10
126.398940
20
317.705779
11
126.772230
21
316.044933
0
LINE
8
boundary
62
5
39
2
10
126.772230
20
316.044933
11
127.276019
21
313.798262
0
LINE
8
boundary
62
5
39
2
10
127.276019
20
313.798262
11
127.546367
21
312.613379
0
LINE
8
boundary
62
5
39
2
10
127.546367
20
312.613379
11
127.740113
21
311.763014
0
LINE
8
boundary
62
5
39
2
10
127.740113
20
311.763014
11
128.125799
21
310.094065
0
LINE
8
boundary
62
5
39
2
10
128.125799
20
310.094065
11
128.272726
21
309.451115
0
LINE
8
boundary
62
5
39
2
10
128.272726
20
309.451115
11
128.715127
21
307.528368
0
LINE
8
boundary
62
5
39
2
10
128.715127
20
307.528368
11
129.045793
21
306.106509
0
LINE
8
boundary
62
5
39
2
10
129.045793
20
306.106509
11
129.224022
21
305.339385
0
LINE
8
boundary
62
5
39
2
10
129.224022
20
305.339385
11
129.558017
21
303.915657
0
LINE
8
boundary
62
5
39
2
10
129.558017
20
303.915657
11
129.745905
21
303.103087
0
LINE
8
boundary
62
5
39
2
10
129.745905
20
303.103087
11
130.279159
21
300.813901
0
LINE
8
boundary
62
5
39
2
10
130.279159
20
300.813901
11
130.699015
21
299.023699
0
LINE
8
boundary
62
5
39
2
10
130.699015
20
299.023699
11
130.823360
21
298.493223
0
LINE
8
boundary
62
5
39
2
10
130.823360
20
298.493223
11
131.045151
21
297.552808
0
LINE
8
boundary
62
5
39
2
10
131.045151
20
297.552808
11
131.376784
21
296.127550
0
LINE
8
boundary
62
5
39
2
10
131.376784
20
296.127550
11
131.573513
21
295.285822
0
LINE
8
boundary
62
5
39
2
10
131.573513
20
295.285822
11
131.938181
21
293.725480
0
LINE
8
boundary
62
5
39
2
10
131.938181
20
293.725480
11
132.470862
21
291.455026
0
LINE
8
boundary
62
5
39
2
10
132.470862
20
291.455026
11
133.081112
21
288.834276
0
LINE
8
boundary
62
5
39
2
10
133.081112
20
288.834276
11
133.388175
21
287.515726
0
LINE
8
boundary
62
5
39
2
10
133.388175
20
287.515726
11
133.659877
21
286.349194
0
LINE
8
boundary
62
5
39
2
10
133.659877
20
286.349194
11
134.120646
21
284.373816
0
LINE
8
boundary
62
5
39
2
10
134.120646
20
284.373816
11
134.242333
21
283.844327
0
LINE
8
boundary
62
5
39
2
10
134.242333
20
283.844327
11
134.363289
21
283.317610
0
LINE
8
boundary
62
5
39
2
10
134.363289
20
283.317610
11
135.799346
21
277.069647
0
LINE
8
boundary
62
5
39
2
10
135.799346
20
277.069647
11
137.275645
21
270.632513
0
LINE
8
boundary
62
5
39
2
10
137.275645
20
270.632513
11
137.401351
21
270.075636
0
LINE
8
boundary
62
5
39
2
10
137.401351
20
270.075636
11
138.505435
21
265.170391
0
LINE
8
boundary
62
5
39
2
10
138.505435
20
265.170391
11
139.172103
21
262.192162
0
LINE
8
boundary
62
5
39
2
10
139.172103
20
262.192162
11
139.636753
21
260.114189
0
LINE
8
boundary
62
5
39
2
10
139.636753
20
260.114189
11
140.502155
21
256.220877
0
LINE
8
boundary
62
5
39
2
10
140.502155
20
256.220877
11
140.745184
21
255.123109
0
LINE
8
boundary
62
5
39
2
10
140.745184
20
255.123109
11
141.287302
21
252.657827
0
LINE
8
boundary
62
5
39
2
10
141.287302
20
252.657827
11
141.437968
21
251.972123
0
LINE
8
boundary
62
5
39
2
10
141.437968
20
251.972123
11
141.821703
21
250.217275
0
LINE
8
boundary
62
5
39
2
10
141.821703
20
250.217275
11
142.070130
21
249.081797
0
LINE
8
boundary
62
5
39
2
10
142.070130
20
249.081797
11
142.348080
21
247.803195
0
LINE
8
boundary
62
5
39
2
10
142.348080
20
247.803195
11
142.688382
21
246.240268
0
LINE
8
boundary
62
5
39
2
10
142.688382
20
246.240268
11
142.866138
21
245.417191
0
LINE
8
boundary
62
5
39
2
10
142.866138
20
245.417191
11
143.292153
21
243.450104
0
LINE
8
boundary
62
5
39
2
10
143.292153
20
243.450104
11
143.848937
21
240.863328
0
LINE
8
boundary
62
5
39
2
10
143.848937
20
240.863328
11
144.370140
21
238.443854
0
LINE
8
boundary
62
5
39
2
10
144.370140
20
238.443854
11
144.856913
21
236.180274
0
LINE
8
boundary
62
5
39
2
10
144.856913
20
236.180274
11
145.018432
21
235.437054
0
LINE
8
boundary
62
5
39
2
10
145.018432
20
235.437054
11
145.338072
21
233.942491
0
LINE
8
boundary
62
5
39
2
10
145.338072
20
233.942491
11
145.572439
21
232.863521
0
LINE
8
boundary
62
5
39
2
10
145.572439
20
232.863521
11
145.814588
21
231.728892
0
LINE
8
boundary
62
5
39
2
10
145.814588
20
231.728892
11
146.373942
21
229.152765
0
LINE
8
boundary
62
5
39
2
10
146.373942
20
229.152765
11
146.600884
21
228.088968
0
LINE
8
boundary
62
5
39
2
10
146.600884
20
228.088968
11
147.361707
21
224.593210
0
LINE
8
boundary
62
5
39
2
10
147.361707
20
224.593210
11
148.156374
21
220.978153
0
LINE
8
boundary
62
5
39
2
10
148.156374
20
220.978153
11
148.332570
21
220.199393
0
LINE
8
boundary
62
5
39
2
10
148.332570
20
220.199393
11
148.931589
21
217.495151
0
LINE
8
boundary
62
5
39
2
10
148.931589
20
217.495151
11
149.295492
21
215.900814
0
LINE
8
boundary
62
5
39
2
10
149.295492
20
215.900814
11
149.709060
21
214.048845
0
LINE
8
boundary
62
5
39
2
10
149.709060
20
214.048845
11
150.255763
21
211.677564
0
LINE
8
boundary
62
5
39
2
10
150.255763
20
211.677564
11
150.491208
21
210.633557
0
LINE
8
boundary
62
5
39
2
10
150.491208
20
210.633557
11
151.218020
21
207.516301
0
LINE
8
boundary
62
5
39
2
10
151.218020
20
207.516301
11
151.568804
21
206.021096
0
LINE
8
boundary
62
5
39
2
10
151.568804
20
206.021096
11
152.077196
21
203.877370
0
LINE
8
boundary
62
5
39
2
10
152.077196
20
203.877370
11
152.884139
21
200.527469
0
LINE
8
boundary
62
5
39
2
10
152.884139
20
200.527469
11
153.179153
21
199.337256
0
LINE
8
boundary
62
5
39
2
10
153.179153
20
199.337256
11
153.702757
21
197.187544
0
LINE
8
boundary
62
5
39
2
10
153.702757
20
197.187544
11
154.181008
21
195.282217
0
LINE
8
boundary
62
5
39
2
10
154.181008
20
195.282217
11
154.534173
21
193.853002
0
LINE
8
boundary
62
5
39
2
10
154.534173
20
193.853002
11
154.834323
21
192.669520
0
LINE
8
boundary
62
5
39
2
10
154.834323
20
192.669520
11
155.298102
21
190.841940
0
LINE
8
boundary
62
5
39
2
10
155.298102
20
190.841940
11
155.766054
21
189.013560
0
LINE
8
boundary
62
5
39
2
10
155.766054
20
189.013560
11
156.238294
21
187.183660
0
LINE
8
boundary
62
5
39
2
10
156.238294
20
187.183660
11
156.673032
21
185.512457
0
LINE
8
boundary
62
5
39
2
10
156.673032
20
185.512457
11
157.111226
21
183.839658
0
LINE
8
boundary
62
5
39
2
10
157.111226
20
183.839658
11
157.553073
21
182.163954
0
LINE
8
boundary
62
5
39
2
10
157.553073
20
182.163954
11
157.686990
21
181.660773
0
LINE
8
boundary
62
5
39
2
10
157.686990
20
181.660773
11
157.998553
21
180.484814
0
LINE
8
boundary
62
5
39
2
10
157.998553
20
180.484814
11
158.178829
21
179.810283
0
LINE
8
boundary
62
5
39
2
10
158.178829
20
179.810283
11
158.447598
21
178.801841
0
LINE
8
boundary
62
5
39
2
10
158.447598
20
178.801841
11
158.675154
21
177.953830
0
LINE
8
boundary
62
5
39
2
10
158.675154
20
177.953830
11
158.900156
21
177.114550
0
LINE
8
boundary
62
5
39
2
10
158.900156
20
177.114550
11
159.175961
21
176.090655
0
LINE
8
boundary
62
5
39
2
10
159.175961
20
176.090655
11
159.356100
21
175.422532
0
LINE
8
boundary
62
5
39
2
10
159.356100
20
175.422532
11
159.681183
21
174.220062
0
LINE
8
boundary
62
5
39
2
10
159.681183
20
174.220062
11
159.815281
21
173.725383
0
LINE
8
boundary
62
5
39
2
10
159.815281
20
173.725383
11
160.190703
21
172.341416
0
LINE
8
boundary
62
5
39
2
10
160.190703
20
172.341416
11
160.704437
21
170.453962
0
LINE
8
boundary
62
5
39
2
10
160.704437
20
170.453962
11
161.102858
21
168.994591
0
LINE
8
boundary
62
5
39
2
10
161.102858
20
168.994591
11
161.680234
21
166.877472
0
LINE
8
boundary
62
5
39
2
10
161.680234
20
166.877472
11
162.152515
21
165.148782
0
LINE
8
boundary
62
5
39
2
10
162.152515
20
165.148782
11
162.627221
21
163.412779
0
LINE
8
boundary
62
5
39
2
10
162.627221
20
163.412779
11
162.800208
21
162.775827
0
LINE
8
boundary
62
5
39
2
10
162.800208
20
162.775827
11
163.104238
21
161.669180
0
LINE
8
boundary
62
5
39
2
10
163.104238
20
161.669180
11
163.333407
21
160.826184
0
LINE
8
boundary
62
5
39
2
10
163.333407
20
160.826184
11
163.583454
21
159.917730
0
LINE
8
boundary
62
5
39
2
10
163.583454
20
159.917730
11
164.237033
21
157.518697
0
LINE
8
boundary
62
5
39
2
10
164.237033
20
157.518697
11
164.548113
21
156.390381
0
LINE
8
boundary
62
5
39
2
10
164.548113
20
156.390381
11
165.477360
21
152.985212
0
LINE
8
boundary
62
5
39
2
10
165.477360
20
152.985212
11
165.671859
21
152.275325
0
LINE
8
boundary
62
5
39
2
10
165.671859
20
152.275325
11
166.497386
21
149.234637
0
LINE
8
boundary
62
5
39
2
10
166.497386
20
149.234637
11
166.745680
21
148.308931
0
LINE
8
boundary
62
5
39
2
10
166.745680
20
148.308931
11
167.480523
21
145.605443
0
LINE
8
boundary
62
5
39
2
10
167.480523
20
145.605443
11
168.039677
21
143.522958
0
LINE
8
boundary
62
5
39
2
10
168.039677
20
143.522958
11
168.470138
21
141.941160
0
LINE
8
boundary
62
5
39
2
10
168.470138
20
141.941160
11
169.360535
21
138.629594
0
LINE
8
boundary
62
5
39
2
10
169.360535
20
138.629594
11
169.776315
21
137.090442
0
LINE
8
boundary
62
5
39
2
10
169.776315
20
137.090442
11
170.464704
21
134.515370
0
LINE
8
boundary
62
5
39
2
10
170.464704
20
134.515370
11
170.712393
21
133.580619
0
LINE
8
boundary
62
5
39
2
10
170.712393
20
133.580619
11
171.468239
21
130.760354
0
LINE
8
boundary
62
5
39
2
10
171.468239
20
130.760354
11
172.097834
21
128.393869
0
LINE
8
boundary
62
5
39
2
10
172.097834
20
128.393869
11
172.478727
21
126.977158
0
LINE
8
boundary
62
5
39
2
10
172.478727
20
126.977158
11
173.439334
21
123.384355
0
LINE
8
boundary
62
5
39
2
10
173.439334
20
123.384355
11
173.581585
21
122.850276
0
LINE
8
boundary
62
5
39
2
10
173.581585
20
122.850276
11
174.517091
21
119.351687
0
LINE
8
boundary
62
5
39
2
10
174.517091
20
119.351687
11
175.123467
21
117.094781
0
LINE
8
boundary
62
5
39
2
10
175.123467
20
117.094781
11
175.339324
21
116.287912
0
LINE
8
boundary
62
5
39
2
10
175.339324
20
116.287912
11
175.566305
21
115.444596
0
LINE
8
boundary
62
5
39
2
10
175.566305
20
115.444596
11
176.165395
21
113.222730
0
LINE
8
boundary
62
5
39
2
10
176.165395
20
113.222730
11
176.718079
21
111.188217
0
LINE
8
boundary
62
5
39
2
10
176.718079
20
111.188217
11
176.997162
21
110.156823
0
LINE
8
boundary
62
5
39
2
10
176.997162
20
110.156823
11
177.233562
21
109.291564
0
LINE
8
boundary
62
5
39
2
10
177.233562
20
109.291564
11
177.833874
21
107.096882
0
LINE
8
boundary
62
5
39
2
10
177.833874
20
107.096882
11
178.518800
21
104.620861
0
LINE
8
boundary
62
5
39
2
10
178.518800
20
104.620861
11
178.678232
21
104.042410
0
LINE
8
boundary
62
5
39
2
10
178.678232
20
104.042410
11
178.836125
21
103.477120
0
LINE
8
boundary
62
5
39
2
10
178.836125
20
103.477120
11
179.526091
21
101.006843
0
LINE
8
boundary
62
5
39
2
10
179.526091
20
101.006843
11
180.201291
21
98.623174
0
LINE
8
boundary
62
5
39
2
10
180.201291
20
98.623174
11
180.380525
21
97.988202
0
LINE
8
boundary
62
5
39
2
10
180.380525
20
97.988202
11
180.591186
21
97.253307
0
LINE
8
boundary
62
5
39
2
10
180.591186
20
97.253307
11
181.236856
21
94.999160
0
LINE
8
boundary
62
5
39
2
10
181.236856
20
94.999160
11
181.771463
21
93.162388
0
LINE
8
boundary
62
5
39
2
10
181.771463
20
93.162388
11
182.097541
21
92.037764
0
LINE
8
boundary
62
5
39
2
10
182.097541
20
92.037764
11
182.560182
21
90.468891
0
LINE
8
boundary
62
5
39
2
10
182.560182
20
90.468891
11
182.960400
21
89.110123
0
LINE
8
boundary
62
5
39
2
10
182.960400
20
89.110123
11
183.237339
21
88.192688
0
LINE
8
boundary
62
5
39
2
10
183.237339
20
88.192688
11
184.265427
21
84.780597
0
LINE
8
boundary
62
5
39
2
10
184.265427
20
84.780597
11
184.606814
21
83.646555
0
LINE
8
boundary
62
5
39
2
10
184.606814
20
83.646555
11
185.899124
21
79.474666
0
LINE
8
boundary
62
5
39
2
10
185.899124
20
79.474666
11
186.438193
21
77.734952
0
LINE
8
boundary
62
5
39
2
10
186.438193
20
77.734952
11
187.122237
21
75.602564
0
LINE
8
boundary
62
5
39
2
10
187.122237
20
75.602564
11
188.196011
21
72.252676
0
LINE
8
boundary
62
5
39
2
10
188.196011
20
72.252676
11
188.858624
21
70.228000
0
LINE
8
boundary
62
5
39
2
10
188.858624
20
70.228000
11
189.313699
21
68.862965
0
LINE
8
boundary
62
5
39
2
10
189.313699
20
68.862965
11
189.521694
21
68.236251
0
LINE
8
boundary
62
5
39
2
10
189.521694
20
68.236251
11
189.784081
21
67.461068
0
LINE
8
boundary
62
5
39
2
10
189.784081
20
67.461068
11
190.185834
21
66.266739
0
LINE
8
boundary
62
5
39
2
10
190.185834
20
66.266739
11
190.517938
21
65.299782
0
LINE
8
boundary
62
5
39
2
10
190.517938
20
65.299782
11
190.848772
21
64.331574
0
LINE
8
boundary
62
5
39
2
10
190.848772
20
64.331574
11
191.251809
21
63.176787
0
LINE
8
boundary
62
5
39
2
10
191.251809
20
63.176787
11
191.509648
21
62.435724
0
LINE
8
boundary
62
5
39
2
10
191.509648
20
62.435724
11
191.894526
21
61.351291
0
LINE
8
boundary
62
5
39
2
10
191.894526
20
61.351291
11
192.167118
21
60.580675
0
LINE
8
boundary
62
5
39
2
10
192.167118
20
60.580675
11
192.354151
21
60.062470
0
LINE
8
boundary
62
5
39
2
10
192.354151
20
60.062470
11
192.820991
21
58.768317
0
LINE
8
boundary
62
5
39
2
10
192.820991
20
58.768317
11
193.458116
21
57.038665
0
LINE
8
boundary
62
5
39
2
10
193.458116
20
57.038665
11
194.105847
21
55.309405
0
LINE
8
boundary
62
5
39
2
10
194.105847
20
55.309405
11
194.623342
21
53.957469
0
LINE
8
boundary
62
5
39
2
10
194.623342
20
53.957469
11
194.848449
21
53.375829
0
LINE
8
boundary
62
5
39
2
10
194.848449
20
53.375829
11
195.340991
21
52.109686
0
LINE
8
boundary
62
5
39
2
10
195.340991
20
52.109686
11
195.792715
21
50.972221
0
LINE
8
boundary
62
5
39
2
10
195.792715
20
50.972221
11
196.062786
21
50.297281
0
LINE
8
boundary
62
5
39
2
10
196.062786
20
50.297281
11
196.494074
21
49.224442
0
LINE
8
boundary
62
5
39
2
10
196.494074
20
49.224442
11
196.930695
21
48.158607
0
LINE
8
boundary
62
5
39
2
10
196.930695
20
48.158607
11
197.533679
21
46.697573
0
LINE
8
boundary
62
5
39
2
10
197.533679
20
46.697573
11
197.983718
21
45.622384
0
LINE
8
boundary
62
5
39
2
10
197.983718
20
45.622384
11
198.475106
21
44.447359
0
LINE
8
boundary
62
5
39
2
10
198.475106
20
44.447359
11
198.923683
21
43.375520
0
LINE
8
boundary
62
5
39
2
10
198.923683
20
43.375520
11
199.147174
21
42.842984
0
LINE
8
boundary
62
5
39
2
10
199.147174
20
42.842984
11
199.365710
21
42.323514
0
LINE
8
boundary
62
5
39
2
10
199.365710
20
42.323514
11
199.637679
21
41.680519
0
LINE
8
boundary
62
5
39
2
10
199.637679
20
41.680519
11
200.110484
21
40.572260
0
LINE
8
boundary
62
5
39
2
10
200.110484
20
40.572260
11
200.575977
21
39.497209
0
LINE
8
boundary
62
5
39
2
10
200.575977
20
39.497209
11
201.041969
21
38.440160
0
LINE
8
boundary
62
5
39
2
10
201.041969
20
38.440160
11
201.514592
21
37.389687
0
LINE
8
boundary
62
5
39
2
10
201.514592
20
37.389687
11
202.101997
21
36.117235
0
LINE
8
boundary
62
5
39
2
10
202.101997
20
36.117235
11
202.330174
21
35.626285
0
LINE
8
boundary
62
5
39
2
10
202.330174
20
35.626285
11
202.743418
21
34.762011
0
LINE
8
boundary
62
5
39
2
10
202.743418
20
34.762011
11
203.037983
21
34.145921
0
LINE
8
boundary
62
5
39
2
10
203.037983
20
34.145921
11
203.393117
21
33.423179
0
LINE
8
boundary
62
5
39
2
10
203.393117
20
33.423179
11
203.778444
21
32.638926
0
LINE
8
boundary
62
5
39
2
10
203.778444
20
32.638926
11
204.052472
21
32.095411
0
LINE
8
boundary
62
5
39
2
10
204.052472
20
32.095411
11
204.550840
21
31.107588
0
LINE
8
boundary
62
5
39
2
10
204.550840
20
31.107588
11
205.354000
21
29.555790
0
LINE
8
boundary
62
5
39
2
10
205.354000
20
29.555790
11
205.627377
21
29.040961
0
LINE
8
boundary
62
5
39
2
10
205.627377
20
29.040961
11
206.082731
21
28.182716
0
LINE
8
boundary
62
5
39
2
10
206.082731
20
28.182716
11
206.769564
21
26.920415
0
LINE
8
boundary
62
5
39
2
10
206.769564
20
26.920415
11
207.037499
21
26.432187
0
LINE
8
boundary
62
5
39
2
10
207.037499
20
26.432187
11
207.465400
21
25.674630
0
LINE
8
boundary
62
5
39
2
10
207.465400
20
25.674630
11
207.916307
21
24.880088
0
LINE
8
boundary
62
5
39
2
10
207.916307
20
24.880088
11
208.817041
21
23.345517
0
LINE
8
boundary
62
5
39
2
10
208.817041
20
23.345517
11
209.116222
21
22.854372
0
LINE
8
boundary
62
5
39
2
10
209.116222
20
22.854372
11
209.594349
21
22.068764
0
LINE
8
boundary
62
5
39
2
10
209.594349
20
22.068764
11
210.310027
21
20.930005
0
LINE
8
boundary
62
5
39
2
10
210.310027
20
20.930005
11
210.662475
21
20.375418
0
LINE
8
boundary
62
5
39
2
10
210.662475
20
20.375418
11
211.033158
21
19.813498
0
LINE
8
boundary
62
5
39
2
10
211.033158
20
19.813498
11
211.605811
21
18.949379
0
LINE
8
boundary
62
5
39
2
10
211.605811
20
18.949379
11
212.290361
21
17.960829
0
LINE
8
boundary
62
5
39
2
10
212.290361
20
17.960829
11
213.225695
21
16.656029
0
LINE
8
boundary
62
5
39
2
10
213.225695
20
16.656029
11
213.961601
21
15.677927
0
LINE
8
boundary
62
5
39
2
10
213.961601
20
15.677927
11
214.474384
21
15.013209
0
LINE
8
boundary
62
5
39
2
10
214.474384
20
15.013209
11
215.438656
21
13.834262
0
LINE
8
boundary
62
5
39
2
10
215.438656
20
13.834262
11
216.186839
21
12.979580
0
LINE
8
boundary
62
5
39
2
10
216.186839
20
12.979580
11
216.929859
21
12.177200
0
LINE
8
boundary
62
5
39
2
10
216.929859
20
12.177200
11
217.353921
21
11.732199
0
LINE
8
boundary
62
5
39
2
10
217.353921
20
11.732199
11
218.307475
21
10.811745
0
LINE
8
boundary
62
5
39
2
10
218.307475
20
10.811745
11
218.860506
21
10.326211
0
LINE
8
boundary
62
5
39
2
10
218.860506
20
10.326211
11
219.251944
21
9.984769
0
LINE
8
boundary
62
5
39
2
10
219.251944
20
9.984769
11
219.907488
21
9.467168
0
LINE
8
boundary
62
5
39
2
10
219.907488
20
9.467168
11
220.642821
21
8.928629
0
LINE
8
boundary
62
5
39
2
10
220.642821
20
8.928629
11
221.102188
21
8.610663
0
LINE
8
boundary
62
5
39
2
10
221.102188
20
8.610663
11
222.005862
21
8.058199
0
LINE
8
boundary
62
5
39
2
10
222.005862
20
8.058199
11
222.472727
21
7.813449
0
LINE
8
boundary
62
5
39
2
10
222.472727
20
7.813449
11
223.503389
21
7.334777
0
LINE
8
boundary
62
5
39
2
10
223.503389
20
7.334777
11
224.186853
21
7.084901
0
LINE
8
boundary
62
5
39
2
10
224.186853
20
7.084901
11
224.856260
21
6.890927
0
LINE
8
boundary
62
5
39
2
10
224.856260
20
6.890927
11
225.393300
21
6.770097
0
LINE
8
boundary
62
5
39
2
10
225.393300
20
6.770097
11
226.017828
21
6.690390
0
LINE
8
boundary
62
5
39
2
10
226.017828
20
6.690390
11
226.751926
21
6.667500
0
LINE
8
boundary
62
5
39
2
10
226.751926
20
6.667500
11
226.813464
21
8.248558
0
LINE
8
boundary
62
5
39
2
10
226.813464
20
8.248558
11
230.415024
21
8.248558
0
LINE
8
boundary
62
5
39
2
10
230.415024
20
8.248558
11
231.039803
21
8.954969
0
LINE
8
boundary
62
5
39
2
10
231.039803
20
8.954969
11
231.435437
21
9.541916
0
LINE
8
boundary
62
5
39
2
10
231.435437
20
9.541916
11
231.742734
21
10.086070
0
LINE
8
boundary
62
5
39
2
10
231.742734
20
10.086070
11
232.024339
21
10.662101
0
LINE
8
boundary
62
5
39
2
10
232.024339
20
10.662101
11
232.275715
21
11.273081
0
LINE
8
boundary
62
5
39
2
10
232.275715
20
11.273081
11
232.489629
21
11.924360
0
LINE
8
boundary
62
5
39
2
10
232.489629
20
11.924360
11
232.682210
21
12.600059
0
LINE
8
boundary
62
5
39
2
10
232.682210
20
12.600059
11
232.845726
21
13.260927
0
LINE
8
boundary
62
5
39
2
10
232.845726
20
13.260927
11
232.986472
21
14.036119
0
LINE
8
boundary
62
5
39
2
10
232.986472
20
14.036119
11
233.171402
21
15.280115
0
LINE
8
boundary
62
5
39
2
10
233.171402
20
15.280115
11
233.266423
21
16.290549
0
LINE
8
boundary
62
5
39
2
10
233.266423
20
16.290549
11
233.309028
21
16.999351
0
LINE
8
boundary
62
5
39
2
10
233.309028
20
16.999351
11
233.337588
21
17.669313
0
LINE
8
boundary
62
5
39
2
10
233.337588
20
17.669313
11
233.352274
21
18.357391
0
LINE
8
boundary
62
5
39
2
10
233.352274
20
18.357391
11
233.346167
21
19.477942
0
LINE
8
boundary
62
5
39
2
10
233.346167
20
19.477942
11
233.315763
21
20.517167
0
LINE
8
boundary
62
5
39
2
10
233.315763
20
20.517167
11
233.237858
21
21.893351
0
LINE
8
boundary
62
5
39
2
10
233.237858
20
21.893351
11
233.190246
21
22.490546
0
LINE
8
boundary
62
5
39
2
10
233.190246
20
22.490546
11
233.132606
21
23.191018
0
LINE
8
boundary
62
5
39
2
10
233.132606
20
23.191018
11
233.011866
21
24.408895
0
LINE
8
boundary
62
5
39
2
10
233.011866
20
24.408895
11
220.322623
21
24.424719
0
LINE
8
boundary
62
5
39
2
10
220.322623
20
24.424719
11
220.322623
21
27.170719
0
LINE
8
boundary
62
5
39
2
10
220.322623
20
27.170719
11
232.624389
21
27.170719
0
LINE
8
boundary
62
5
39
2
10
232.624389
20
27.170719
11
232.502154
21
28.198235
0
LINE
8
boundary
62
5
39
2
10
232.502154
20
28.198235
11
232.383399
21
28.946625
0
LINE
8
boundary
62
5
39
2
10
232.383399
20
28.946625
11
232.111839
21
30.525568
0
LINE
8
boundary
62
5
39
2
10
232.111839
20
30.525568
11
231.821549
21
32.106427
0
LINE
8
boundary
62
5
39
2
10
231.821549
20
32.106427
11
231.468689
21
33.848525
0
LINE
8
boundary
62
5
39
2
10
231.468689
20
33.848525
11
231.337009
21
34.469759
0
LINE
8
boundary
62
5
39
2
10
231.337009
20
34.469759
11
231.095865
21
35.592968
0
LINE
8
boundary
62
5
39
2
10
231.095865
20
35.592968
11
230.538100
21
38.066558
0
LINE
8
boundary
62
5
39
2
10
230.538100
20
38.066558
11
230.403405
21
38.639948
0
LINE
8
boundary
62
5
39
2
10
230.403405
20
38.639948
11
229.777563
21
41.155239
0
LINE
8
boundary
62
5
39
2
10
229.777563
20
41.155239
11
229.255470
21
43.159490
0
LINE
8
boundary
62
5
39
2
10
229.255470
20
43.159490
11
213.784648
21
43.346880
0
LINE
8
boundary
62
5
39
2
10
213.784648
20
43.346880
11
213.784647
21
46.092879
0
LINE
8
boundary
62
5
39
2
10
213.784647
20
46.092879
11
228.407499
21
46.092880
0
LINE
8
boundary
62
5
39
2
10
228.407499
20
46.092880
11
228.139530
21
47.231664
0
LINE
8
boundary
62
5
39
2
10
228.139530
20
47.231664
11
227.662706
21
48.869467
0
LINE
8
boundary
62
5
39
2
10
227.662706
20
48.869467
11
227.194461
21
50.472061
0
LINE
8
boundary
62
5
39
2
10
227.194461
20
50.472061
11
226.631209
21
52.345159
0
LINE
8
boundary
62
5
39
2
10
226.631209
20
52.345159
11
226.169383
21
53.846769
0
LINE
8
boundary
62
5
39
2
10
226.169383
20
53.846769
11
225.522721
21
55.893030
0
LINE
8
boundary
62
5
39
2
10
225.522721
20
55.893030
11
225.047613
21
57.375408
0
LINE
8
boundary
62
5
39
2
10
225.047613
20
57.375408
11
224.358800
21
59.476020
0
LINE
8
boundary
62
5
39
2
10
224.358800
20
59.476020
11
223.832769
21
61.057899
0
LINE
8
boundary
62
5
39
2
10
223.832769
20
61.057899
11
223.422337
21
62.269041
0
LINE
8
boundary
62
5
39
2
10
223.422337
20
62.269041
11
207.139329
21
62.269041
0
LINE
8
boundary
62
5
39
2
10
207.139329
20
62.269041
11
207.139329
21
65.015041
0
LINE
8
boundary
62
5
39
2
10
207.139329
20
65.015041
11
222.419388
21
65.015041
0
LINE
8
boundary
62
5
39
2
10
222.419388
20
65.015041
11
221.883879
21
66.729319
0
LINE
8
boundary
62
5
39
2
10
221.883879
20
66.729319
11
221.111669
21
68.912155
0
LINE
8
boundary
62
5
39
2
10
221.111669
20
68.912155
11
220.581658
21
70.392655
0
LINE
8
boundary
62
5
39
2
10
220.581658
20
70.392655
11
219.600881
21
73.095874
0
LINE
8
boundary
62
5
39
2
10
219.600881
20
73.095874
11
219.240379
21
74.081518
0
LINE
8
boundary
62
5
39
2
10
219.240379
20
74.081518
11
217.992725
21
77.450185
0
LINE
8
boundary
62
5
39
2
10
217.992725
20
77.450185
11
217.169499
21
79.643047
0
LINE
8
boundary
62
5
39
2
10
217.169499
20
79.643047
11
216.586893
21
81.191201
0
LINE
8
boundary
62
5
39
2
10
216.586893
20
81.191201
11
200.587402
21
81.191202
0
LINE
8
boundary
62
5
39
2
10
200.587402
20
81.191202
11
200.587402
21
83.937202
0
LINE
8
boundary
62
5
39
2
10
200.587402
20
83.937202
11
215.476398
21
83.937201
0
LINE
8
boundary
62
5
39
2
10
215.476398
20
83.937201
11
214.978936
21
85.421915
0
LINE
8
boundary
62
5
39
2
10
214.978936
20
85.421915
11
214.512808
21
86.634509
0
LINE
8
boundary
62
5
39
2
10
214.512808
20
86.634509
11
213.477186
21
89.338574
0
LINE
8
boundary
62
5
39
2
10
213.477186
20
89.338574
11
212.663619
21
91.433823
0
LINE
8
boundary
62
5
39
2
10
212.663619
20
91.433823
11
210.878893
21
96.070911
0
LINE
8
boundary
62
5
39
2
10
210.878893
20
96.070911
11
210.529643
21
96.971063
0
LINE
8
boundary
62
5
39
2
10
210.529643
20
96.971063
11
209.370482
21
99.963363
0
LINE
8
boundary
62
5
39
2
10
209.370482
20
99.963363
11
194.162590
21
100.113362
0
LINE
8
boundary
62
5
39
2
10
194.162590
20
100.113362
11
194.162590
21
102.859363
0
LINE
8
boundary
62
5
39
2
10
194.162590
20
102.859363
11
208.189179
21
102.859362
0
LINE
8
boundary
62
5
39
2
10
208.189179
20
102.859362
11
206.891694
21
106.386146
0
LINE
8
boundary
62
5
39
2
10
206.891694
20
106.386146
11
205.272777
21
110.632143
0
LINE
8
boundary
62
5
39
2
10
205.272777
20
110.632143
11
204.941959
21
111.489220
0
LINE
8
boundary
62
5
39
2
10
204.941959
20
111.489220
11
204.341747
21
113.073086
0
LINE
8
boundary
62
5
39
2
10
204.341747
20
113.073086
11
202.990460
21
116.630013
0
LINE
8
boundary
62
5
39
2
10
202.990460
20
116.630013
11
202.243043
21
118.637491
0
LINE
8
boundary
62
5
39
2
10
202.243043
20
118.637491
11
187.986425
21
119.035524
0
LINE
8
boundary
62
5
39
2
10
187.986425
20
119.035524
11
187.986425
21
121.781523
0
LINE
8
boundary
62
5
39
2
10
187.986425
20
121.781523
11
200.994463
21
121.781523
0
LINE
8
boundary
62
5
39
2
10
200.994463
20
121.781523
11
199.325107
21
126.494832
0
LINE
8
boundary
62
5
39
2
10
199.325107
20
126.494832
11
199.049509
21
127.248630
0
LINE
8
boundary
62
5
39
2
10
199.049509
20
127.248630
11
197.287068
21
132.092011
0
LINE
8
boundary
62
5
39
2
10
197.287068
20
132.092011
11
195.694762
21
136.579921
0
LINE
8
boundary
62
5
39
2
10
195.694762
20
136.579921
11
195.464414
21
137.224005
0
LINE
8
boundary
62
5
39
2
10
195.464414
20
137.224005
11
195.228217
21
137.902250
0
LINE
8
boundary
62
5
39
2
10
195.228217
20
137.902250
11
182.049189
21
137.957685
0
LINE
8
boundary
62
5
39
2
10
182.049189
20
137.957685
11
182.049189
21
140.703685
0
LINE
8
boundary
62
5
39
2
10
182.049189
20
140.703685
11
194.186554
21
140.703684
0
LINE
8
boundary
62
5
39
2
10
194.186554
20
140.703684
11
193.678556
21
142.336889
0
LINE
8
boundary
62
5
39
2
10
193.678556
20
142.336889
11
192.197613
21
146.695724
0
LINE
8
boundary
62
5
39
2
10
192.197613
20
146.695724
11
191.950119
21
147.418866
0
LINE
8
boundary
62
5
39
2
10
191.950119
20
147.418866
11
191.738123
21
148.056536
0
LINE
8
boundary
62
5
39
2
10
191.738123
20
148.056536
11
190.265970
21
152.470162
0
LINE
8
boundary
62
5
39
2
10
190.265970
20
152.470162
11
189.700191
21
154.207860
0
LINE
8
boundary
62
5
39
2
10
189.700191
20
154.207860
11
189.447125
21
154.981733
0
LINE
8
boundary
62
5
39
2
10
189.447125
20
154.981733
11
188.885845
21
156.729846
0
LINE
8
boundary
62
5
39
2
10
188.885845
20
156.729846
11
176.337494
21
156.879845
0
LINE
8
boundary
62
5
39
2
10
176.337494
20
156.879845
11
176.337494
21
159.625845
0
LINE
8
boundary
62
5
39
2
10
176.337494
20
159.625845
11
187.902091
21
159.625845
0
LINE
8
boundary
62
5
39
2
10
187.902091
20
159.625845
11
187.644392
21
160.627050
0
LINE
8
boundary
62
5
39
2
10
187.644392
20
160.627050
11
187.068283
21
162.458352
0
LINE
8
boundary
62
5
39
2
10
187.068283
20
162.458352
11
186.660169
21
163.779369
0
LINE
8
boundary
62
5
39
2
10
186.660169
20
163.779369
11
186.303696
21
164.929713
0
LINE
8
boundary
62
5
39
2
10
186.303696
20
164.929713
11
185.701509
21
166.908619
0
LINE
8
boundary
62
5
39
2
10
185.701509
20
166.908619
11
185.018705
21
169.178832
0
LINE
8
boundary
62
5
39
2
10
185.018705
20
169.178832
11
184.819304
21
169.838986
0
LINE
8
boundary
62
5
39
2
10
184.819304
20
169.838986
11
184.094688
21
172.276365
0
LINE
8
boundary
62
5
39
2
10
184.094688
20
172.276365
11
183.866015
21
173.058847
0
LINE
8
boundary
62
5
39
2
10
183.866015
20
173.058847
11
183.385437
21
174.701659
0
LINE
8
boundary
62
5
39
2
10
183.385437
20
174.701659
11
183.069011
21
175.802006
0
LINE
8
boundary
62
5
39
2
10
183.069011
20
175.802006
11
170.919503
21
175.802006
0
LINE
8
boundary
62
5
39
2
10
170.919503
20
175.802006
11
170.919503
21
178.548006
0
LINE
8
boundary
62
5
39
2
10
170.919503
20
178.548006
11
182.233669
21
178.548006
0
LINE
8
boundary
62
5
39
2
10
182.233669
20
178.548006
11
182.047518
21
179.393147
0
LINE
8
boundary
62
5
39
2
10
182.047518
20
179.393147
11
181.570833
21
181.103896
0
LINE
8
boundary
62
5
39
2
10
181.570833
20
181.103896
11
181.199650
21
182.430408
0
LINE
8
boundary
62
5
39
2
10
181.199650
20
182.430408
11
180.475512
21
185.063535
0
LINE
8
boundary
62
5
39
2
10
180.475512
20
185.063535
11
180.177352
21
186.164169
0
LINE
8
boundary
62
5
39
2
10
180.177352
20
186.164169
11
179.767905
21
187.679452
0
LINE
8
boundary
62
5
39
2
10
179.767905
20
187.679452
11
179.280179
21
189.509657
0
LINE
8
boundary
62
5
39
2
10
179.280179
20
189.509657
11
179.076173
21
190.277669
0
LINE
8
boundary
62
5
39
2
10
179.076173
20
190.277669
11
178.405609
21
192.835061
0
LINE
8
boundary
62
5
39
2
10
178.405609
20
192.835061
11
177.953331
21
194.574168
0
LINE
8
boundary
62
5
39
2
10
177.953331
20
194.574168
11
165.901115
21
194.724167
0
LINE
8
boundary
62
5
39
2
10
165.901115
20
194.724167
11
165.901114
21
197.470167
0
LINE
8
boundary
62
5
39
2
10
165.901114
20
197.470167
11
177.158590
21
197.470167
0
LINE
8
boundary
62
5
39
2
10
177.158590
20
197.470167
11
176.726411
21
199.361433
0
LINE
8
boundary
62
5
39
2
10
176.726411
20
199.361433
11
176.442800
21
200.485851
0
LINE
8
boundary
62
5
39
2
10
176.442800
20
200.485851
11
175.915389
21
202.595975
0
LINE
8
boundary
62
5
39
2
10
175.915389
20
202.595975
11
175.488718
21
204.324582
0
LINE
8
boundary
62
5
39
2
10
175.488718
20
204.324582
11
175.203815
21
205.473207
0
LINE
8
boundary
62
5
39
2
10
175.203815
20
205.473207
11
174.600715
21
207.937436
0
LINE
8
boundary
62
5
39
2
10
174.600715
20
207.937436
11
174.351312
21
208.964649
0
LINE
8
boundary
62
5
39
2
10
174.351312
20
208.964649
11
174.009865
21
210.380833
0
LINE
8
boundary
62
5
39
2
10
174.009865
20
210.380833
11
173.594873
21
212.113478
0
LINE
8
boundary
62
5
39
2
10
173.594873
20
212.113478
11
173.430928
21
212.803050
0
LINE
8
boundary
62
5
39
2
10
173.430928
20
212.803050
11
173.233225
21
213.646328
0
LINE
8
boundary
62
5
39
2
10
173.233225
20
213.646328
11
161.335266
21
213.646328
0
LINE
8
boundary
62
5
39
2
10
161.335266
20
213.646328
11
161.335265
21
216.392328
0
LINE
8
boundary
62
5
39
2
10
161.335265
20
216.392328
11
172.541633
21
216.392328
0
LINE
8
boundary
62
5
39
2
10
172.541633
20
216.392328
11
172.305489
21
217.586445
0
LINE
8
boundary
62
5
39
2
10
172.305489
20
217.586445
11
171.811538
21
219.725285
0
LINE
8
boundary
62
5
39
2
10
171.811538
20
219.725285
11
171.223154
21
222.286586
0
LINE
8
boundary
62
5
39
2
10
171.223154
20
222.286586
11
170.589934
21
225.103195
0
LINE
8
boundary
62
5
39
2
10
170.589934
20
225.103195
11
170.183806
21
226.903776
0
LINE
8
boundary
62
5
39
2
10
170.183806
20
226.903776
11
169.825067
21
228.531421
0
LINE
8
boundary
62
5
39
2
10
169.825067
20
228.531421
11
169.186694
21
231.441681
0
LINE
8
boundary
62
5
39
2
10
169.186694
20
231.441681
11
168.945333
21
232.568489
0
LINE
8
boundary
62
5
39
2
10
168.945333
20
232.568489
11
157.121989
21
232.568489
0
LINE
8
boundary
62
5
39
2
10
157.121989
20
232.568489
11
157.121989
21
235.314489
0
LINE
8
boundary
62
5
39
2
10
157.121989
20
235.314489
11
168.315120
21
235.314488
0
LINE
8
boundary
62
5
39
2
10
168.315120
20
235.314488
11
168.232351
21
235.899809
0
LINE
8
boundary
62
5
39
2
10
168.232351
20
235.899809
11
167.942494
21
237.293031
0
LINE
8
boundary
62
5
39
2
10
167.942494
20
237.293031
11
167.321722
21
240.287472
0
LINE
8
boundary
62
5
39
2
10
167.321722
20
240.287472
11
166.732132
21
243.214906
0
LINE
8
boundary
62
5
39
2
10
166.732132
20
243.214906
11
166.454613
21
244.603693
0
LINE
8
boundary
62
5
39
2
10
166.454613
20
244.603693
11
166.179939
21
246.026164
0
LINE
8
boundary
62
5
39
2
10
166.179939
20
246.026164
11
165.633302
21
248.862075
0
LINE
8
boundary
62
5
39
2
10
165.633302
20
248.862075
11
165.172886
21
251.340652
0
LINE
8
boundary
62
5
39
2
10
165.172886
20
251.340652
11
153.169620
21
251.490650
0
LINE
8
boundary
62
5
39
2
10
153.169620
20
251.490650
11
153.169620
21
254.236650
0
LINE
8
boundary
62
5
39
2
10
153.169620
20
254.236650
11
164.613904
21
254.236650
0
LINE
8
boundary
62
5
39
2
10
164.613904
20
254.236650
11
164.398431
21
255.675743
0
LINE
8
boundary
62
5
39
2
10
164.398431
20
255.675743
11
163.983645
21
258.043309
0
LINE
8
boundary
62
5
39
2
10
163.983645
20
258.043309
11
163.756081
21
259.419150
0
LINE
8
boundary
62
5
39
2
10
163.756081
20
259.419150
11
163.175486
21
262.975107
0
LINE
8
boundary
62
5
39
2
10
163.175486
20
262.975107
11
162.551882
21
267.058518
0
LINE
8
boundary
62
5
39
2
10
162.551882
20
267.058518
11
162.430359
21
267.864210
0
LINE
8
boundary
62
5
39
2
10
162.430359
20
267.864210
11
162.215554
21
269.390014
0
LINE
8
boundary
62
5
39
2
10
162.215554
20
269.390014
11
162.092297
21
270.262811
0
LINE
8
boundary
62
5
39
2
10
162.092297
20
270.262811
11
149.510688
21
270.412810
0
LINE
8
boundary
62
5
39
2
10
149.510688
20
270.412810
11
149.510688
21
273.158811
0
LINE
8
boundary
62
5
39
2
10
149.510688
20
273.158811
11
161.656223
21
273.158811
0
LINE
8
boundary
62
5
39
2
10
161.656223
20
273.158811
11
161.506201
21
274.509163
0
LINE
8
boundary
62
5
39
2
10
161.506201
20
274.509163
11
161.099826
21
277.587378
0
LINE
8
boundary
62
5
39
2
10
161.099826
20
277.587378
11
160.573372
21
281.734922
0
LINE
8
boundary
62
5
39
2
10
160.573372
20
281.734922
11
160.488129
21
282.412143
0
LINE
8
boundary
62
5
39
2
10
160.488129
20
282.412143
11
160.303665
21
283.905569
0
LINE
8
boundary
62
5
39
2
10
160.303665
20
283.905569
11
159.892693
21
287.220711
0
LINE
8
boundary
62
5
39
2
10
159.892693
20
287.220711
11
159.705824
21
288.723071
0
LINE
8
boundary
62
5
39
2
10
159.705824
20
288.723071
11
159.630050
21
289.334971
0
LINE
8
boundary
62
5
39
2
10
159.630050
20
289.334971
11
146.104029
21
289.334971
0
LINE
8
boundary
62
5
39
2
10
146.104029
20
289.334971
11
146.104029
21
292.080971
0
LINE
8
boundary
62
5
39
2
10
146.104029
20
292.080971
11
159.260607
21
292.080972
0
LINE
8
boundary
62
5
39
2
10
159.260607
20
292.080972
11
158.930508
21
294.929976
0
LINE
8
boundary
62
5
39
2
10
158.930508
20
294.929976
11
158.490644
21
298.316478
0
LINE
8
boundary
62
5
39
2
10
158.490644
20
298.316478
11
158.120501
21
301.065807
0
LINE
8
boundary
62
5
39
2
10
158.120501
20
301.065807
11
158.015614
21
301.824112
0
LINE
8
boundary
62
5
39
2
10
158.015614
20
301.824112
11
157.630228
21
304.543258
0
LINE
8
boundary
62
5
39
2
10
157.630228
20
304.543258
11
157.386812
21
306.188407
0
LINE
8
boundary
62
5
39
2
10
157.386812
20
306.188407
11
157.288901
21
306.846611
0
LINE
8
boundary
62
5
39
2
10
157.288901
20
306.846611
11
157.124111
21
307.910464
0
LINE
8
boundary
62
5
39
2
10
157.124111
20
307.910464
11
142.619912
21
308.257132
0
LINE
8
boundary
62
5
39
2
10
142.619912
20
308.257132
11
142.619912
21
311.003132
0
LINE
8
boundary
62
5
39
2
10
142.619912
20
311.003132
11
156.593501
21
311.003132
0
LINE
8
boundary
62
5
39
2
10
156.593501
20
311.003132
11
156.184044
21
313.610636
0
LINE
8
boundary
62
5
39
2
10
156.184044
20
313.610636
11
155.775607
21
315.850970
0
LINE
8
boundary
62
5
39
2
10
155.775607
20
315.850970
11
155.497144
21
317.297141
0
LINE
8
boundary
62
5
39
2
10
155.497144
20
317.297141
11
155.355121
21
318.031649
0
LINE
8
boundary
62
5
39
2
10
155.355121
20
318.031649
11
155.134158
21
319.111080
0
LINE
8
boundary
62
5
39
2
10
155.134158
20
319.111080
11
154.914270
21
320.179873
0
LINE
8
boundary
62
5
39
2
10
154.914270
20
320.179873
11
154.753343
21
320.916982
0
LINE
8
boundary
62
5
39
2
10
154.753343
20
320.916982
11
154.452074
21
322.291785
0
LINE
8
boundary
62
5
39
2
10
154.452074
20
322.291785
11
153.999261
21
324.233506
0
LINE
8
boundary
62
5
39
2
10
153.999261
20
324.233506
11
153.461636
21
326.386410
0
LINE
8
boundary
62
5
39
2
10
153.461636
20
326.386410
11
153.248995
21
327.179294
0
LINE
8
boundary
62
5
39
2
10
153.248995
20
327.179294
11
138.684847
21
327.179293
0
LINE
8
boundary
62
5
39
2
10
138.684847
20
327.179293
11
138.684846
21
329.925293
0
LINE
8
boundary
62
5
39
2
10
138.684846
20
329.925293
11
152.425669
21
329.925294
0
LINE
8
boundary
62
5
39
2
10
152.425669
20
329.925294
11
152.112522
21
331.128042
0
LINE
8
boundary
62
5
39
2
10
152.112522
20
331.128042
11
151.793622
21
332.149398
0
LINE
8
boundary
62
5
39
2
10
151.793622
20
332.149398
11
151.306508
21
333.595166
0
LINE
8
boundary
62
5
39
2
10
151.306508
20
333.595166
11
150.663507
21
335.378242
0
LINE
8
boundary
62
5
39
2
10
150.663507
20
335.378242
11
150.199521
21
336.565832
0
LINE
8
boundary
62
5
39
2
10
150.199521
20
336.565832
11
149.881163
21
337.356846
0
LINE
8
boundary
62
5
39
2
10
149.881163
20
337.356846
11
149.230878
21
338.831031
0
LINE
8
boundary
62
5
39
2
10
149.230878
20
338.831031
11
148.950839
21
339.466157
0
LINE
8
boundary
62
5
39
2
10
148.950839
20
339.466157
11
148.717300
21
339.938496
0
LINE
8
boundary
62
5
39
2
10
148.717300
20
339.938496
11
147.970491
21
341.440542
0
LINE
8
boundary
62
5
39
2
10
147.970491
20
341.440542
11
147.250071
21
342.739977
0
LINE
8
boundary
62
5
39
2
10
147.250071
20
342.739977
11
146.948844
21
343.279362
0
LINE
8
boundary
62
5
39
2
10
146.948844
20
343.279362
11
146.393064
21
344.172448
0
LINE
8
boundary
62
5
39
2
10
146.393064
20
344.172448
11
145.890973
21
344.981046
0
LINE
8
boundary
62
5
39
2
10
145.890973
20
344.981046
11
145.556522
21
345.464919
0
LINE
8
boundary
62
5
39
2
10
145.556522
20
345.464919
11
145.216809
21
345.951455
0
LINE
8
boundary
62
5
39
2
10
145.216809
20
345.951455
11
133.365137
21
346.101455
0
LINE
8
boundary
62
5
39
2
10
133.365137
20
346.101455
11
133.365137
21
348.847454
0
LINE
8
boundary
62
5
39
2
10
133.365137
20
348.847454
11
142.782367
21
348.847454
0
LINE
8
boundary
62
5
39
2
10
142.782367
20
348.847454
11
141.680188
21
350.153648
0
LINE
8
boundary
62
5
39
2
10
141.680188
20
350.153648
11
141.001951
21
350.798611
0
LINE
8
boundary
62
5
39
2
10
141.001951
20
350.798611
11
140.242055
21
351.474045
0
LINE
8
boundary
62
5
39
2
10
140.242055
20
351.474045
11
139.799786
21
351.817450
0
LINE
8
boundary
62
5
39
2
10
139.799786
20
351.817450
11
139.075712
21
352.388152
0
LINE
8
boundary
62
5
39
2
10
139.075712
20
352.388152
11
138.109122
21
353.046316
0
LINE
8
boundary
62
5
39
2
10
138.109122
20
353.046316
11
137.331176
21
353.526030
0
LINE
8
boundary
62
5
39
2
10
137.331176
20
353.526030
11
136.747465
21
353.864474
0
LINE
8
boundary
62
5
39
2
10
136.747465
20
353.864474
11
135.596015
21
354.430291
0
LINE
8
boundary
62
5
39
2
10
135.596015
20
354.430291
11
134.460365
21
354.888519
0
LINE
8
boundary
62
5
39
2
10
134.460365
20
354.888519
11
133.885030
21
355.065670
0
LINE
8
boundary
62
5
39
2
10
133.885030
20
355.065670
11
133.346050
21
355.241822
0
LINE
8
annotation
62
1
39
211
10
224.432493
20
7.310088
11
224.772478
21
7.310088
0
LINE
8
annotation
62
1
39
211
10
224.772478
20
7.310088
11
224.772478
21
7.310088
0
LINE
8
annotation
62
1
39
211
10
224.772478
20
7.310088
11
224.833625
21
7.315573
0
LINE
8
annotation
62
1
39
211
10
224.833625
20
7.315573
11
224.891163
21
7.331382
0
LINE
8
annotation
62
1
39
211
10
224.891163
20
7.331382
11
224.944133
21
7.356545
0
LINE
8
annotation
62
1
39
211
10
224.944133
20
7.356545
11
224.991580
21
7.390090
0
LINE
8
annotation
62
1
39
211
10
224.991580
20
7.390090
11
225.032546
21
7.431047
0
LINE
8
annotation
62
1
39
211
10
225.032546
20
7.431047
11
225.066074
21
7.478447
0
LINE
8
annotation
62
1
39
211
10
225.066074
20
7.478447
11
225.091208
21
7.531318
0
LINE
8
annotation
62
1
39
211
10
225.091208
20
7.531318
11
225.106990
21
7.588690
0
LINE
8
annotation
62
1
39
211
10
225.106990
20
7.588690
11
225.112463
21
7.649593
0
LINE
8
annotation
62
1
39
211
10
225.112463
20
7.649593
11
225.112463
21
7.819825
0
LINE
8
annotation
62
1
39
211
10
225.112463
20
7.819825
11
225.112463
21
7.819825
0
LINE
8
annotation
62
1
39
211
10
225.112463
20
7.819825
11
225.106990
21
7.880703
0
LINE
8
annotation
62
1
39
211
10
225.106990
20
7.880703
11
225.091208
21
7.938062
0
LINE
8
annotation
62
1
39
211
10
225.091208
20
7.938062
11
225.066074
21
7.990929
0
LINE
8
annotation
62
1
39
211
10
225.066074
20
7.990929
11
225.032546
21
8.038332
0
LINE
8
annotation
62
1
39
211
10
225.032546
20
8.038332
11
224.991580
21
8.079297
0
LINE
8
annotation
62
1
39
211
10
224.991580
20
8.079297
11
224.944133
21
8.112852
0
LINE
8
annotation
62
1
39
211
10
224.944133
20
8.112852
11
224.891163
21
8.138025
0
LINE
8
annotation
62
1
39
211
10
224.891163
20
8.138025
11
224.833625
21
8.153842
0
LINE
8
annotation
62
1
39
211
10
224.833625
20
8.153842
11
224.772478
21
8.159330
0
LINE
8
annotation
62
1
39
211
10
224.772478
20
8.159330
11
224.602246
21
8.159330
0
LINE
8
annotation
62
1
39
211
10
224.602246
20
8.159330
11
224.772478
21
8.159330
0
LINE
8
annotation
62
1
39
211
10
224.772478
20
8.159330
11
224.772478
21
8.159330
0
LINE
8
annotation
62
1
39
211
10
224.772478
20
8.159330
11
224.833625
21
8.164820
0
LINE
8
annotation
62
1
39
211
10
224.833625
20
8.164820
11
224.891163
21
8.180646
0
LINE
8
annotation
62
1
39
211
10
224.891163
20
8.180646
11
224.944133
21
8.205843
0
LINE
8
annotation
62
1
39
211
10
224.944133
20
8.205843
11
224.991580
21
8.239447
0
LINE
8
annotation
62
1
39
211
10
224.991580
20
8.239447
11
225.032546
21
8.280493
0
LINE
8
annotation
62
1
39
211
10
225.032546
20
8.280493
11
225.066074
21
8.328015
0
LINE
8
annotation
62
1
39
211
10
225.066074
20
8.328015
11
225.091208
21
8.381050
0
LINE
8
annotation
62
1
39
211
10
225.091208
20
8.381050
11
225.106990
21
8.438631
0
LINE
8
annotation
62
1
39
211
10
225.106990
20
8.438631
11
225.112463
21
8.499795
0
LINE
8
annotation
62
1
39
211
10
225.112463
20
8.499795
11
225.112463
21
8.499795
0
LINE
8
annotation
62
1
39
211
10
225.112463
20
8.499795
11
225.106990
21
8.560673
0
LINE
8
annotation
62
1
39
211
10
225.106990
20
8.560673
11
225.091208
21
8.618031
0
LINE
8
annotation
62
1
39
211
10
225.091208
20
8.618031
11
225.066074
21
8.670898
0
LINE
8
annotation
62
1
39
211
10
225.066074
20
8.670898
11
225.032546
21
8.718301
0
LINE
8
annotation
62
1
39
211
10
225.032546
20
8.718301
11
224.991580
21
8.759266
0
LINE
8
annotation
62
1
39
211
10
224.991580
20
8.759266
11
224.944133
21
8.792822
0
LINE
8
annotation
62
1
39
211
10
224.944133
20
8.792822
11
224.891163
21
8.817994
0
LINE
8
annotation
62
1
39
211
10
224.891163
20
8.817994
11
224.833625
21
8.833811
0
LINE
8
annotation
62
1
39
211
10
224.833625
20
8.833811
11
224.772478
21
8.839299
0
LINE
8
annotation
62
1
39
211
10
224.772478
20
8.839299
11
224.432493
21
8.839299
0
LINE
8
annotation
62
1
39
211
10
215.527619
20
24.464820
11
212.862424
21
24.464820
0
LINE
8
annotation
62
1
39
211
10
212.862424
20
24.464820
11
213.926816
21
28.197719
0
LINE
8
annotation
62
1
39
211
10
214.728723
20
23.397719
11
214.728723
21
25.529514
0
LINE
8
annotation
62
1
39
211
10
206.591148
20
42.319880
11
207.657046
21
42.319880
0
LINE
8
annotation
62
1
39
211
10
207.657046
20
42.319880
11
207.657046
21
42.319880
0
LINE
8
annotation
62
1
39
211
10
207.657046
20
42.319880
11
207.848353
21
42.337081
0
LINE
8
annotation
62
1
39
211
10
207.848353
20
42.337081
11
208.028530
21
42.386670
0
LINE
8
annotation
62
1
39
211
10
208.028530
20
42.386670
11
208.194537
21
42.465627
0
LINE
8
annotation
62
1
39
211
10
208.194537
20
42.465627
11
208.343339
21
42.570933
0
LINE
8
annotation
62
1
39
211
10
208.343339
20
42.570933
11
208.471897
21
42.699567
0
LINE
8
annotation
62
1
39
211
10
208.471897
20
42.699567
11
208.577173
21
42.848508
0
LINE
8
annotation
62
1
39
211
10
208.577173
20
42.848508
11
208.656132
21
43.014738
0
LINE
8
annotation
62
1
39
211
10
208.656132
20
43.014738
11
208.705734
21
43.195236
0
LINE
8
annotation
62
1
39
211
10
208.705734
20
43.195236
11
208.722943
21
43.386981
0
LINE
8
annotation
62
1
39
211
10
208.722943
20
43.386981
11
208.722943
21
43.917973
0
LINE
8
annotation
62
1
39
211
10
208.722943
20
43.917973
11
208.722943
21
43.917973
0
LINE
8
annotation
62
1
39
211
10
208.722943
20
43.917973
11
208.705744
21
44.109626
0
LINE
8
annotation
62
1
39
211
10
208.705744
20
44.109626
11
208.656166
21
44.289875
0
LINE
8
annotation
62
1
39
211
10
208.656166
20
44.289875
11
208.577240
21
44.455744
0
LINE
8
annotation
62
1
39
211
10
208.577240
20
44.455744
11
208.471996
21
44.604258
0
LINE
8
annotation
62
1
39
211
10
208.471996
20
44.604258
11
208.343463
21
44.732442
0
LINE
8
annotation
62
1
39
211
10
208.343463
20
44.732442
11
208.194671
21
44.837321
0
LINE
8
annotation
62
1
39
211
10
208.194671
20
44.837321
11
208.028651
21
44.915918
0
LINE
8
annotation
62
1
39
211
10
208.028651
20
44.915918
11
207.848433
21
44.965258
0
LINE
8
annotation
62
1
39
211
10
207.848433
20
44.965258
11
207.657046
21
44.982366
0
LINE
8
annotation
62
1
39
211
10
207.657046
20
44.982366
11
206.591148
21
44.982366
0
LINE
8
annotation
62
1
39
211
10
206.591148
20
44.982366
11
206.591148
21
47.119880
0
LINE
8
annotation
62
1
39
211
10
206.591148
20
47.119880
11
208.722943
21
47.119880
0
LINE
8
annotation
62
1
39
211
10
201.546934
20
66.042041
11
201.546934
21
66.042041
0
LINE
8
annotation
62
1
39
211
10
201.546934
20
66.042041
11
201.241581
21
65.927552
0
LINE
8
annotation
62
1
39
211
10
201.241581
20
65.927552
11
200.961380
21
65.773292
0
LINE
8
annotation
62
1
39
211
10
200.961380
20
65.773292
11
200.709206
21
65.583125
0
LINE
8
annotation
62
1
39
211
10
200.709206
20
65.583125
11
200.487937
21
65.360917
0
LINE
8
annotation
62
1
39
211
10
200.487937
20
65.360917
11
200.300449
21
65.110533
0
LINE
8
annotation
62
1
39
211
10
200.300449
20
65.110533
11
200.149618
21
64.835836
0
LINE
8
annotation
62
1
39
211
10
200.149618
20
64.835836
11
200.038320
21
64.540693
0
LINE
8
annotation
62
1
39
211
10
200.038320
20
64.540693
11
199.969432
21
64.228968
0
LINE
8
annotation
62
1
39
211
10
199.969432
20
64.228968
11
199.945830
21
63.904527
0
LINE
8
annotation
62
1
39
211
10
199.945830
20
63.904527
11
199.945830
21
62.309142
0
LINE
8
annotation
62
1
39
211
10
199.945830
20
62.309142
11
199.945830
21
62.309142
0
LINE
8
annotation
62
1
39
211
10
199.945830
20
62.309142
11
199.963039
21
62.117397
0
LINE
8
annotation
62
1
39
211
10
199.963039
20
62.117397
11
200.012641
21
61.936899
0
LINE
8
annotation
62
1
39
211
10
200.012641
20
61.936899
11
200.091600
21
61.770669
0
LINE
8
annotation
62
1
39
211
10
200.091600
20
61.770669
11
200.196876
21
61.621727
0
LINE
8
annotation
62
1
39
211
10
200.196876
20
61.621727
11
200.325434
21
61.493094
0
LINE
8
annotation
62
1
39
211
10
200.325434
20
61.493094
11
200.474236
21
61.387788
0
LINE
8
annotation
62
1
39
211
10
200.474236
20
61.387788
11
200.640243
21
61.308831
0
LINE
8
annotation
62
1
39
211
10
200.640243
20
61.308831
11
200.820420
21
61.259242
0
LINE
8
annotation
62
1
39
211
10
200.820420
20
61.259242
11
201.011727
21
61.242041
0
LINE
8
annotation
62
1
39
211
10
201.011727
20
61.242041
11
201.011727
21
61.242041
0
LINE
8
annotation
62
1
39
211
10
201.011727
20
61.242041
11
201.203432
21
61.259242
0
LINE
8
annotation
62
1
39
211
10
201.203432
20
61.259242
11
201.383819
21
61.308831
0
LINE
8
annotation
62
1
39
211
10
201.383819
20
61.308831
11
201.549888
21
61.387788
0
LINE
8
annotation
62
1
39
211
10
201.549888
20
61.387788
11
201.698640
21
61.493094
0
LINE
8
annotation
62
1
39
211
10
201.698640
20
61.493094
11
201.827074
21
61.621727
0
LINE
8
annotation
62
1
39
211
10
201.827074
20
61.621727
11
201.932189
21
61.770669
0
LINE
8
annotation
62
1
39
211
10
201.932189
20
61.770669
11
202.010987
21
61.936899
0
LINE
8
annotation
62
1
39
211
10
202.010987
20
61.936899
11
202.060465
21
62.117397
0
LINE
8
annotation
62
1
39
211
10
202.060465
20
62.117397
11
202.077625
21
62.309142
0
LINE
8
annotation
62
1
39
211
10
202.077625
20
62.309142
11
202.077625
21
62.840134
0
LINE
8
annotation
62
1
39
211
10
202.077625
20
62.840134
11
202.077625
21
62.840134
0
LINE
8
annotation
62
1
39
211
10
202.077625
20
62.840134
11
202.060465
21
63.031787
0
LINE
8
annotation
62
1
39
211
10
202.060465
20
63.031787
11
202.010987
21
63.212035
0
LINE
8
annotation
62
1
39
211
10
202.010987
20
63.212035
11
201.932189
21
63.377905
0
LINE
8
annotation
62
1
39
211
10
201.932189
20
63.377905
11
201.827074
21
63.526419
0
LINE
8
annotation
62
1
39
211
10
201.827074
20
63.526419
11
201.698640
21
63.654603
0
LINE
8
annotation
62
1
39
211
10
201.698640
20
63.654603
11
201.549888
21
63.759481
0
LINE
8
annotation
62
1
39
211
10
201.549888
20
63.759481
11
201.383819
21
63.838078
0
LINE
8
annotation
62
1
39
211
10
201.383819
20
63.838078
11
201.203432
21
63.887419
0
LINE
8
annotation
62
1
39
211
10
201.203432
20
63.887419
11
201.011727
21
63.904527
0
LINE
8
annotation
62
1
39
211
10
201.011727
20
63.904527
11
199.945830
21
63.904527
0
LINE
8
annotation
62
1
39
211
10
199.812329
20
60.642041
11
202.212329
21
60.642041
0
LINE
8
annotation
62
1
39
211
10
194.459800
20
80.164202
11
195.526901
21
84.964202
0
LINE
8
annotation
62
1
39
211
10
195.526901
20
84.964202
11
193.392397
21
84.964202
0
LINE
8
annotation
62
1
39
211
10
195.526901
20
82.826687
11
194.459800
21
82.826687
0
LINE
8
annotation
62
1
39
211
10
186.969091
20
100.150604
11
186.969091
21
100.150604
0
LINE
8
annotation
62
1
39
211
10
186.969091
20
100.150604
11
186.986300
21
99.958952
0
LINE
8
annotation
62
1
39
211
10
186.986300
20
99.958952
11
187.035903
21
99.778703
0
LINE
8
annotation
62
1
39
211
10
187.035903
20
99.778703
11
187.114861
21
99.612834
0
LINE
8
annotation
62
1
39
211
10
187.114861
20
99.612834
11
187.220137
21
99.464319
0
LINE
8
annotation
62
1
39
211
10
187.220137
20
99.464319
11
187.348695
21
99.336135
0
LINE
8
annotation
62
1
39
211
10
187.348695
20
99.336135
11
187.497497
21
99.231257
0
LINE
8
annotation
62
1
39
211
10
187.497497
20
99.231257
11
187.663504
21
99.152660
0
LINE
8
annotation
62
1
39
211
10
187.663504
20
99.152660
11
187.843681
21
99.103320
0
LINE
8
annotation
62
1
39
211
10
187.843681
20
99.103320
11
188.034988
21
99.086212
0
LINE
8
annotation
62
1
39
211
10
188.034988
20
99.086212
11
188.034988
21
99.086212
0
LINE
8
annotation
62
1
39
211
10
188.034988
20
99.086212
11
188.226296
21
99.103320
0
LINE
8
annotation
62
1
39
211
10
188.226296
20
99.103320
11
188.406473
21
99.152660
0
LINE
8
annotation
62
1
39
211
10
188.406473
20
99.152660
11
188.572480
21
99.231257
0
LINE
8
annotation
62
1
39
211
10
188.572480
20
99.231257
11
188.721282
21
99.336135
0
LINE
8
annotation
62
1
39
211
10
188.721282
20
99.336135
11
188.849839
21
99.464319
0
LINE
8
annotation
62
1
39
211
10
188.849839
20
99.464319
11
188.955116
21
99.612834
0
LINE
8
annotation
62
1
39
211
10
188.955116
20
99.612834
11
189.034074
21
99.778703
0
LINE
8
annotation
62
1
39
211
10
189.034074
20
99.778703
11
189.083677
21
99.958952
0
LINE
8
annotation
62
1
39
211
10
189.083677
20
99.958952
11
189.100886
21
100.150604
0
LINE
8
annotation
62
1
39
211
10
189.100886
20
100.150604
11
189.100886
21
100.681596
0
LINE
8
annotation
62
1
39
211
10
189.100886
20
100.681596
11
189.100886
21
100.681596
0
LINE
8
annotation
62
1
39
211
10
189.100886
20
100.681596
11
189.083687
21
100.873342
0
LINE
8
annotation
62
1
39
211
10
189.083687
20
100.873342
11
189.034109
21
101.053840
0
LINE
8
annotation
62
1
39
211
10
189.034109
20
101.053840
11
188.955183
21
101.220069
0
LINE
8
annotation
62
1
39
211
10
188.955183
20
101.220069
11
188.849938
21
101.369011
0
LINE
8
annotation
62
1
39
211
10
188.849938
20
101.369011
11
188.721406
21
101.497645
0
LINE
8
annotation
62
1
39
211
10
188.721406
20
101.497645
11
188.572614
21
101.602950
0
LINE
8
annotation
62
1
39
211
10
188.572614
20
101.602950
11
188.406594
21
101.681908
0
LINE
8
annotation
62
1
39
211
10
188.406594
20
101.681908
11
188.226376
21
101.731497
0
LINE
8
annotation
62
1
39
211
10
188.226376
20
101.731497
11
188.034988
21
101.748698
0
LINE
8
annotation
62
1
39
211
10
188.034988
20
101.748698
11
188.034988
21
101.748698
0
LINE
8
annotation
62
1
39
211
10
188.034988
20
101.748698
11
187.843601
21
101.731487
0
LINE
8
annotation
62
1
39
211
10
187.843601
20
101.731487
11
187.663383
21
101.681873
0
LINE
8
annotation
62
1
39
211
10
187.663383
20
101.681873
11
187.497363
21
101.602884
0
LINE
8
annotation
62
1
39
211
10
187.497363
20
101.602884
11
187.348571
21
101.497546
0
LINE
8
annotation
62
1
39
211
10
187.348571
20
101.497546
11
187.220038
21
101.368887
0
LINE
8
annotation
62
1
39
211
10
187.220038
20
101.368887
11
187.114794
21
101.219936
0
LINE
8
annotation
62
1
39
211
10
187.114794
20
101.219936
11
187.035868
21
101.053718
0
LINE
8
annotation
62
1
39
211
10
187.035868
20
101.053718
11
186.986290
21
100.873263
0
LINE
8
annotation
62
1
39
211
10
186.986290
20
100.873263
11
186.969091
21
100.681596
0
LINE
8
annotation
62
1
39
211
10
186.969091
20
100.681596
11
186.969091
21
100.150604
0
LINE
8
annotation
62
1
39
211
10
189.100886
20
102.816100
11
189.100886
21
102.816100
0
LINE
8
annotation
62
1
39
211
10
189.100886
20
102.816100
11
189.083687
21
103.006960
0
LINE
8
annotation
62
1
39
211
10
189.083687
20
103.006960
11
189.034109
21
103.186788
0
LINE
8
annotation
62
1
39
211
10
189.034109
20
103.186788
11
188.955183
21
103.352533
0
LINE
8
annotation
62
1
39
211
10
188.955183
20
103.352533
11
188.849938
21
103.501147
0
LINE
8
annotation
62
1
39
211
10
188.849938
20
103.501147
11
188.721406
21
103.629578
0
LINE
8
annotation
62
1
39
211
10
188.721406
20
103.629578
11
188.572614
21
103.734779
0
LINE
8
annotation
62
1
39
211
10
188.572614
20
103.734779
11
188.406594
21
103.813698
0
LINE
8
annotation
62
1
39
211
10
188.406594
20
103.813698
11
188.226376
21
103.863286
0
LINE
8
annotation
62
1
39
211
10
188.226376
20
103.863286
11
188.034988
21
103.880493
0
LINE
8
annotation
62
1
39
211
10
188.034988
20
103.880493
11
188.034988
21
103.880493
0
LINE
8
annotation
62
1
39
211
10
188.034988
20
103.880493
11
187.843601
21
103.863286
0
LINE
8
annotation
62
1
39
211
10
187.843601
20
103.863286
11
187.663383
21
103.813698
0
LINE
8
annotation
62
1
39
211
10
187.663383
20
103.813698
11
187.497363
21
103.734779
0
LINE
8
annotation
62
1
39
211
10
187.497363
20
103.734779
11
187.348571
21
103.629578
0
LINE
8
annotation
62
1
39
211
10
187.348571
20
103.629578
11
187.220038
21
103.501147
0
LINE
8
annotation
62
1
39
211
10
187.220038
20
103.501147
11
187.114794
21
103.352533
0
LINE
8
annotation
62
1
39
211
10
187.114794
20
103.352533
11
187.035868
21
103.186788
0
LINE
8
annotation
62
1
39
211
10
187.035868
20
103.186788
11
186.986290
21
103.006960
0
LINE
8
annotation
62
1
39
211
10
186.986290
20
103.006960
11
186.969091
21
102.816100
0
LINE
8
annotation
62
1
39
211
10
186.969091
20
102.816100
11
186.969091
21
102.816100
0
LINE
8
annotation
62
1
39
211
10
186.969091
20
102.816100
11
186.986300
21
102.624345
0
LINE
8
annotation
62
1
39
211
10
186.986300
20
102.624345
11
187.035903
21
102.443819
0
LINE
8
annotation
62
1
39
211
10
187.035903
20
102.443819
11
187.114861
21
102.277549
0
LINE
8
annotation
62
1
39
211
10
187.114861
20
102.277549
11
187.220137
21
102.128560
0
LINE
8
annotation
62
1
39
211
10
187.220137
20
102.128560
11
187.348695
21
101.999876
0
LINE
8
annotation
62
1
39
211
10
187.348695
20
101.999876
11
187.497497
21
101.894523
0
LINE
8
annotation
62
1
39
211
10
187.497497
20
101.894523
11
187.663504
21
101.815526
0
LINE
8
annotation
62
1
39
211
10
187.663504
20
101.815526
11
187.843681
21
101.765909
0
LINE
8
annotation
62
1
39
211
10
187.843681
20
101.765909
11
188.034988
21
101.748698
0
LINE
8
annotation
62
1
39
211
10
188.034988
20
101.748698
11
188.034988
21
101.748698
0
LINE
8
annotation
62
1
39
211
10
188.034988
20
101.748698
11
188.226296
21
101.765909
0
LINE
8
annotation
62
1
39
211
10
188.226296
20
101.765909
11
188.406473
21
101.815526
0
LINE
8
annotation
62
1
39
211
10
188.406473
20
101.815526
11
188.572480
21
101.894523
0
LINE
8
annotation
62
1
39
211
10
188.572480
20
101.894523
11
188.721282
21
101.999876
0
LINE
8
annotation
62
1
39
211
10
188.721282
20
101.999876
11
188.849839
21
102.128560
0
LINE
8
annotation
62
1
39
211
10
188.849839
20
102.128560
11
188.955116
21
102.277549
0
LINE
8
annotation
62
1
39
211
10
188.955116
20
102.277549
11
189.034074
21
102.443819
0
LINE
8
annotation
62
1
39
211
10
189.034074
20
102.443819
11
189.083677
21
102.624345
0
LINE
8
annotation
62
1
39
211
10
189.083677
20
102.624345
11
189.100886
21
102.816100
0
LINE
8
annotation
62
1
39
211
10
181.325122
20
118.008523
11
181.325122
21
118.008523
0
LINE
8
annotation
62
1
39
211
10
181.325122
20
118.008523
11
181.629937
21
118.122112
0
LINE
8
annotation
62
1
39
211
10
181.629937
20
118.122112
11
181.909719
21
118.275649
0
LINE
8
annotation
62
1
39
211
10
181.909719
20
118.275649
11
182.161578
21
118.465220
0
LINE
8
annotation
62
1
39
211
10
182.161578
20
118.465220
11
182.382622
21
118.686915
0
LINE
8
annotation
62
1
39
211
10
182.382622
20
118.686915
11
182.569959
21
118.936821
0
LINE
8
annotation
62
1
39
211
10
182.569959
20
118.936821
11
182.720698
21
119.211026
0
LINE
8
annotation
62
1
39
211
10
182.720698
20
119.211026
11
182.831949
21
119.505619
0
LINE
8
annotation
62
1
39
211
10
182.831949
20
119.505619
11
182.900820
21
119.816687
0
LINE
8
annotation
62
1
39
211
10
182.900820
20
119.816687
11
182.924419
21
120.140318
0
LINE
8
annotation
62
1
39
211
10
182.924419
20
120.140318
11
182.924419
21
121.741121
0
LINE
8
annotation
62
1
39
211
10
182.924419
20
121.741121
11
182.924419
21
121.741121
0
LINE
8
annotation
62
1
39
211
10
182.924419
20
121.741121
11
182.907260
21
121.932877
0
LINE
8
annotation
62
1
39
211
10
182.907260
20
121.932877
11
182.857781
21
122.113402
0
LINE
8
annotation
62
1
39
211
10
182.857781
20
122.113402
11
182.778984
21
122.279672
0
LINE
8
annotation
62
1
39
211
10
182.778984
20
122.279672
11
182.673868
21
122.428661
0
LINE
8
annotation
62
1
39
211
10
182.673868
20
122.428661
11
182.545434
21
122.557345
0
LINE
8
annotation
62
1
39
211
10
182.545434
20
122.557345
11
182.396683
21
122.662698
0
LINE
8
annotation
62
1
39
211
10
182.396683
20
122.662698
11
182.230613
21
122.741695
0
LINE
8
annotation
62
1
39
211
10
182.230613
20
122.741695
11
182.050226
21
122.791312
0
LINE
8
annotation
62
1
39
211
10
182.050226
20
122.791312
11
181.858522
21
122.808523
0
LINE
8
annotation
62
1
39
211
10
181.858522
20
122.808523
11
181.858522
21
122.808523
0
LINE
8
annotation
62
1
39
211
10
181.858522
20
122.808523
11
181.667214
21
122.791312
0
LINE
8
annotation
62
1
39
211
10
181.667214
20
122.791312
11
181.487038
21
122.741695
0
LINE
8
annotation
62
1
39
211
10
181.487038
20
122.741695
11
181.321030
21
122.662698
0
LINE
8
annotation
62
1
39
211
10
181.321030
20
122.662698
11
181.172229
21
122.557345
0
LINE
8
annotation
62
1
39
211
10
181.172229
20
122.557345
11
181.043671
21
122.428661
0
LINE
8
annotation
62
1
39
211
10
181.043671
20
122.428661
11
180.938394
21
122.279672
0
LINE
8
annotation
62
1
39
211
10
180.938394
20
122.279672
11
180.859436
21
122.113402
0
LINE
8
annotation
62
1
39
211
10
180.859436
20
122.113402
11
180.809834
21
121.932877
0
LINE
8
annotation
62
1
39
211
10
180.809834
20
121.932877
11
180.792624
21
121.741121
0
LINE
8
annotation
62
1
39
211
10
180.792624
20
121.741121
11
180.792624
21
121.207420
0
LINE
8
annotation
62
1
39
211
10
180.792624
20
121.207420
11
180.792624
21
121.207420
0
LINE
8
annotation
62
1
39
211
10
180.792624
20
121.207420
11
180.809834
21
121.015674
0
LINE
8
annotation
62
1
39
211
10
180.809834
20
121.015674
11
180.859436
21
120.835176
0
LINE
8
annotation
62
1
39
211
10
180.859436
20
120.835176
11
180.938394
21
120.668947
0
LINE
8
annotation
62
1
39
211
10
180.938394
20
120.668947
11
181.043671
21
120.520005
0
LINE
8
annotation
62
1
39
211
10
181.043671
20
120.520005
11
181.172229
21
120.391371
0
LINE
8
annotation
62
1
39
211
10
181.172229
20
120.391371
11
181.321030
21
120.286066
0
LINE
8
annotation
62
1
39
211
10
181.321030
20
120.286066
11
181.487038
21
120.207108
0
LINE
8
annotation
62
1
39
211
10
181.487038
20
120.207108
11
181.667214
21
120.157519
0
LINE
8
annotation
62
1
39
211
10
181.667214
20
120.157519
11
181.858522
21
120.140318
0
LINE
8
annotation
62
1
39
211
10
181.858522
20
120.140318
11
182.924419
21
120.140318
0
LINE
8
annotation
62
1
39
211
10
180.659425
20
117.408523
11
183.059425
21
117.408523
0
LINE
8
annotation
62
1
39
211
10
174.548333
20
137.021824
11
174.548333
21
141.639544
0
LINE
8
annotation
62
1
39
211
10
174.548333
20
141.639544
11
173.521754
21
140.612676
0
LINE
8
annotation
62
1
39
211
10
177.021561
20
137.082734
11
177.021561
21
137.082734
0
LINE
8
annotation
62
1
39
211
10
177.021561
20
137.082734
11
177.128883
21
137.042614
0
LINE
8
annotation
62
1
39
211
10
177.128883
20
137.042614
11
177.238950
21
137.022682
0
LINE
8
annotation
62
1
39
211
10
177.238950
20
137.022682
11
177.349275
21
137.022125
0
LINE
8
annotation
62
1
39
211
10
177.349275
20
137.022125
11
177.457369
21
137.040129
0
LINE
8
annotation
62
1
39
211
10
177.457369
20
137.040129
11
177.560743
21
137.075883
0
LINE
8
annotation
62
1
39
211
10
177.560743
20
137.075883
11
177.656911
21
137.128574
0
LINE
8
annotation
62
1
39
211
10
177.656911
20
137.128574
11
177.743382
21
137.197388
0
LINE
8
annotation
62
1
39
211
10
177.743382
20
137.197388
11
177.817669
21
137.281514
0
LINE
8
annotation
62
1
39
211
10
177.817669
20
137.281514
11
177.877285
21
137.380137
0
LINE
8
annotation
62
1
39
211
10
177.877285
20
137.380137
11
177.877285
21
137.380137
0
LINE
8
annotation
62
1
39
211
10
177.877285
20
137.380137
11
178.055154
21
137.796484
0
LINE
8
annotation
62
1
39
211
10
178.055154
20
137.796484
11
178.188556
21
138.224882
0
LINE
8
annotation
62
1
39
211
10
178.188556
20
138.224882
11
178.277491
21
138.661915
0
LINE
8
annotation
62
1
39
211
10
178.277491
20
138.661915
11
178.321958
21
139.104167
0
LINE
8
annotation
62
1
39
211
10
178.321958
20
139.104167
11
178.321958
21
139.548224
0
LINE
8
annotation
62
1
39
211
10
178.321958
20
139.548224
11
178.277491
21
139.990670
0
LINE
8
annotation
62
1
39
211
10
178.277491
20
139.990670
11
178.188556
21
140.428088
0
LINE
8
annotation
62
1
39
211
10
178.188556
20
140.428088
11
178.055154
21
140.857065
0
LINE
8
annotation
62
1
39
211
10
178.055154
20
140.857065
11
177.877285
21
141.274185
0
LINE
8
annotation
62
1
39
211
10
177.877285
20
141.274185
11
177.877285
21
141.274185
0
LINE
8
annotation
62
1
39
211
10
177.877285
20
141.274185
11
177.854665
21
141.316281
0
LINE
8
annotation
62
1
39
211
10
177.854665
20
141.316281
11
177.829021
21
141.356528
0
LINE
8
annotation
62
1
39
211
10
177.829021
20
141.356528
11
177.800545
21
141.394727
0
LINE
8
annotation
62
1
39
211
10
177.800545
20
141.394727
11
177.769430
21
141.430681
0
LINE
8
annotation
62
1
39
211
10
177.769430
20
141.430681
11
177.735871
21
141.464192
0
LINE
8
annotation
62
1
39
211
10
177.735871
20
141.464192
11
177.700059
21
141.495063
0
LINE
8
annotation
62
1
39
211
10
177.700059
20
141.495063
11
177.662187
21
141.523095
0
LINE
8
annotation
62
1
39
211
10
177.662187
20
141.523095
11
177.622450
21
141.548090
0
LINE
8
annotation
62
1
39
211
10
177.622450
20
141.548090
11
177.581039
21
141.569851
0
LINE
8
annotation
62
1
39
211
10
177.581039
20
141.569851
11
177.581039
21
141.569851
0
LINE
8
annotation
62
1
39
211
10
177.581039
20
141.569851
11
177.472866
21
141.610840
0
LINE
8
annotation
62
1
39
211
10
177.472866
20
141.610840
11
177.362154
21
141.631453
0
LINE
8
annotation
62
1
39
211
10
177.362154
20
141.631453
11
177.251363
21
141.632508
0
LINE
8
annotation
62
1
39
211
10
177.251363
20
141.632508
11
177.142954
21
141.614823
0
LINE
8
annotation
62
1
39
211
10
177.142954
20
141.614823
11
177.039385
21
141.579214
0
LINE
8
annotation
62
1
39
211
10
177.039385
20
141.579214
11
176.943116
21
141.526499
0
LINE
8
annotation
62
1
39
211
10
176.943116
20
141.526499
11
176.856608
21
141.457496
0
LINE
8
annotation
62
1
39
211
10
176.856608
20
141.457496
11
176.782319
21
141.373022
0
LINE
8
annotation
62
1
39
211
10
176.782319
20
141.373022
11
176.722710
21
141.273895
0
LINE
8
annotation
62
1
39
211
10
176.722710
20
141.273895
11
176.722710
21
141.273895
0
LINE
8
annotation
62
1
39
211
10
176.722710
20
141.273895
11
176.545699
21
140.857634
0
LINE
8
annotation
62
1
39
211
10
176.545699
20
140.857634
11
176.412940
21
140.429300
0
LINE
8
annotation
62
1
39
211
10
176.412940
20
140.429300
11
176.324434
21
139.992311
0
LINE
8
annotation
62
1
39
211
10
176.324434
20
139.992311
11
176.280181
21
139.550080
0
LINE
8
annotation
62
1
39
211
10
176.280181
20
139.550080
11
176.280181
21
139.106023
0
LINE
8
annotation
62
1
39
211
10
176.280181
20
139.106023
11
176.324434
21
138.663556
0
LINE
8
annotation
62
1
39
211
10
176.324434
20
138.663556
11
176.412940
21
138.226094
0
LINE
8
annotation
62
1
39
211
10
176.412940
20
138.226094
11
176.545699
21
137.797053
0
LINE
8
annotation
62
1
39
211
10
176.545699
20
137.797053
11
176.722710
21
137.379848
0
LINE
8
annotation
62
1
39
211
10
176.722710
20
137.379848
11
176.722710
21
137.379848
0
LINE
8
annotation
62
1
39
211
10
176.722710
20
137.379848
11
176.745247
21
137.337835
0
LINE
8
annotation
62
1
39
211
10
176.745247
20
137.337835
11
176.770702
21
137.297789
0
LINE
8
annotation
62
1
39
211
10
176.770702
20
137.297789
11
176.798967
21
137.259831
0
LINE
8
annotation
62
1
39
211
10
176.798967
20
137.259831
11
176.829935
21
137.224082
0
LINE
8
annotation
62
1
39
211
10
176.829935
20
137.224082
11
176.863498
21
137.190664
0
LINE
8
annotation
62
1
39
211
10
176.863498
20
137.190664
11
176.899550
21
137.159699
0
LINE
8
annotation
62
1
39
211
10
176.899550
20
137.159699
11
176.937982
21
137.131308
0
LINE
8
annotation
62
1
39
211
10
176.937982
20
137.131308
11
176.978689
21
137.105612
0
LINE
8
annotation
62
1
39
211
10
176.978689
20
137.105612
11
177.021561
21
137.082734
0
LINE
8
annotation
62
1
39
211
10
169.310043
20
155.852845
11
169.310043
21
160.652845
0
LINE
8
annotation
62
1
39
211
10
169.310043
20
160.652845
11
168.242941
21
159.585443
0
LINE
8
annotation
62
1
39
211
10
172.177144
20
155.852845
11
172.177144
21
160.652845
0
LINE
8
annotation
62
1
39
211
10
172.177144
20
160.652845
11
171.110043
21
159.585443
0
LINE
8
annotation
62
1
39
211
10
163.416564
20
174.870831
11
163.416564
21
179.479181
0
LINE
8
annotation
62
1
39
211
10
163.416564
20
179.479181
11
162.392069
21
178.454397
0
LINE
8
annotation
62
1
39
211
10
167.191577
20
174.870794
11
165.144899
21
174.870794
0
LINE
8
annotation
62
1
39
211
10
165.144899
20
174.870794
11
167.036096
21
177.915379
0
LINE
8
annotation
62
1
39
211
10
167.036096
20
177.915379
11
167.036096
21
177.915379
0
LINE
8
annotation
62
1
39
211
10
167.036096
20
177.915379
11
167.038357
21
177.918177
0
LINE
8
annotation
62
1
39
211
10
167.038357
20
177.918177
11
167.040525
21
177.920998
0
LINE
8
annotation
62
1
39
211
10
167.040525
20
177.920998
11
167.042615
21
177.923867
0
LINE
8
annotation
62
1
39
211
10
167.042615
20
177.923867
11
167.044640
21
177.926808
0
LINE
8
annotation
62
1
39
211
10
167.044640
20
177.926808
11
167.046616
21
177.929843
0
LINE
8
annotation
62
1
39
211
10
167.046616
20
177.929843
11
167.048555
21
177.932998
0
LINE
8
annotation
62
1
39
211
10
167.048555
20
177.932998
11
167.050474
21
177.936295
0
LINE
8
annotation
62
1
39
211
10
167.050474
20
177.936295
11
167.052385
21
177.939758
0
LINE
8
annotation
62
1
39
211
10
167.052385
20
177.939758
11
167.054303
21
177.943412
0
LINE
8
annotation
62
1
39
211
10
167.054303
20
177.943412
11
167.054303
21
177.943412
0
LINE
8
annotation
62
1
39
211
10
167.054303
20
177.943412
11
167.132390
21
178.111072
0
LINE
8
annotation
62
1
39
211
10
167.132390
20
178.111072
11
167.178007
21
178.284866
0
LINE
8
annotation
62
1
39
211
10
167.178007
20
178.284866
11
167.192273
21
178.460867
0
LINE
8
annotation
62
1
39
211
10
167.192273
20
178.460867
11
167.176304
21
178.635149
0
LINE
8
annotation
62
1
39
211
10
167.176304
20
178.635149
11
167.131218
21
178.803783
0
LINE
8
annotation
62
1
39
211
10
167.131218
20
178.803783
11
167.058135
21
178.962844
0
LINE
8
annotation
62
1
39
211
10
167.058135
20
178.962844
11
166.958171
21
179.108405
0
LINE
8
annotation
62
1
39
211
10
166.958171
20
179.108405
11
166.832445
21
179.236537
0
LINE
8
annotation
62
1
39
211
10
166.832445
20
179.236537
11
166.682075
21
179.343315
0
LINE
8
annotation
62
1
39
211
10
166.682075
20
179.343315
11
166.682075
21
179.343315
0
LINE
8
annotation
62
1
39
211
10
166.682075
20
179.343315
11
166.513949
21
179.420292
0
LINE
8
annotation
62
1
39
211
10
166.513949
20
179.420292
11
166.339889
21
179.465206
0
LINE
8
annotation
62
1
39
211
10
166.339889
20
179.465206
11
166.163785
21
179.479068
0
LINE
8
annotation
62
1
39
211
10
166.163785
20
179.479068
11
165.989530
21
179.462889
0
LINE
8
annotation
62
1
39
211
10
165.989530
20
179.462889
11
165.821014
21
179.417679
0
LINE
8
annotation
62
1
39
211
10
165.821014
20
179.417679
11
165.662129
21
179.344449
0
LINE
8
annotation
62
1
39
211
10
165.662129
20
179.344449
11
165.516766
21
179.244211
0
LINE
8
annotation
62
1
39
211
10
165.516766
20
179.244211
11
165.388817
21
179.117975
0
LINE
8
annotation
62
1
39
211
10
165.388817
20
179.117975
11
165.282172
21
178.966751
0
LINE
8
annotation
62
1
39
211
10
165.282172
20
178.966751
11
165.147789
21
178.708966
0
LINE
8
annotation
62
1
39
211
10
158.398325
20
193.792658
11
158.398325
21
198.401676
0
LINE
8
annotation
62
1
39
211
10
158.398325
20
198.401676
11
157.373681
21
197.376743
0
LINE
8
annotation
62
1
39
211
10
160.126562
20
193.792803
11
161.150049
21
193.792803
0
LINE
8
annotation
62
1
39
211
10
161.150049
20
193.792803
11
161.150049
21
193.792803
0
LINE
8
annotation
62
1
39
211
10
161.150049
20
193.792803
11
161.334126
21
193.809316
0
LINE
8
annotation
62
1
39
211
10
161.334126
20
193.809316
11
161.507336
21
193.856907
0
LINE
8
annotation
62
1
39
211
10
161.507336
20
193.856907
11
161.666798
21
193.932655
0
LINE
8
annotation
62
1
39
211
10
161.666798
20
193.932655
11
161.809631
21
194.033639
0
LINE
8
annotation
62
1
39
211
10
161.809631
20
194.033639
11
161.932955
21
194.156937
0
LINE
8
annotation
62
1
39
211
10
161.932955
20
194.156937
11
162.033888
21
194.299628
0
LINE
8
annotation
62
1
39
211
10
162.033888
20
194.299628
11
162.109550
21
194.458790
0
LINE
8
annotation
62
1
39
211
10
162.109550
20
194.458790
11
162.157060
21
194.631503
0
LINE
8
annotation
62
1
39
211
10
162.157060
20
194.631503
11
162.173537
21
194.814845
0
LINE
8
annotation
62
1
39
211
10
162.173537
20
194.814845
11
162.173537
21
195.327311
0
LINE
8
annotation
62
1
39
211
10
162.173537
20
195.327311
11
162.173537
21
195.327311
0
LINE
8
annotation
62
1
39
211
10
162.173537
20
195.327311
11
162.157060
21
195.510577
0
LINE
8
annotation
62
1
39
211
10
162.157060
20
195.510577
11
162.109550
21
195.683250
0
LINE
8
annotation
62
1
39
211
10
162.109550
20
195.683250
11
162.033888
21
195.842400
0
LINE
8
annotation
62
1
39
211
10
162.033888
20
195.842400
11
161.932955
21
195.985101
0
LINE
8
annotation
62
1
39
211
10
161.932955
20
195.985101
11
161.809631
21
196.108423
0
LINE
8
annotation
62
1
39
211
10
161.809631
20
196.108423
11
161.666798
21
196.209437
0
LINE
8
annotation
62
1
39
211
10
161.666798
20
196.209437
11
161.507336
21
196.285216
0
LINE
8
annotation
62
1
39
211
10
161.507336
20
196.285216
11
161.334126
21
196.332831
0
LINE
8
annotation
62
1
39
211
10
161.334126
20
196.332831
11
161.150049
21
196.349354
0
LINE
8
annotation
62
1
39
211
10
161.150049
20
196.349354
11
160.637583
21
196.349354
0
LINE
8
annotation
62
1
39
211
10
160.637583
20
196.349354
11
161.150049
21
196.349354
0
LINE
8
annotation
62
1
39
211
10
161.150049
20
196.349354
11
161.150049
21
196.349354
0
LINE
8
annotation
62
1
39
211
10
161.150049
20
196.349354
11
161.334126
21
196.365880
0
LINE
8
annotation
62
1
39
211
10
161.334126
20
196.365880
11
161.507336
21
196.413523
0
LINE
8
annotation
62
1
39
211
10
161.507336
20
196.413523
11
161.666798
21
196.489377
0
LINE
8
annotation
62
1
39
211
10
161.666798
20
196.489377
11
161.809631
21
196.590538
0
LINE
8
annotation
62
1
39
211
10
161.809631
20
196.590538
11
161.932955
21
196.714102
0
LINE
8
annotation
62
1
39
211
10
161.932955
20
196.714102
11
162.033888
21
196.857163
0
LINE
8
annotation
62
1
39
211
10
162.033888
20
196.857163
11
162.109550
21
197.016817
0
LINE
8
annotation
62
1
39
211
10
162.109550
20
197.016817
11
162.157060
21
197.190160
0
LINE
8
annotation
62
1
39
211
10
162.157060
20
197.190160
11
162.173537
21
197.374286
0
LINE
8
annotation
62
1
39
211
10
162.173537
20
197.374286
11
162.173537
21
197.374286
0
LINE
8
annotation
62
1
39
211
10
162.173537
20
197.374286
11
162.157060
21
197.557552
0
LINE
8
annotation
62
1
39
211
10
162.157060
20
197.557552
11
162.109550
21
197.730225
0
LINE
8
annotation
62
1
39
211
10
162.109550
20
197.730225
11
162.033888
21
197.889375
0
LINE
8
annotation
62
1
39
211
10
162.033888
20
197.889375
11
161.932955
21
198.032076
0
LINE
8
annotation
62
1
39
211
10
161.932955
20
198.032076
11
161.809631
21
198.155398
0
LINE
8
annotation
62
1
39
211
10
161.809631
20
198.155398
11
161.666798
21
198.256412
0
LINE
8
annotation
62
1
39
211
10
161.666798
20
198.256412
11
161.507336
21
198.332191
0
LINE
8
annotation
62
1
39
211
10
161.507336
20
198.332191
11
161.334126
21
198.379806
0
LINE
8
annotation
62
1
39
211
10
161.334126
20
198.379806
11
161.150049
21
198.396328
0
LINE
8
annotation
62
1
39
211
10
161.150049
20
198.396328
11
160.126562
21
198.396328
0
LINE
8
annotation
62
1
39
211
10
153.733725
20
212.937010
11
153.733725
21
217.101646
0
LINE
8
annotation
62
1
39
211
10
153.733725
20
217.101646
11
152.807873
21
216.175533
0
LINE
8
annotation
62
1
39
211
10
157.607743
20
213.862862
11
155.295333
21
213.862862
0
LINE
8
annotation
62
1
39
211
10
155.295333
20
213.862862
11
156.218835
21
217.101646
0
LINE
8
annotation
62
1
39
211
10
156.914595
20
212.937010
11
156.914595
21
214.786624
0
LINE
8
annotation
62
1
39
211
10
149.619199
20
231.636980
11
149.619199
21
236.245998
0
LINE
8
annotation
62
1
39
211
10
149.619199
20
236.245998
11
148.594555
21
235.221065
0
LINE
8
annotation
62
1
39
211
10
151.347436
20
231.636980
11
152.370924
21
231.636980
0
LINE
8
annotation
62
1
39
211
10
152.370924
20
231.636980
11
152.370924
21
231.636980
0
LINE
8
annotation
62
1
39
211
10
152.370924
20
231.636980
11
152.554620
21
231.653497
0
LINE
8
annotation
62
1
39
211
10
152.554620
20
231.653497
11
152.727627
21
231.701113
0
LINE
8
annotation
62
1
39
211
10
152.727627
20
231.701113
11
152.887030
21
231.776929
0
LINE
8
annotation
62
1
39
211
10
152.887030
20
231.776929
11
153.029910
21
231.878044
0
LINE
8
annotation
62
1
39
211
10
153.029910
20
231.878044
11
153.153353
21
232.001560
0
LINE
8
annotation
62
1
39
211
10
153.153353
20
232.001560
11
153.254441
21
232.144576
0
LINE
8
annotation
62
1
39
211
10
153.254441
20
232.144576
11
153.330258
21
232.304191
0
LINE
8
annotation
62
1
39
211
10
153.330258
20
232.304191
11
153.377887
21
232.477507
0
LINE
8
annotation
62
1
39
211
10
153.377887
20
232.477507
11
153.394411
21
232.661624
0
LINE
8
annotation
62
1
39
211
10
153.394411
20
232.661624
11
153.394411
21
233.171489
0
LINE
8
annotation
62
1
39
211
10
153.394411
20
233.171489
11
153.394411
21
233.171489
0
LINE
8
annotation
62
1
39
211
10
153.394411
20
233.171489
11
153.377896
21
233.355516
0
LINE
8
annotation
62
1
39
211
10
153.377896
20
233.355516
11
153.330291
21
233.528593
0
LINE
8
annotation
62
1
39
211
10
153.330291
20
233.528593
11
153.254505
21
233.687862
0
LINE
8
annotation
62
1
39
211
10
153.254505
20
233.687862
11
153.153448
21
233.830468
0
LINE
8
annotation
62
1
39
211
10
153.153448
20
233.830468
11
153.030029
21
233.953552
0
LINE
8
annotation
62
1
39
211
10
153.030029
20
233.953552
11
152.887158
21
234.054257
0
LINE
8
annotation
62
1
39
211
10
152.887158
20
234.054257
11
152.727744
21
234.129727
0
LINE
8
annotation
62
1
39
211
10
152.727744
20
234.129727
11
152.554696
21
234.177104
0
LINE
8
annotation
62
1
39
211
10
152.554696
20
234.177104
11
152.370924
21
234.193531
0
LINE
8
annotation
62
1
39
211
10
152.370924
20
234.193531
11
151.347436
21
234.193531
0
LINE
8
annotation
62
1
39
211
10
151.347436
20
234.193531
11
151.347436
21
236.245998
0
LINE
8
annotation
62
1
39
211
10
151.347436
20
236.245998
11
153.394411
21
236.245998
0
LINE
8
annotation
62
1
39
211
10
145.666830
20
250.559141
11
145.666830
21
255.168158
0
LINE
8
annotation
62
1
39
211
10
145.666830
20
255.168158
11
144.642187
21
254.143226
0
LINE
8
annotation
62
1
39
211
10
148.932466
20
255.168158
11
148.932466
21
255.168158
0
LINE
8
annotation
62
1
39
211
10
148.932466
20
255.168158
11
148.639263
21
255.058225
0
LINE
8
annotation
62
1
39
211
10
148.639263
20
255.058225
11
148.370210
21
254.910102
0
LINE
8
annotation
62
1
39
211
10
148.370210
20
254.910102
11
148.128070
21
254.727502
0
LINE
8
annotation
62
1
39
211
10
148.128070
20
254.727502
11
147.915605
21
254.514135
0
LINE
8
annotation
62
1
39
211
10
147.915605
20
254.514135
11
147.735577
21
254.273713
0
LINE
8
annotation
62
1
39
211
10
147.735577
20
254.273713
11
147.590747
21
254.009947
0
LINE
8
annotation
62
1
39
211
10
147.590747
20
254.009947
11
147.483877
21
253.726547
0
LINE
8
annotation
62
1
39
211
10
147.483877
20
253.726547
11
147.417730
21
253.427225
0
LINE
8
annotation
62
1
39
211
10
147.417730
20
253.427225
11
147.395067
21
253.115692
0
LINE
8
annotation
62
1
39
211
10
147.395067
20
253.115692
11
147.395067
21
251.583785
0
LINE
8
annotation
62
1
39
211
10
147.395067
20
251.583785
11
147.395067
21
251.583785
0
LINE
8
annotation
62
1
39
211
10
147.395067
20
251.583785
11
147.411592
21
251.399668
0
LINE
8
annotation
62
1
39
211
10
147.411592
20
251.399668
11
147.459220
21
251.226352
0
LINE
8
annotation
62
1
39
211
10
147.459220
20
251.226352
11
147.535037
21
251.066736
0
LINE
8
annotation
62
1
39
211
10
147.535037
20
251.066736
11
147.636125
21
250.923721
0
LINE
8
annotation
62
1
39
211
10
147.636125
20
250.923721
11
147.759568
21
250.800205
0
LINE
8
annotation
62
1
39
211
10
147.759568
20
250.800205
11
147.902448
21
250.699089
0
LINE
8
annotation
62
1
39
211
10
147.902448
20
250.699089
11
148.061851
21
250.623274
0
LINE
8
annotation
62
1
39
211
10
148.061851
20
250.623274
11
148.234859
21
250.575657
0
LINE
8
annotation
62
1
39
211
10
148.234859
20
250.575657
11
148.418555
21
250.559141
0
LINE
8
annotation
62
1
39
211
10
148.418555
20
250.559141
11
148.418555
21
250.559141
0
LINE
8
annotation
62
1
39
211
10
148.418555
20
250.559141
11
148.602631
21
250.575657
0
LINE
8
annotation
62
1
39
211
10
148.602631
20
250.575657
11
148.775841
21
250.623274
0
LINE
8
annotation
62
1
39
211
10
148.775841
20
250.623274
11
148.935303
21
250.699089
0
LINE
8
annotation
62
1
39
211
10
148.935303
20
250.699089
11
149.078136
21
250.800205
0
LINE
8
annotation
62
1
39
211
10
149.078136
20
250.800205
11
149.201460
21
250.923721
0
LINE
8
annotation
62
1
39
211
10
149.201460
20
250.923721
11
149.302393
21
251.066736
0
LINE
8
annotation
62
1
39
211
10
149.302393
20
251.066736
11
149.378055
21
251.226352
0
LINE
8
annotation
62
1
39
211
10
149.378055
20
251.226352
11
149.425565
21
251.399668
0
LINE
8
annotation
62
1
39
211
10
149.425565
20
251.399668
11
149.442042
21
251.583785
0
LINE
8
annotation
62
1
39
211
10
149.442042
20
251.583785
11
149.442042
21
252.093650
0
LINE
8
annotation
62
1
39
211
10
149.442042
20
252.093650
11
149.442042
21
252.093650
0
LINE
8
annotation
62
1
39
211
10
149.442042
20
252.093650
11
149.425565
21
252.277677
0
LINE
8
annotation
62
1
39
211
10
149.425565
20
252.277677
11
149.378055
21
252.450754
0
LINE
8
annotation
62
1
39
211
10
149.378055
20
252.450754
11
149.302393
21
252.610023
0
LINE
8
annotation
62
1
39
211
10
149.302393
20
252.610023
11
149.201460
21
252.752629
0
LINE
8
annotation
62
1
39
211
10
149.201460
20
252.752629
11
149.078136
21
252.875712
0
LINE
8
annotation
62
1
39
211
10
149.078136
20
252.875712
11
148.935303
21
252.976418
0
LINE
8
annotation
62
1
39
211
10
148.935303
20
252.976418
11
148.775841
21
253.051888
0
LINE
8
annotation
62
1
39
211
10
148.775841
20
253.051888
11
148.602631
21
253.099265
0
LINE
8
annotation
62
1
39
211
10
148.602631
20
253.099265
11
148.418555
21
253.115692
0
LINE
8
annotation
62
1
39
211
10
148.418555
20
253.115692
11
147.395067
21
253.115692
0
LINE
8
annotation
62
1
39
211
10
147.266878
20
249.983014
11
149.571387
21
249.983014
0
LINE
8
annotation
62
1
39
211
10
142.007343
20
269.482550
11
142.007343
21
274.089071
0
LINE
8
annotation
62
1
39
211
10
142.007343
20
274.089071
11
140.983254
21
273.064694
0
LINE
8
annotation
62
1
39
211
10
144.758877
20
269.482550
11
145.782965
21
274.089071
0
LINE
8
annotation
62
1
39
211
10
145.782965
20
274.089071
11
143.734499
21
274.089071
0
LINE
8
annotation
62
1
39
211
10
145.782965
20
272.037716
11
144.758877
21
272.037716
0
LINE
8
annotation
62
1
39
211
10
138.601239
20
288.403463
11
138.601239
21
293.012480
0
LINE
8
annotation
62
1
39
211
10
138.601239
20
293.012480
11
137.576595
21
291.987548
0
LINE
8
annotation
62
1
39
211
10
140.329476
20
289.425361
11
140.329476
21
289.425361
0
LINE
8
annotation
62
1
39
211
10
140.329476
20
289.425361
11
140.346000
21
289.241333
0
LINE
8
annotation
62
1
39
211
10
140.346000
20
289.241333
11
140.393629
21
289.068256
0
LINE
8
annotation
62
1
39
211
10
140.393629
20
289.068256
11
140.469446
21
288.908987
0
LINE
8
annotation
62
1
39
211
10
140.469446
20
288.908987
11
140.570533
21
288.766382
0
LINE
8
annotation
62
1
39
211
10
140.570533
20
288.766382
11
140.693976
21
288.643298
0
LINE
8
annotation
62
1
39
211
10
140.693976
20
288.643298
11
140.836857
21
288.542592
0
LINE
8
annotation
62
1
39
211
10
140.836857
20
288.542592
11
140.996260
21
288.467123
0
LINE
8
annotation
62
1
39
211
10
140.996260
20
288.467123
11
141.169267
21
288.419746
0
LINE
8
annotation
62
1
39
211
10
141.169267
20
288.419746
11
141.352963
21
288.403318
0
LINE
8
annotation
62
1
39
211
10
141.352963
20
288.403318
11
141.352963
21
288.403318
0
LINE
8
annotation
62
1
39
211
10
141.352963
20
288.403318
11
141.536659
21
288.419746
0
LINE
8
annotation
62
1
39
211
10
141.536659
20
288.419746
11
141.709667
21
288.467123
0
LINE
8
annotation
62
1
39
211
10
141.709667
20
288.467123
11
141.869069
21
288.542592
0
LINE
8
annotation
62
1
39
211
10
141.869069
20
288.542592
11
142.011950
21
288.643298
0
LINE
8
annotation
62
1
39
211
10
142.011950
20
288.643298
11
142.135393
21
288.766382
0
LINE
8
annotation
62
1
39
211
10
142.135393
20
288.766382
11
142.236481
21
288.908987
0
LINE
8
annotation
62
1
39
211
10
142.236481
20
288.908987
11
142.312297
21
289.068256
0
LINE
8
annotation
62
1
39
211
10
142.312297
20
289.068256
11
142.359926
21
289.241333
0
LINE
8
annotation
62
1
39
211
10
142.359926
20
289.241333
11
142.376451
21
289.425361
0
LINE
8
annotation
62
1
39
211
10
142.376451
20
289.425361
11
142.376451
21
289.935225
0
LINE
8
annotation
62
1
39
211
10
142.376451
20
289.935225
11
142.376451
21
289.935225
0
LINE
8
annotation
62
1
39
211
10
142.376451
20
289.935225
11
142.359936
21
290.119342
0
LINE
8
annotation
62
1
39
211
10
142.359936
20
290.119342
11
142.312331
21
290.292658
0
LINE
8
annotation
62
1
39
211
10
142.312331
20
290.292658
11
142.236545
21
290.452274
0
LINE
8
annotation
62
1
39
211
10
142.236545
20
290.452274
11
142.135488
21
290.595289
0
LINE
8
annotation
62
1
39
211
10
142.135488
20
290.595289
11
142.012069
21
290.718805
0
LINE
8
annotation
62
1
39
211
10
142.012069
20
290.718805
11
141.869198
21
290.819921
0
LINE
8
annotation
62
1
39
211
10
141.869198
20
290.819921
11
141.709783
21
290.895736
0
LINE
8
annotation
62
1
39
211
10
141.709783
20
290.895736
11
141.536735
21
290.943353
0
LINE
8
annotation
62
1
39
211
10
141.536735
20
290.943353
11
141.352963
21
290.959869
0
LINE
8
annotation
62
1
39
211
10
141.352963
20
290.959869
11
141.352963
21
290.959869
0
LINE
8
annotation
62
1
39
211
10
141.352963
20
290.959869
11
141.169191
21
290.943343
0
LINE
8
annotation
62
1
39
211
10
141.169191
20
290.943343
11
140.996143
21
290.895703
0
LINE
8
annotation
62
1
39
211
10
140.996143
20
290.895703
11
140.836729
21
290.819856
0
LINE
8
annotation
62
1
39
211
10
140.836729
20
290.819856
11
140.693857
21
290.718710
0
LINE
8
annotation
62
1
39
211
10
140.693857
20
290.718710
11
140.570438
21
290.595170
0
LINE
8
annotation
62
1
39
211
10
140.570438
20
290.595170
11
140.469381
21
290.452145
0
LINE
8
annotation
62
1
39
211
10
140.469381
20
290.452145
11
140.393596
21
290.292541
0
LINE
8
annotation
62
1
39
211
10
140.393596
20
290.292541
11
140.345991
21
290.119266
0
LINE
8
annotation
62
1
39
211
10
140.345991
20
290.119266
11
140.329476
21
289.935225
0
LINE
8
annotation
62
1
39
211
10
140.329476
20
289.935225
11
140.329476
21
289.425361
0
LINE
8
annotation
62
1
39
211
10
142.376451
20
291.984802
11
142.376451
21
291.984802
0
LINE
8
annotation
62
1
39
211
10
142.376451
20
291.984802
11
142.359936
21
292.168068
0
LINE
8
annotation
62
1
39
211
10
142.359936
20
292.168068
11
142.312331
21
292.340740
0
LINE
8
annotation
62
1
39
211
10
142.312331
20
292.340740
11
142.236545
21
292.499891
0
LINE
8
annotation
62
1
39
211
10
142.236545
20
292.499891
11
142.135488
21
292.642591
0
LINE
8
annotation
62
1
39
211
10
142.135488
20
292.642591
11
142.012069
21
292.765913
0
LINE
8
annotation
62
1
39
211
10
142.012069
20
292.765913
11
141.869198
21
292.866928
0
LINE
8
annotation
62
1
39
211
10
141.869198
20
292.866928
11
141.709783
21
292.942707
0
LINE
8
annotation
62
1
39
211
10
141.709783
20
292.942707
11
141.536735
21
292.990322
0
LINE
8
annotation
62
1
39
211
10
141.536735
20
292.990322
11
141.352963
21
293.006844
0
LINE
8
annotation
62
1
39
211
10
141.352963
20
293.006844
11
141.352963
21
293.006844
0
LINE
8
annotation
62
1
39
211
10
141.352963
20
293.006844
11
141.169191
21
292.990322
0
LINE
8
annotation
62
1
39
211
10
141.169191
20
292.990322
11
140.996143
21
292.942707
0
LINE
8
annotation
62
1
39
211
10
140.996143
20
292.942707
11
140.836729
21
292.866928
0
LINE
8
annotation
62
1
39
211
10
140.836729
20
292.866928
11
140.693857
21
292.765913
0
LINE
8
annotation
62
1
39
211
10
140.693857
20
292.765913
11
140.570438
21
292.642591
0
LINE
8
annotation
62
1
39
211
10
140.570438
20
292.642591
11
140.469381
21
292.499891
0
LINE
8
annotation
62
1
39
211
10
140.469381
20
292.499891
11
140.393596
21
292.340740
0
LINE
8
annotation
62
1
39
211
10
140.393596
20
292.340740
11
140.345991
21
292.168068
0
LINE
8
annotation
62
1
39
211
10
140.345991
20
292.168068
11
140.329476
21
291.984802
0
LINE
8
annotation
62
1
39
211
10
140.329476
20
291.984802
11
140.329476
21
291.984802
0
LINE
8
annotation
62
1
39
211
10
140.329476
20
291.984802
11
140.346000
21
291.800675
0
LINE
8
annotation
62
1
39
211
10
140.346000
20
291.800675
11
140.393629
21
291.627333
0
LINE
8
annotation
62
1
39
211
10
140.393629
20
291.627333
11
140.469446
21
291.467679
0
LINE
8
annotation
62
1
39
211
10
140.469446
20
291.467679
11
140.570533
21
291.324617
0
LINE
8
annotation
62
1
39
211
10
140.570533
20
291.324617
11
140.693976
21
291.201054
0
LINE
8
annotation
62
1
39
211
10
140.693976
20
291.201054
11
140.836857
21
291.099892
0
LINE
8
annotation
62
1
39
211
10
140.836857
20
291.099892
11
140.996260
21
291.024038
0
LINE
8
annotation
62
1
39
211
10
140.996260
20
291.024038
11
141.169267
21
290.976395
0
LINE
8
annotation
62
1
39
211
10
141.169267
20
290.976395
11
141.352963
21
290.959869
0
LINE
8
annotation
62
1
39
211
10
141.352963
20
290.959869
11
141.352963
21
290.959869
0
LINE
8
annotation
62
1
39
211
10
141.352963
20
290.959869
11
141.536659
21
290.976395
0
LINE
8
annotation
62
1
39
211
10
141.536659
20
290.976395
11
141.709667
21
291.024038
0
LINE
8
annotation
62
1
39
211
10
141.709667
20
291.024038
11
141.869069
21
291.099892
0
LINE
8
annotation
62
1
39
211
10
141.869069
20
291.099892
11
142.011950
21
291.201054
0
LINE
8
annotation
62
1
39
211
10
142.011950
20
291.201054
11
142.135393
21
291.324617
0
LINE
8
annotation
62
1
39
211
10
142.135393
20
291.324617
11
142.236481
21
291.467679
0
LINE
8
annotation
62
1
39
211
10
142.236481
20
291.467679
11
142.312297
21
291.627333
0
LINE
8
annotation
62
1
39
211
10
142.312297
20
291.627333
11
142.359926
21
291.800675
0
LINE
8
annotation
62
1
39
211
10
142.359926
20
291.800675
11
142.376451
21
291.984802
0
LINE
8
annotation
62
1
39
211
10
135.117122
20
307.325624
11
135.117122
21
311.934641
0
LINE
8
annotation
62
1
39
211
10
135.117122
20
311.934641
11
134.092479
21
310.909708
0
LINE
8
annotation
62
1
39
211
10
137.356380
20
307.325624
11
137.356380
21
307.325624
0
LINE
8
annotation
62
1
39
211
10
137.356380
20
307.325624
11
137.649068
21
307.434693
0
LINE
8
annotation
62
1
39
211
10
137.649068
20
307.434693
11
137.917718
21
307.582121
0
LINE
8
annotation
62
1
39
211
10
137.917718
20
307.582121
11
138.159556
21
307.764150
0
LINE
8
annotation
62
1
39
211
10
138.159556
20
307.764150
11
138.371804
21
307.977023
0
LINE
8
annotation
62
1
39
211
10
138.371804
20
307.977023
11
138.551688
21
308.216986
0
LINE
8
annotation
62
1
39
211
10
138.551688
20
308.216986
11
138.696430
21
308.480281
0
LINE
8
annotation
62
1
39
211
10
138.696430
20
308.480281
11
138.803254
21
308.763153
0
LINE
8
annotation
62
1
39
211
10
138.803254
20
308.763153
11
138.869385
21
309.061844
0
LINE
8
annotation
62
1
39
211
10
138.869385
20
309.061844
11
138.892045
21
309.372599
0
LINE
8
annotation
62
1
39
211
10
138.892045
20
309.372599
11
138.892045
21
310.909708
0
LINE
8
annotation
62
1
39
211
10
138.892045
20
310.909708
11
138.892045
21
310.909708
0
LINE
8
annotation
62
1
39
211
10
138.892045
20
310.909708
11
138.875568
21
311.093835
0
LINE
8
annotation
62
1
39
211
10
138.875568
20
311.093835
11
138.828058
21
311.267177
0
LINE
8
annotation
62
1
39
211
10
138.828058
20
311.267177
11
138.752396
21
311.426832
0
LINE
8
annotation
62
1
39
211
10
138.752396
20
311.426832
11
138.651463
21
311.569893
0
LINE
8
annotation
62
1
39
211
10
138.651463
20
311.569893
11
138.528139
21
311.693456
0
LINE
8
annotation
62
1
39
211
10
138.528139
20
311.693456
11
138.385306
21
311.794618
0
LINE
8
annotation
62
1
39
211
10
138.385306
20
311.794618
11
138.225844
21
311.870472
0
LINE
8
annotation
62
1
39
211
10
138.225844
20
311.870472
11
138.052634
21
311.918115
0
LINE
8
annotation
62
1
39
211
10
138.052634
20
311.918115
11
137.868558
21
311.934641
0
LINE
8
annotation
62
1
39
211
10
137.868558
20
311.934641
11
137.868558
21
311.934641
0
LINE
8
annotation
62
1
39
211
10
137.868558
20
311.934641
11
137.684862
21
311.918115
0
LINE
8
annotation
62
1
39
211
10
137.684862
20
311.918115
11
137.511854
21
311.870472
0
LINE
8
annotation
62
1
39
211
10
137.511854
20
311.870472
11
137.352452
21
311.794618
0
LINE
8
annotation
62
1
39
211
10
137.352452
20
311.794618
11
137.209571
21
311.693456
0
LINE
8
annotation
62
1
39
211
10
137.209571
20
311.693456
11
137.086128
21
311.569893
0
LINE
8
annotation
62
1
39
211
10
137.086128
20
311.569893
11
136.985040
21
311.426832
0
LINE
8
annotation
62
1
39
211
10
136.985040
20
311.426832
11
136.909223
21
311.267177
0
LINE
8
annotation
62
1
39
211
10
136.909223
20
311.267177
11
136.861595
21
311.093835
0
LINE
8
annotation
62
1
39
211
10
136.861595
20
311.093835
11
136.845070
21
310.909708
0
LINE
8
annotation
62
1
39
211
10
136.845070
20
310.909708
11
136.845070
21
310.397242
0
LINE
8
annotation
62
1
39
211
10
136.845070
20
310.397242
11
136.845070
21
310.397242
0
LINE
8
annotation
62
1
39
211
10
136.845070
20
310.397242
11
136.861595
21
310.213126
0
LINE
8
annotation
62
1
39
211
10
136.861595
20
310.213126
11
136.909223
21
310.039810
0
LINE
8
annotation
62
1
39
211
10
136.909223
20
310.039810
11
136.985040
21
309.880194
0
LINE
8
annotation
62
1
39
211
10
136.985040
20
309.880194
11
137.086128
21
309.737178
0
LINE
8
annotation
62
1
39
211
10
137.086128
20
309.737178
11
137.209571
21
309.613663
0
LINE
8
annotation
62
1
39
211
10
137.209571
20
309.613663
11
137.352452
21
309.512547
0
LINE
8
annotation
62
1
39
211
10
137.352452
20
309.512547
11
137.511854
21
309.436731
0
LINE
8
annotation
62
1
39
211
10
137.511854
20
309.436731
11
137.684862
21
309.389115
0
LINE
8
annotation
62
1
39
211
10
137.684862
20
309.389115
11
137.868558
21
309.372599
0
LINE
8
annotation
62
1
39
211
10
137.868558
20
309.372599
11
138.892045
21
309.372599
0
LINE
8
annotation
62
1
39
211
10
136.717170
20
306.749497
11
139.021679
21
306.749497
0
LINE
8
annotation
62
1
39
211
10
131.847631
20
326.649669
11
130.157657
21
326.649669
0
LINE
8
annotation
62
1
39
211
10
130.157657
20
326.649669
11
131.719248
21
329.163631
0
LINE
8
annotation
62
1
39
211
10
131.719248
20
329.163631
11
131.719248
21
329.163631
0
LINE
8
annotation
62
1
39
211
10
131.719248
20
329.163631
11
131.721115
21
329.165941
0
LINE
8
annotation
62
1
39
211
10
131.721115
20
329.165941
11
131.722905
21
329.168271
0
LINE
8
annotation
62
1
39
211
10
131.722905
20
329.168271
11
131.724631
21
329.170640
0
LINE
8
annotation
62
1
39
211
10
131.724631
20
329.170640
11
131.726303
21
329.173068
0
LINE
8
annotation
62
1
39
211
10
131.726303
20
329.173068
11
131.727934
21
329.175574
0
LINE
8
annotation
62
1
39
211
10
131.727934
20
329.175574
11
131.729536
21
329.178179
0
LINE
8
annotation
62
1
39
211
10
131.729536
20
329.178179
11
131.731120
21
329.180901
0
LINE
8
annotation
62
1
39
211
10
131.731120
20
329.180901
11
131.732698
21
329.183761
0
LINE
8
annotation
62
1
39
211
10
131.732698
20
329.183761
11
131.734282
21
329.186778
0
LINE
8
annotation
62
1
39
211
10
131.734282
20
329.186778
11
131.734282
21
329.186778
0
LINE
8
annotation
62
1
39
211
10
131.734282
20
329.186778
11
131.798760
21
329.325217
0
LINE
8
annotation
62
1
39
211
10
131.798760
20
329.325217
11
131.836427
21
329.468722
0
LINE
8
annotation
62
1
39
211
10
131.836427
20
329.468722
11
131.848206
21
329.614049
0
LINE
8
annotation
62
1
39
211
10
131.848206
20
329.614049
11
131.835020
21
329.757956
0
LINE
8
annotation
62
1
39
211
10
131.835020
20
329.757956
11
131.797792
21
329.897200
0
LINE
8
annotation
62
1
39
211
10
131.797792
20
329.897200
11
131.737446
21
330.028540
0
LINE
8
annotation
62
1
39
211
10
131.737446
20
330.028540
11
131.654905
21
330.148731
0
LINE
8
annotation
62
1
39
211
10
131.654905
20
330.148731
11
131.551091
21
330.254532
0
LINE
8
annotation
62
1
39
211
10
131.551091
20
330.254532
11
131.426927
21
330.342700
0
LINE
8
annotation
62
1
39
211
10
131.426927
20
330.342700
11
131.426927
21
330.342700
0
LINE
8
annotation
62
1
39
211
10
131.426927
20
330.342700
11
131.288103
21
330.406261
0
LINE
8
annotation
62
1
39
211
10
131.288103
20
330.406261
11
131.144379
21
330.443348
0
LINE
8
annotation
62
1
39
211
10
131.144379
20
330.443348
11
130.998967
21
330.454794
0
LINE
8
annotation
62
1
39
211
10
130.998967
20
330.454794
11
130.855082
21
330.441434
0
LINE
8
annotation
62
1
39
211
10
130.855082
20
330.441434
11
130.715936
21
330.404104
0
LINE
8
annotation
62
1
39
211
10
130.715936
20
330.404104
11
130.584742
21
330.343637
0
LINE
8
annotation
62
1
39
211
10
130.584742
20
330.343637
11
130.464713
21
330.260868
0
LINE
8
annotation
62
1
39
211
10
130.464713
20
330.260868
11
130.359064
21
330.156633
0
LINE
8
annotation
62
1
39
211
10
130.359064
20
330.156633
11
130.271006
21
330.031766
0
LINE
8
annotation
62
1
39
211
10
130.271006
20
330.031766
11
130.160043
21
329.818908
0
LINE
8
annotation
62
1
39
211
10
133.886078
20
326.699892
11
133.886078
21
326.699892
0
LINE
8
annotation
62
1
39
211
10
133.886078
20
326.699892
11
133.974515
21
326.666832
0
LINE
8
annotation
62
1
39
211
10
133.974515
20
326.666832
11
134.065215
21
326.650407
0
LINE
8
annotation
62
1
39
211
10
134.065215
20
326.650407
11
134.156127
21
326.649947
0
LINE
8
annotation
62
1
39
211
10
134.156127
20
326.649947
11
134.245200
21
326.664784
0
LINE
8
annotation
62
1
39
211
10
134.245200
20
326.664784
11
134.330385
21
326.694247
0
LINE
8
annotation
62
1
39
211
10
134.330385
20
326.694247
11
134.409631
21
326.737666
0
LINE
8
annotation
62
1
39
211
10
134.409631
20
326.737666
11
134.480887
21
326.794372
0
LINE
8
annotation
62
1
39
211
10
134.480887
20
326.794372
11
134.542103
21
326.863694
0
LINE
8
annotation
62
1
39
211
10
134.542103
20
326.863694
11
134.591228
21
326.944964
0
LINE
8
annotation
62
1
39
211
10
134.591228
20
326.944964
11
134.591228
21
326.944964
0
LINE
8
annotation
62
1
39
211
10
134.591228
20
326.944964
11
134.737799
21
327.288051
0
LINE
8
annotation
62
1
39
211
10
134.737799
20
327.288051
11
134.847728
21
327.641068
0
LINE
8
annotation
62
1
39
211
10
134.847728
20
327.641068
11
134.921014
21
328.001200
0
LINE
8
annotation
62
1
39
211
10
134.921014
20
328.001200
11
134.957657
21
328.365634
0
LINE
8
annotation
62
1
39
211
10
134.957657
20
328.365634
11
134.957657
21
328.731555
0
LINE
8
annotation
62
1
39
211
10
134.957657
20
328.731555
11
134.921014
21
329.096148
0
LINE
8
annotation
62
1
39
211
10
134.921014
20
329.096148
11
134.847728
21
329.456598
0
LINE
8
annotation
62
1
39
211
10
134.847728
20
329.456598
11
134.737799
21
329.810093
0
LINE
8
annotation
62
1
39
211
10
134.737799
20
329.810093
11
134.591228
21
330.153816
0
LINE
8
annotation
62
1
39
211
10
134.591228
20
330.153816
11
134.591228
21
330.153816
0
LINE
8
annotation
62
1
39
211
10
134.591228
20
330.153816
11
134.572588
21
330.188505
0
LINE
8
annotation
62
1
39
211
10
134.572588
20
330.188505
11
134.551456
21
330.221670
0
LINE
8
annotation
62
1
39
211
10
134.551456
20
330.221670
11
134.527991
21
330.253147
0
LINE
8
annotation
62
1
39
211
10
134.527991
20
330.253147
11
134.502352
21
330.282775
0
LINE
8
annotation
62
1
39
211
10
134.502352
20
330.282775
11
134.474697
21
330.310390
0
LINE
8
annotation
62
1
39
211
10
134.474697
20
330.310390
11
134.445187
21
330.335828
0
LINE
8
annotation
62
1
39
211
10
134.445187
20
330.335828
11
134.413979
21
330.358927
0
LINE
8
annotation
62
1
39
211
10
134.413979
20
330.358927
11
134.381234
21
330.379525
0
LINE
8
annotation
62
1
39
211
10
134.381234
20
330.379525
11
134.347110
21
330.397456
0
LINE
8
annotation
62
1
39
211
10
134.347110
20
330.397456
11
134.347110
21
330.397456
0
LINE
8
annotation
62
1
39
211
10
134.347110
20
330.397456
11
134.257970
21
330.431233
0
LINE
8
annotation
62
1
39
211
10
134.257970
20
330.431233
11
134.166739
21
330.448219
0
LINE
8
annotation
62
1
39
211
10
134.166739
20
330.448219
11
134.075443
21
330.449089
0
LINE
8
annotation
62
1
39
211
10
134.075443
20
330.449089
11
133.986109
21
330.434515
0
LINE
8
annotation
62
1
39
211
10
133.986109
20
330.434515
11
133.900765
21
330.405172
0
LINE
8
annotation
62
1
39
211
10
133.900765
20
330.405172
11
133.821435
21
330.361733
0
LINE
8
annotation
62
1
39
211
10
133.821435
20
330.361733
11
133.750149
21
330.304871
0
LINE
8
annotation
62
1
39
211
10
133.750149
20
330.304871
11
133.688932
21
330.235262
0
LINE
8
annotation
62
1
39
211
10
133.688932
20
330.235262
11
133.639812
21
330.153577
0
LINE
8
annotation
62
1
39
211
10
133.639812
20
330.153577
11
133.639812
21
330.153577
0
LINE
8
annotation
62
1
39
211
10
133.639812
20
330.153577
11
133.493947
21
329.810561
0
LINE
8
annotation
62
1
39
211
10
133.493947
20
329.810561
11
133.384549
21
329.457597
0
LINE
8
annotation
62
1
39
211
10
133.384549
20
329.457597
11
133.311617
21
329.097500
0
LINE
8
annotation
62
1
39
211
10
133.311617
20
329.097500
11
133.275151
21
328.733084
0
LINE
8
annotation
62
1
39
211
10
133.275151
20
328.733084
11
133.275151
21
328.367163
0
LINE
8
annotation
62
1
39
211
10
133.275151
20
328.367163
11
133.311617
21
328.002553
0
LINE
8
annotation
62
1
39
211
10
133.311617
20
328.002553
11
133.384549
21
327.642067
0
LINE
8
annotation
62
1
39
211
10
133.384549
20
327.642067
11
133.493947
21
327.288519
0
LINE
8
annotation
62
1
39
211
10
133.493947
20
327.288519
11
133.639812
21
326.944726
0
LINE
8
annotation
62
1
39
211
10
133.639812
20
326.944726
11
133.639812
21
326.944726
0
LINE
8
annotation
62
1
39
211
10
133.639812
20
326.944726
11
133.658384
21
326.910106
0
LINE
8
annotation
62
1
39
211
10
133.658384
20
326.910106
11
133.679360
21
326.877106
0
LINE
8
annotation
62
1
39
211
10
133.679360
20
326.877106
11
133.702651
21
326.845827
0
LINE
8
annotation
62
1
39
211
10
133.702651
20
326.845827
11
133.728170
21
326.816369
0
LINE
8
annotation
62
1
39
211
10
133.728170
20
326.816369
11
133.755827
21
326.788831
0
LINE
8
annotation
62
1
39
211
10
133.755827
20
326.788831
11
133.785535
21
326.763314
0
LINE
8
annotation
62
1
39
211
10
133.785535
20
326.763314
11
133.817205
21
326.739919
0
LINE
8
annotation
62
1
39
211
10
133.817205
20
326.739919
11
133.850749
21
326.718744
0
LINE
8
annotation
62
1
39
211
10
133.850749
20
326.718744
11
133.886078
21
326.699892
0
LINE
8
annotation
62
1
39
211
10
126.884585
20
345.170242
11
124.837906
21
345.170242
0
LINE
8
annotation
62
1
39
211
10
124.837906
20
345.170242
11
126.729104
21
348.214828
0
LINE
8
annotation
62
1
39
211
10
126.729104
20
348.214828
11
126.729104
21
348.214828
0
LINE
8
annotation
62
1
39
211
10
126.729104
20
348.214828
11
126.731365
21
348.217625
0
LINE
8
annotation
62
1
39
211
10
126.731365
20
348.217625
11
126.733533
21
348.220447
0
LINE
8
annotation
62
1
39
211
10
126.733533
20
348.220447
11
126.735623
21
348.223316
0
LINE
8
annotation
62
1
39
211
10
126.735623
20
348.223316
11
126.737648
21
348.226256
0
LINE
8
annotation
62
1
39
211
10
126.737648
20
348.226256
11
126.739623
21
348.229291
0
LINE
8
annotation
62
1
39
211
10
126.739623
20
348.229291
11
126.741563
21
348.232446
0
LINE
8
annotation
62
1
39
211
10
126.741563
20
348.232446
11
126.743481
21
348.235743
0
LINE
8
annotation
62
1
39
211
10
126.743481
20
348.235743
11
126.745393
21
348.239206
0
LINE
8
annotation
62
1
39
211
10
126.745393
20
348.239206
11
126.747311
21
348.242860
0
LINE
8
annotation
62
1
39
211
10
126.747311
20
348.242860
11
126.747311
21
348.242860
0
LINE
8
annotation
62
1
39
211
10
126.747311
20
348.242860
11
126.825398
21
348.410520
0
LINE
8
annotation
62
1
39
211
10
126.825398
20
348.410520
11
126.871015
21
348.584314
0
LINE
8
annotation
62
1
39
211
10
126.871015
20
348.584314
11
126.885280
21
348.760315
0
LINE
8
annotation
62
1
39
211
10
126.885280
20
348.760315
11
126.869311
21
348.934597
0
LINE
8
annotation
62
1
39
211
10
126.869311
20
348.934597
11
126.824226
21
349.103232
0
LINE
8
annotation
62
1
39
211
10
126.824226
20
349.103232
11
126.751143
21
349.262293
0
LINE
8
annotation
62
1
39
211
10
126.751143
20
349.262293
11
126.651179
21
349.407853
0
LINE
8
annotation
62
1
39
211
10
126.651179
20
349.407853
11
126.525453
21
349.535985
0
LINE
8
annotation
62
1
39
211
10
126.525453
20
349.535985
11
126.375082
21
349.642763
0
LINE
8
annotation
62
1
39
211
10
126.375082
20
349.642763
11
126.375082
21
349.642763
0
LINE
8
annotation
62
1
39
211
10
126.375082
20
349.642763
11
126.206957
21
349.719740
0
LINE
8
annotation
62
1
39
211
10
126.206957
20
349.719740
11
126.032896
21
349.764655
0
LINE
8
annotation
62
1
39
211
10
126.032896
20
349.764655
11
125.856793
21
349.778517
0
LINE
8
annotation
62
1
39
211
10
125.856793
20
349.778517
11
125.682537
21
349.762337
0
LINE
8
annotation
62
1
39
211
10
125.682537
20
349.762337
11
125.514021
21
349.717127
0
LINE
8
annotation
62
1
39
211
10
125.514021
20
349.717127
11
125.355136
21
349.643897
0
LINE
8
annotation
62
1
39
211
10
125.355136
20
349.643897
11
125.209774
21
349.543659
0
LINE
8
annotation
62
1
39
211
10
125.209774
20
349.543659
11
125.081824
21
349.417423
0
LINE
8
annotation
62
1
39
211
10
125.081824
20
349.417423
11
124.975180
21
349.266199
0
LINE
8
annotation
62
1
39
211
10
124.975180
20
349.266199
11
124.840796
21
349.008414
0
LINE
8
annotation
62
1
39
211
10
129.637703
20
345.170280
11
129.637703
21
349.778629
0
LINE
8
annotation
62
1
39
211
10
129.637703
20
349.778629
11
128.613208
21
348.753845
0
LINE
8
annotation
62
1
39
211
10
204.533413
20
49.868577
11
201.044696
21
49.868577
0
LINE
8
annotation
62
1
39
211
10
201.044696
20
49.868577
11
204.533413
21
56.151736
0
LINE
8
annotation
62
1
39
211
10
204.533413
20
56.151736
11
201.044696
21
56.151736
0
LINE
8
annotation
62
1
39
211
10
210.325711
20
53.010156
11
206.890188
21
53.010156
0
LINE
8
annotation
62
1
39
211
10
214.078328
20
49.868577
11
214.078328
21
56.151736
0
LINE
8
annotation
62
1
39
211
10
214.078328
20
56.151736
11
212.681502
21
54.754515
0
LINE
8
annotation
62
1
39
211
10
219.923033
20
51.265404
11
216.434316
21
51.265404
0
LINE
8
annotation
62
1
39
211
10
216.434316
20
51.265404
11
217.827596
21
56.151736
0
LINE
8
annotation
62
1
39
211
10
218.877284
20
49.868577
11
218.877284
21
52.659078
0
LINE
8
frame
62
5
39
2
10
0.000000
20
0.000000
11
300.000000
21
0.000000
0
LINE
8
frame
62
5
39
2
10
300.000000
20
0.000000
11
300.000000
21
600.000000
0
LINE
8
frame
62
5
39
2
10
300.000000
20
600.000000
11
0.000000
21
600.000000
0
LINE
8
frame
62
5
39
2
10
0.000000
20
600.000000
11
0.000000
21
0.000000
0
ENDSEC
0
EOF
