  0
SECTION
  2
HEADER
  9
$ACADVER
  1
AC1009
  9
$EXTMIN
 10
0.0
 20
0.0
 30
0.0
  9
$EXTMAX
 10
1000.0
 20
1000.0
 30
0.0
  9
$FILLMODE
 70
 0
  9
$SPLFRAME
 70
 1
  0
ENDSEC
  0
SECTION
  2
TABLES
  0
TABLE
  2
LAYER
 70
1
  0
LAYER
  2
0
 70
     0
 62
     7
  6
CONTINUOUS
  0
ENDTAB
  0
ENDSEC
  0
SECTION
  2
ENTITIES
  0
POLYLINE
  8
0
 62
     12
 66
     1
 10
0
 20
0
 30
0.0
 70
     1
 40
0
 41
0
  0
VERTEX
  8
0
 10
4.31819
 20
6.90511
 30
0.0
 40
0
 41
0
  0
VERTEX
  8
0
 10
4.31819
 20
6.89372
 30
0.0
 40
0
 41
0
  0
VERTEX
  8
0
 10
4.30908
 20
6.85938
 30
0.0
 40
0
 41
0
  0
VERTEX
  8
0
 10
4.28879
 20
6.82622
 30
0.0
 40
0
 41
0
  0
VERTEX
  8
0
 10
4.28321
 20
6.82064
 30
0.0
 40
0
 41
0
  0
VERTEX
  8
0
 10
4.27756
 20
6.81506
 30
0.0
 40
0
 41
0
  0
VERTEX
  8
0
 10
4.24442
 20
6.79476
 30
0.0
 40
0
 41
0
  0
VERTEX
  8
0
 10
4.21013
 20
6.78564
 30
0.0
 40
0
 41
0
  0
VERTEX
  8
0
 10
4.19874
 20
6.78564
 30
0.0
 40
0
 41
0
  0
VERTEX
  8
0
 10
4.18728
 20
6.78564
 30
0.0
 40
0
 41
0
  0
VERTEX
  8
0
 10
4.153
 20
6.79476
 30
0.0
 40
0
 41
0
  0
VERTEX
  8
0
 10
4.11985
 20
6.81506
 30
0.0
 40
0
 41
0
  0
VERTEX
  8
0
 10
4.11426
 20
6.82064
 30
0.0
 40
0
 41
0
  0
VERTEX
  8
0
 10
4.10861
 20
6.82622
 30
0.0
 40
0
 41
0
  0
VERTEX
  8
0
 10
4.08832
 20
6.85938
 30
0.0
 40
0
 41
0
  0
VERTEX
  8
0
 10
4.07926
 20
6.89372
 30
0.0
 40
0
 41
0
  0
VERTEX
  8
0
 10
4.07926
 20
6.90511
 30
0.0
 40
0
 41
0
  0
VERTEX
  8
0
 10
4.07926
 20
6.91678
 30
0.0
 40
0
 41
0
  0
VERTEX
  8
0
 10
4.08865
 20
6.95167
 30
0.0
 40
0
 41
0
  0
VERTEX
  8
0
 10
4.11426
 20
6.98958
 30
0.0
 40
0
 41
0
  0
VERTEX
  8
0
 10
4.15218
 20
7.01519
 30
0.0
 40
0
 41
0
  0
VERTEX
  8
0
 10
4.18707
 20
7.02458
 30
0.0
 40
0
 41
0
  0
VERTEX
  8
0
 10
4.19874
 20
7.02458
 30
0.0
 40
0
 41
0
  0
VERTEX
  8
0
 10
4.21013
 20
7.02458
 30
0.0
 40
0
 41
0
  0
VERTEX
  8
0
 10
4.24442
 20
7.01551
 30
0.0
 40
0
 41
0
  0
VERTEX
  8
0
 10
4.27756
 20
6.99522
 30
0.0
 40
0
 41
0
  0
VERTEX
  8
0
 10
4.28321
 20
6.98958
 30
0.0
 40
0
 41
0
  0
VERTEX
  8
0
 10
4.28879
 20
6.984
 30
0.0
 40
0
 41
0
  0
VERTEX
  8
0
 10
4.30908
 20
6.95085
 30
0.0
 40
0
 41
0
  0
VERTEX
  8
0
 10
4.31819
 20
6.91656
 30
0.0
 40
0
 41
0
  0
VERTEX
  8
0
 10
4.31819
 20
6.90511
 30
0.0
 40
0
 41
0
  0
SEQEND
 8
0
  0
POLYLINE
  8
0
 62
     12
 66
     1
 10
0
 20
0
 30
0.0
 70
     1
 40
0
 41
0
  0
VERTEX
  8
0
 10
5.067
 20
7.85699
 30
0.0
 40
0
 41
0
  0
VERTEX
  8
0
 10
5.02983
 20
7.85699
 30
0.0
 40
0
 41
0
  0
VERTEX
  8
0
 10
4.9184
 20
7.84201
 30
0.0
 40
0
 41
0
  0
VERTEX
  8
0
 10
4.78006
 20
7.7991
 30
0.0
 40
0
 41
0
  0
VERTEX
  8
0
 10
4.65483
 20
7.73112
 30
0.0
 40
0
 41
0
  0
VERTEX
  8
0
 10
4.54574
 20
7.64111
 30
0.0
 40
0
 41
0
  0
VERTEX
  8
0
 10
4.45574
 20
7.53201
 30
0.0
 40
0
 41
0
  0
VERTEX
  8
0
 10
4.38775
 20
7.40679
 30
0.0
 40
0
 41
0
  0
VERTEX
  8
0
 10
4.34478
 20
7.26844
 30
0.0
 40
0
 41
0
  0
VERTEX
  8
0
 10
4.32981
 20
7.15701
 30
0.0
 40
0
 41
0
  0
VERTEX
  8
0
 10
4.32981
 20
7.11985
 30
0.0
 40
0
 41
0
  0
VERTEX
  8
0
 10
4.32981
 20
7.08376
 30
0.0
 40
0
 41
0
  0
VERTEX
  8
0
 10
4.34407
 20
6.97537
 30
0.0
 40
0
 41
0
  0
VERTEX
  8
0
 10
4.3859
 20
6.83772
 30
0.0
 40
0
 41
0
  0
VERTEX
  8
0
 10
4.45367
 20
6.71089
 30
0.0
 40
0
 41
0
  0
VERTEX
  8
0
 10
4.52018
 20
6.62414
 30
0.0
 40
0
 41
0
  0
VERTEX
  8
0
 10
4.54574
 20
6.59858
 30
0.0
 40
0
 41
0
  0
VERTEX
  8
0
 10
4.57124
 20
6.57308
 30
0.0
 40
0
 41
0
  0
VERTEX
  8
0
 10
4.65799
 20
6.50657
 30
0.0
 40
0
 41
0
  0
VERTEX
  8
0
 10
4.78489
 20
6.43881
 30
0.0
 40
0
 41
0
  0
VERTEX
  8
0
 10
4.92253
 20
6.39697
 30
0.0
 40
0
 41
0
  0
VERTEX
  8
0
 10
5.03087
 20
6.38265
 30
0.0
 40
0
 41
0
  0
VERTEX
  8
0
 10
5.067
 20
6.38265
 30
0.0
 40
0
 41
0
  0
VERTEX
  8
0
 10
5.10308
 20
6.38265
 30
0.0
 40
0
 41
0
  0
VERTEX
  8
0
 10
5.21149
 20
6.39697
 30
0.0
 40
0
 41
0
  0
VERTEX
  8
0
 10
5.34912
 20
6.43881
 30
0.0
 40
0
 41
0
  0
VERTEX
  8
0
 10
5.47597
 20
6.50657
 30
0.0
 40
0
 41
0
  0
VERTEX
  8
0
 10
5.56272
 20
6.57308
 30
0.0
 40
0
 41
0
  0
VERTEX
  8
0
 10
5.58826
 20
6.59858
 30
0.0
 40
0
 41
0
  0
VERTEX
  8
0
 10
5.61376
 20
6.62414
 30
0.0
 40
0
 41
0
  0
VERTEX
  8
0
 10
5.68028
 20
6.71089
 30
0.0
 40
0
 41
0
  0
VERTEX
  8
0
 10
5.74804
 20
6.83772
 30
0.0
 40
0
 41
0
  0
VERTEX
  8
0
 10
5.78988
 20
6.97537
 30
0.0
 40
0
 41
0
  0
VERTEX
  8
0
 10
5.80419
 20
7.08376
 30
0.0
 40
0
 41
0
  0
VERTEX
  8
0
 10
5.80419
 20
7.11985
 30
0.0
 40
0
 41
0
  0
VERTEX
  8
0
 10
5.80419
 20
7.15701
 30
0.0
 40
0
 41
0
  0
VERTEX
  8
0
 10
5.78917
 20
7.26844
 30
0.0
 40
0
 41
0
  0
VERTEX
  8
0
 10
5.74625
 20
7.40679
 30
0.0
 40
0
 41
0
  0
VERTEX
  8
0
 10
5.67828
 20
7.53201
 30
0.0
 40
0
 41
0
  0
VERTEX
  8
0
 10
5.58826
 20
7.64111
 30
0.0
 40
0
 41
0
  0
VERTEX
  8
0
 10
5.47911
 20
7.73112
 30
0.0
 40
0
 41
0
  0
VERTEX
  8
0
 10
5.35389
 20
7.7991
 30
0.0
 40
0
 41
0
  0
VERTEX
  8
0
 10
5.21556
 20
7.84201
 30
0.0
 40
0
 41
0
  0
VERTEX
  8
0
 10
5.10411
 20
7.85699
 30
0.0
 40
0
 41
0
  0
VERTEX
  8
0
 10
5.067
 20
7.85699
 30
0.0
 40
0
 41
0
  0
SEQEND
 8
0
  0
POLYLINE
  8
0
 62
     12
 66
     1
 10
0
 20
0
 30
0.0
 70
     1
 40
0
 41
0
  0
VERTEX
  8
0
 10
4.67947
 20
7.67637
 30
0.0
 40
0
 41
0
  0
VERTEX
  8
0
 10
4.68837
 20
7.67637
 30
0.0
 40
0
 41
0
  0
VERTEX
  8
0
 10
4.71511
 20
7.66932
 30
0.0
 40
0
 41
0
  0
VERTEX
  8
0
 10
4.74104
 20
7.65343
 30
0.0
 40
0
 41
0
  0
VERTEX
  8
0
 10
4.74544
 20
7.64903
 30
0.0
 40
0
 41
0
  0
VERTEX
  8
0
 10
4.74978
 20
7.64469
 30
0.0
 40
0
 41
0
  0
VERTEX
  8
0
 10
4.76563
 20
7.61882
 30
0.0
 40
0
 41
0
  0
VERTEX
  8
0
 10
4.77274
 20
7.59207
 30
0.0
 40
0
 41
0
  0
VERTEX
  8
0
 10
4.77274
 20
7.58311
 30
0.0
 40
0
 41
0
  0
VERTEX
  8
0
 10
4.77274
 20
7.57422
 30
0.0
 40
0
 41
0
  0
VERTEX
  8
0
 10
4.76563
 20
7.54747
 30
0.0
 40
0
 41
0
  0
VERTEX
  8
0
 10
4.74978
 20
7.5216
 30
0.0
 40
0
 41
0
  0
VERTEX
  8
0
 10
4.74544
 20
7.51719
 30
0.0
 40
0
 41
0
  0
VERTEX
  8
0
 10
4.74104
 20
7.51286
 30
0.0
 40
0
 41
0
  0
VERTEX
  8
0
 10
4.71511
 20
7.49696
 30
0.0
 40
0
 41
0
  0
VERTEX
  8
0
 10
4.68837
 20
7.48986
 30
0.0
 40
0
 41
0
  0
VERTEX
  8
0
 10
4.67947
 20
7.48986
 30
0.0
 40
0
 41
0
  0
VERTEX
  8
0
 10
4.67051
 20
7.48986
 30
0.0
 40
0
 41
0
  0
VERTEX
  8
0
 10
4.64378
 20
7.49696
 30
0.0
 40
0
 41
0
  0
VERTEX
  8
0
 10
4.61789
 20
7.51286
 30
0.0
 40
0
 41
0
  0
VERTEX
  8
0
 10
4.61356
 20
7.51719
 30
0.0
 40
0
 41
0
  0
VERTEX
  8
0
 10
4.60915
 20
7.5216
 30
0.0
 40
0
 41
0
  0
VERTEX
  8
0
 10
4.59332
 20
7.54747
 30
0.0
 40
0
 41
0
  0
VERTEX
  8
0
 10
4.58626
 20
7.57422
 30
0.0
 40
0
 41
0
  0
VERTEX
  8
0
 10
4.58626
 20
7.58311
 30
0.0
 40
0
 41
0
  0
VERTEX
  8
0
 10
4.58626
 20
7.59207
 30
0.0
 40
0
 41
0
  0
VERTEX
  8
0
 10
4.59332
 20
7.61882
 30
0.0
 40
0
 41
0
  0
VERTEX
  8
0
 10
4.60915
 20
7.64469
 30
0.0
 40
0
 41
0
  0
VERTEX
  8
0
 10
4.61356
 20
7.64903
 30
0.0
 40
0
 41
0
  0
VERTEX
  8
0
 10
4.61789
 20
7.65343
 30
0.0
 40
0
 41
0
  0
VERTEX
  8
0
 10
4.64378
 20
7.66932
 30
0.0
 40
0
 41
0
  0
VERTEX
  8
0
 10
4.67051
 20
7.67637
 30
0.0
 40
0
 41
0
  0
VERTEX
  8
0
 10
4.67947
 20
7.67637
 30
0.0
 40
0
 41
0
  0
SEQEND
 8
0
  0
POLYLINE
  8
0
 62
     12
 66
     1
 10
0
 20
0
 30
0.0
 70
     1
 40
0
 41
0
  0
VERTEX
  8
0
 10
4.56874
 20
7.45199
 30
0.0
 40
0
 41
0
  0
VERTEX
  8
0
 10
4.57351
 20
7.45199
 30
0.0
 40
0
 41
0
  0
VERTEX
  8
0
 10
4.588
 20
7.44814
 30
0.0
 40
0
 41
0
  0
VERTEX
  8
0
 10
4.60379
 20
7.4375
 30
0.0
 40
0
 41
0
  0
VERTEX
  8
0
 10
4.61436
 20
7.42176
 30
0.0
 40
0
 41
0
  0
VERTEX
  8
0
 10
4.61833
 20
7.40728
 30
0.0
 40
0
 41
0
  0
VERTEX
  8
0
 10
4.61833
 20
7.40246
 30
0.0
 40
0
 41
0
  0
VERTEX
  8
0
 10
4.61833
 20
7.39768
 30
0.0
 40
0
 41
0
  0
VERTEX
  8
0
 10
4.61442
 20
7.38319
 30
0.0
 40
0
 41
0
  0
VERTEX
  8
0
 10
4.60379
 20
7.36746
 30
0.0
 40
0
 41
0
  0
VERTEX
  8
0
 10
4.588
 20
7.35682
 30
0.0
 40
0
 41
0
  0
VERTEX
  8
0
 10
4.57351
 20
7.35292
 30
0.0
 40
0
 41
0
  0
VERTEX
  8
0
 10
4.56874
 20
7.35292
 30
0.0
 40
0
 41
0
  0
VERTEX
  8
0
 10
4.56392
 20
7.35292
 30
0.0
 40
0
 41
0
  0
VERTEX
  8
0
 10
4.54943
 20
7.35682
 30
0.0
 40
0
 41
0
  0
VERTEX
  8
0
 10
4.53369
 20
7.36746
 30
0.0
 40
0
 41
0
  0
VERTEX
  8
0
 10
4.52306
 20
7.38319
 30
0.0
 40
0
 41
0
  0
VERTEX
  8
0
 10
4.51921
 20
7.39768
 30
0.0
 40
0
 41
0
  0
VERTEX
  8
0
 10
4.51921
 20
7.40246
 30
0.0
 40
0
 41
0
  0
VERTEX
  8
0
 10
4.51921
 20
7.40728
 30
0.0
 40
0
 41
0
  0
VERTEX
  8
0
 10
4.52311
 20
7.42176
 30
0.0
 40
0
 41
0
  0
VERTEX
  8
0
 10
4.53369
 20
7.4375
 30
0.0
 40
0
 41
0
  0
VERTEX
  8
0
 10
4.54943
 20
7.44814
 30
0.0
 40
0
 41
0
  0
VERTEX
  8
0
 10
4.56392
 20
7.45199
 30
0.0
 40
0
 41
0
  0
VERTEX
  8
0
 10
4.56874
 20
7.45199
 30
0.0
 40
0
 41
0
  0
SEQEND
 8
0
  0
POLYLINE
  8
0
 62
     12
 66
     1
 10
0
 20
0
 30
0.0
 70
     1
 40
0
 41
0
  0
VERTEX
  8
0
 10
4.83681
 20
7.39063
 30
0.0
 40
0
 41
0
  0
VERTEX
  8
0
 10
4.8419
 20
7.39063
 30
0.0
 40
0
 41
0
  0
VERTEX
  8
0
 10
4.85726
 20
7.38217
 30
0.0
 40
0
 41
0
  0
VERTEX
  8
0
 10
4.86578
 20
7.36686
 30
0.0
 40
0
 41
0
  0
VERTEX
  8
0
 10
4.86578
 20
7.36171
 30
0.0
 40
0
 41
0
  0
VERTEX
  8
0
 10
4.86578
 20
7.35661
 30
0.0
 40
0
 41
0
  0
VERTEX
  8
0
 10
4.85726
 20
7.34125
 30
0.0
 40
0
 41
0
  0
VERTEX
  8
0
 10
4.8419
 20
7.33274
 30
0.0
 40
0
 41
0
  0
VERTEX
  8
0
 10
4.83681
 20
7.33274
 30
0.0
 40
0
 41
0
  0
VERTEX
  8
0
 10
4.83165
 20
7.33274
 30
0.0
 40
0
 41
0
  0
VERTEX
  8
0
 10
4.81635
 20
7.34125
 30
0.0
 40
0
 41
0
  0
VERTEX
  8
0
 10
4.80789
 20
7.35661
 30
0.0
 40
0
 41
0
  0
VERTEX
  8
0
 10
4.80789
 20
7.36171
 30
0.0
 40
0
 41
0
  0
VERTEX
  8
0
 10
4.80789
 20
7.36686
 30
0.0
 40
0
 41
0
  0
VERTEX
  8
0
 10
4.81635
 20
7.38217
 30
0.0
 40
0
 41
0
  0
VERTEX
  8
0
 10
4.83165
 20
7.39063
 30
0.0
 40
0
 41
0
  0
VERTEX
  8
0
 10
4.83681
 20
7.39063
 30
0.0
 40
0
 41
0
  0
SEQEND
 8
0
  0
POLYLINE
  8
0
 62
     12
 66
     1
 10
0
 20
0
 30
0.0
 70
     1
 40
0
 41
0
  0
VERTEX
  8
0
 10
4.65126
 20
7.34483
 30
0.0
 40
0
 41
0
  0
VERTEX
  8
0
 10
4.65636
 20
7.34483
 30
0.0
 40
0
 41
0
  0
VERTEX
  8
0
 10
4.67171
 20
7.33643
 30
0.0
 40
0
 41
0
  0
VERTEX
  8
0
 10
4.68024
 20
7.32107
 30
0.0
 40
0
 41
0
  0
VERTEX
  8
0
 10
4.68024
 20
7.31592
 30
0.0
 40
0
 41
0
  0
VERTEX
  8
0
 10
4.68024
 20
7.31082
 30
0.0
 40
0
 41
0
  0
VERTEX
  8
0
 10
4.67171
 20
7.29551
 30
0.0
 40
0
 41
0
  0
VERTEX
  8
0
 10
4.65636
 20
7.287
 30
0.0
 40
0
 41
0
  0
VERTEX
  8
0
 10
4.65126
 20
7.287
 30
0.0
 40
0
 41
0
  0
VERTEX
  8
0
 10
4.64611
 20
7.287
 30
0.0
 40
0
 41
0
  0
VERTEX
  8
0
 10
4.63081
 20
7.29551
 30
0.0
 40
0
 41
0
  0
VERTEX
  8
0
 10
4.62235
 20
7.31082
 30
0.0
 40
0
 41
0
  0
VERTEX
  8
0
 10
4.62235
 20
7.31592
 30
0.0
 40
0
 41
0
  0
VERTEX
  8
0
 10
4.62235
 20
7.32107
 30
0.0
 40
0
 41
0
  0
VERTEX
  8
0
 10
4.63081
 20
7.33643
 30
0.0
 40
0
 41
0
  0
VERTEX
  8
0
 10
4.64611
 20
7.34483
 30
0.0
 40
0
 41
0
  0
VERTEX
  8
0
 10
4.65126
 20
7.34483
 30
0.0
 40
0
 41
0
  0
SEQEND
 8
0
  0
POLYLINE
  8
0
 62
     12
 66
     1
 10
0
 20
0
 30
0.0
 70
     1
 40
0
 41
0
  0
VERTEX
  8
0
 10
4.5804
 20
7.25092
 30
0.0
 40
0
 41
0
  0
VERTEX
  8
0
 10
4.58931
 20
7.25092
 30
0.0
 40
0
 41
0
  0
VERTEX
  8
0
 10
4.61604
 20
7.24388
 30
0.0
 40
0
 41
0
  0
VERTEX
  8
0
 10
4.64199
 20
7.22803
 30
0.0
 40
0
 41
0
  0
VERTEX
  8
0
 10
4.64638
 20
7.22364
 30
0.0
 40
0
 41
0
  0
VERTEX
  8
0
 10
4.65072
 20
7.21929
 30
0.0
 40
0
 41
0
  0
VERTEX
  8
0
 10
4.66656
 20
7.19342
 30
0.0
 40
0
 41
0
  0
VERTEX
  8
0
 10
4.67367
 20
7.16667
 30
0.0
 40
0
 41
0
  0
VERTEX
  8
0
 10
4.67367
 20
7.15771
 30
0.0
 40
0
 41
0
  0
VERTEX
  8
0
 10
4.67367
 20
7.14882
 30
0.0
 40
0
 41
0
  0
VERTEX
  8
0
 10
4.66656
 20
7.12207
 30
0.0
 40
0
 41
0
  0
VERTEX
  8
0
 10
4.65072
 20
7.09614
 30
0.0
 40
0
 41
0
  0
VERTEX
  8
0
 10
4.64638
 20
7.09174
 30
0.0
 40
0
 41
0
  0
VERTEX
  8
0
 10
4.64199
 20
7.0874
 30
0.0
 40
0
 41
0
  0
VERTEX
  8
0
 10
4.61604
 20
7.07156
 30
0.0
 40
0
 41
0
  0
VERTEX
  8
0
 10
4.58931
 20
7.06446
 30
0.0
 40
0
 41
0
  0
VERTEX
  8
0
 10
4.5804
 20
7.06446
 30
0.0
 40
0
 41
0
  0
VERTEX
  8
0
 10
4.57146
 20
7.06446
 30
0.0
 40
0
 41
0
  0
VERTEX
  8
0
 10
4.54471
 20
7.07156
 30
0.0
 40
0
 41
0
  0
VERTEX
  8
0
 10
4.51882
 20
7.0874
 30
0.0
 40
0
 41
0
  0
VERTEX
  8
0
 10
4.51449
 20
7.09174
 30
0.0
 40
0
 41
0
  0
VERTEX
  8
0
 10
4.5101
 20
7.09614
 30
0.0
 40
0
 41
0
  0
VERTEX
  8
0
 10
4.49425
 20
7.12207
 30
0.0
 40
0
 41
0
  0
VERTEX
  8
0
 10
4.48719
 20
7.14882
 30
0.0
 40
0
 41
0
  0
VERTEX
  8
0
 10
4.48719
 20
7.15771
 30
0.0
 40
0
 41
0
  0
VERTEX
  8
0
 10
4.48719
 20
7.16667
 30
0.0
 40
0
 41
0
  0
VERTEX
  8
0
 10
4.49425
 20
7.19342
 30
0.0
 40
0
 41
0
  0
VERTEX
  8
0
 10
4.5101
 20
7.21929
 30
0.0
 40
0
 41
0
  0
VERTEX
  8
0
 10
4.51449
 20
7.22364
 30
0.0
 40
0
 41
0
  0
VERTEX
  8
0
 10
4.51882
 20
7.22803
 30
0.0
 40
0
 41
0
  0
VERTEX
  8
0
 10
4.54471
 20
7.24388
 30
0.0
 40
0
 41
0
  0
VERTEX
  8
0
 10
4.57146
 20
7.25092
 30
0.0
 40
0
 41
0
  0
VERTEX
  8
0
 10
4.5804
 20
7.25092
 30
0.0
 40
0
 41
0
  0
SEQEND
 8
0
  0
POLYLINE
  8
0
 62
     12
 66
     1
 10
0
 20
0
 30
0.0
 70
     1
 40
0
 41
0
  0
VERTEX
  8
0
 10
4.86594
 20
7.06158
 30
0.0
 40
0
 41
0
  0
VERTEX
  8
0
 10
4.87071
 20
7.06158
 30
0.0
 40
0
 41
0
  0
VERTEX
  8
0
 10
4.88519
 20
7.05772
 30
0.0
 40
0
 41
0
  0
VERTEX
  8
0
 10
4.90099
 20
7.0471
 30
0.0
 40
0
 41
0
  0
VERTEX
  8
0
 10
4.91162
 20
7.03131
 30
0.0
 40
0
 41
0
  0
VERTEX
  8
0
 10
4.91553
 20
7.01682
 30
0.0
 40
0
 41
0
  0
VERTEX
  8
0
 10
4.91553
 20
7.01199
 30
0.0
 40
0
 41
0
  0
VERTEX
  8
0
 10
4.91553
 20
7.00722
 30
0.0
 40
0
 41
0
  0
VERTEX
  8
0
 10
4.91157
 20
6.99274
 30
0.0
 40
0
 41
0
  0
VERTEX
  8
0
 10
4.90099
 20
6.977
 30
0.0
 40
0
 41
0
  0
VERTEX
  8
0
 10
4.88519
 20
6.96642
 30
0.0
 40
0
 41
0
  0
VERTEX
  8
0
 10
4.87071
 20
6.96251
 30
0.0
 40
0
 41
0
  0
VERTEX
  8
0
 10
4.86594
 20
6.96251
 30
0.0
 40
0
 41
0
  0
VERTEX
  8
0
 10
4.86111
 20
6.96251
 30
0.0
 40
0
 41
0
  0
VERTEX
  8
0
 10
4.84663
 20
6.96642
 30
0.0
 40
0
 41
0
  0
VERTEX
  8
0
 10
4.83089
 20
6.977
 30
0.0
 40
0
 41
0
  0
VERTEX
  8
0
 10
4.82032
 20
6.99274
 30
0.0
 40
0
 41
0
  0
VERTEX
  8
0
 10
4.8164
 20
7.00722
 30
0.0
 40
0
 41
0
  0
VERTEX
  8
0
 10
4.8164
 20
7.01199
 30
0.0
 40
0
 41
0
  0
VERTEX
  8
0
 10
4.8164
 20
7.01682
 30
0.0
 40
0
 41
0
  0
VERTEX
  8
0
 10
4.82026
 20
7.03131
 30
0.0
 40
0
 41
0
  0
VERTEX
  8
0
 10
4.83089
 20
7.0471
 30
0.0
 40
0
 41
0
  0
VERTEX
  8
0
 10
4.84663
 20
7.05772
 30
0.0
 40
0
 41
0
  0
VERTEX
  8
0
 10
4.86111
 20
7.06158
 30
0.0
 40
0
 41
0
  0
VERTEX
  8
0
 10
4.86594
 20
7.06158
 30
0.0
 40
0
 41
0
  0
SEQEND
 8
0
  0
POLYLINE
  8
0
 62
     12
 66
     1
 10
0
 20
0
 30
0.0
 70
     1
 40
0
 41
0
  0
VERTEX
  8
0
 10
3.514
 20
7.12858
 30
0.0
 40
0
 41
0
  0
VERTEX
  8
0
 10
3.49283
 20
7.12858
 30
0.0
 40
0
 41
0
  0
VERTEX
  8
0
 10
3.42942
 20
7.12007
 30
0.0
 40
0
 41
0
  0
VERTEX
  8
0
 10
3.35064
 20
7.09565
 30
0.0
 40
0
 41
0
  0
VERTEX
  8
0
 10
3.27935
 20
7.05697
 30
0.0
 40
0
 41
0
  0
VERTEX
  8
0
 10
3.21729
 20
7.00569
 30
0.0
 40
0
 41
0
  0
VERTEX
  8
0
 10
3.16601
 20
6.94358
 30
0.0
 40
0
 41
0
  0
VERTEX
  8
0
 10
3.12733
 20
6.87235
 30
0.0
 40
0
 41
0
  0
VERTEX
  8
0
 10
3.10292
 20
6.79357
 30
0.0
 40
0
 41
0
  0
VERTEX
  8
0
 10
3.0944
 20
6.73014
 30
0.0
 40
0
 41
0
  0
VERTEX
  8
0
 10
3.0944
 20
6.70899
 30
0.0
 40
0
 41
0
  0
VERTEX
  8
0
 10
3.0944
 20
6.68788
 30
0.0
 40
0
 41
0
  0
VERTEX
  8
0
 10
3.10292
 20
6.62446
 30
0.0
 40
0
 41
0
  0
VERTEX
  8
0
 10
3.12733
 20
6.54568
 30
0.0
 40
0
 41
0
  0
VERTEX
  8
0
 10
3.16601
 20
6.47444
 30
0.0
 40
0
 41
0
  0
VERTEX
  8
0
 10
3.21729
 20
6.41233
 30
0.0
 40
0
 41
0
  0
VERTEX
  8
0
 10
3.27935
 20
6.36111
 30
0.0
 40
0
 41
0
  0
VERTEX
  8
0
 10
3.35064
 20
6.32243
 30
0.0
 40
0
 41
0
  0
VERTEX
  8
0
 10
3.42942
 20
6.29801
 30
0.0
 40
0
 41
0
  0
VERTEX
  8
0
 10
3.49283
 20
6.28944
 30
0.0
 40
0
 41
0
  0
VERTEX
  8
0
 10
3.514
 20
6.28944
 30
0.0
 40
0
 41
0
  0
VERTEX
  8
0
 10
3.54178
 20
6.28944
 30
0.0
 40
0
 41
0
  0
VERTEX
  8
0
 10
3.67453
 20
6.32135
 30
0.0
 40
0
 41
0
  0
VERTEX
  8
0
 10
3.79096
 20
6.39268
 30
0.0
 40
0
 41
0
  0
VERTEX
  8
0
 10
3.81065
 20
6.41233
 30
0.0
 40
0
 41
0
  0
VERTEX
  8
0
 10
3.83029
 20
6.43201
 30
0.0
 40
0
 41
0
  0
VERTEX
  8
0
 10
3.90164
 20
6.54844
 30
0.0
 40
0
 41
0
  0
VERTEX
  8
0
 10
3.9336
 20
6.66889
 30
0.0
 40
0
 41
0
  0
VERTEX
  8
0
 10
3.9336
 20
6.70899
 30
0.0
 40
0
 41
0
  0
VERTEX
  8
0
 10
3.9336
 20
6.74914
 30
0.0
 40
0
 41
0
  0
VERTEX
  8
0
 10
3.90164
 20
6.86957
 30
0.0
 40
0
 41
0
  0
VERTEX
  8
0
 10
3.83029
 20
6.98606
 30
0.0
 40
0
 41
0
  0
VERTEX
  8
0
 10
3.81065
 20
7.00569
 30
0.0
 40
0
 41
0
  0
VERTEX
  8
0
 10
3.79096
 20
7.02539
 30
0.0
 40
0
 41
0
  0
VERTEX
  8
0
 10
3.67453
 20
7.09668
 30
0.0
 40
0
 41
0
  0
VERTEX
  8
0
 10
3.5541
 20
7.12858
 30
0.0
 40
0
 41
0
  0
VERTEX
  8
0
 10
3.514
 20
7.12858
 30
0.0
 40
0
 41
0
  0
SEQEND
 8
0
  0
POLYLINE
  8
0
 62
     12
 66
     1
 10
0
 20
0
 30
0.0
 70
     1
 40
0
 41
0
  0
VERTEX
  8
0
 10
3.69835
 20
6.99181
 30
0.0
 40
0
 41
0
  0
VERTEX
  8
0
 10
3.70313
 20
6.99181
 30
0.0
 40
0
 41
0
  0
VERTEX
  8
0
 10
3.71761
 20
6.98796
 30
0.0
 40
0
 41
0
  0
VERTEX
  8
0
 10
3.73335
 20
6.97732
 30
0.0
 40
0
 41
0
  0
VERTEX
  8
0
 10
3.74397
 20
6.96158
 30
0.0
 40
0
 41
0
  0
VERTEX
  8
0
 10
3.74789
 20
6.9471
 30
0.0
 40
0
 41
0
  0
VERTEX
  8
0
 10
3.74789
 20
6.94228
 30
0.0
 40
0
 41
0
  0
VERTEX
  8
0
 10
3.74789
 20
6.9375
 30
0.0
 40
0
 41
0
  0
VERTEX
  8
0
 10
3.74397
 20
6.92301
 30
0.0
 40
0
 41
0
  0
VERTEX
  8
0
 10
3.73335
 20
6.90728
 30
0.0
 40
0
 41
0
  0
VERTEX
  8
0
 10
3.71761
 20
6.89665
 30
0.0
 40
0
 41
0
  0
VERTEX
  8
0
 10
3.70313
 20
6.89274
 30
0.0
 40
0
 41
0
  0
VERTEX
  8
0
 10
3.69835
 20
6.89274
 30
0.0
 40
0
 41
0
  0
VERTEX
  8
0
 10
3.69353
 20
6.89274
 30
0.0
 40
0
 41
0
  0
VERTEX
  8
0
 10
3.67904
 20
6.89665
 30
0.0
 40
0
 41
0
  0
VERTEX
  8
0
 10
3.66331
 20
6.90728
 30
0.0
 40
0
 41
0
  0
VERTEX
  8
0
 10
3.65267
 20
6.92301
 30
0.0
 40
0
 41
0
  0
VERTEX
  8
0
 10
3.64882
 20
6.9375
 30
0.0
 40
0
 41
0
  0
VERTEX
  8
0
 10
3.64882
 20
6.94228
 30
0.0
 40
0
 41
0
  0
VERTEX
  8
0
 10
3.64882
 20
6.9471
 30
0.0
 40
0
 41
0
  0
VERTEX
  8
0
 10
3.65267
 20
6.96158
 30
0.0
 40
0
 41
0
  0
VERTEX
  8
0
 10
3.66331
 20
6.97732
 30
0.0
 40
0
 41
0
  0
VERTEX
  8
0
 10
3.67904
 20
6.98796
 30
0.0
 40
0
 41
0
  0
VERTEX
  8
0
 10
3.69353
 20
6.99181
 30
0.0
 40
0
 41
0
  0
VERTEX
  8
0
 10
3.69835
 20
6.99181
 30
0.0
 40
0
 41
0
  0
SEQEND
 8
0
  0
POLYLINE
  8
0
 62
     12
 66
     1
 10
0
 20
0
 30
0.0
 70
     1
 40
0
 41
0
  0
VERTEX
  8
0
 10
3.7296
 20
6.81369
 30
0.0
 40
0
 41
0
  0
VERTEX
  8
0
 10
3.73469
 20
6.81369
 30
0.0
 40
0
 41
0
  0
VERTEX
  8
0
 10
3.75
 20
6.80524
 30
0.0
 40
0
 41
0
  0
VERTEX
  8
0
 10
3.75851
 20
6.78993
 30
0.0
 40
0
 41
0
  0
VERTEX
  8
0
 10
3.75851
 20
6.78478
 30
0.0
 40
0
 41
0
  0
VERTEX
  8
0
 10
3.75851
 20
6.77968
 30
0.0
 40
0
 41
0
  0
VERTEX
  8
0
 10
3.75
 20
6.76432
 30
0.0
 40
0
 41
0
  0
VERTEX
  8
0
 10
3.73469
 20
6.75581
 30
0.0
 40
0
 41
0
  0
VERTEX
  8
0
 10
3.7296
 20
6.75581
 30
0.0
 40
0
 41
0
  0
VERTEX
  8
0
 10
3.72444
 20
6.75581
 30
0.0
 40
0
 41
0
  0
VERTEX
  8
0
 10
3.7091
 20
6.76432
 30
0.0
 40
0
 41
0
  0
VERTEX
  8
0
 10
3.70068
 20
6.77968
 30
0.0
 40
0
 41
0
  0
VERTEX
  8
0
 10
3.70068
 20
6.78478
 30
0.0
 40
0
 41
0
  0
VERTEX
  8
0
 10
3.70068
 20
6.78993
 30
0.0
 40
0
 41
0
  0
VERTEX
  8
0
 10
3.7091
 20
6.80524
 30
0.0
 40
0
 41
0
  0
VERTEX
  8
0
 10
3.72444
 20
6.81369
 30
0.0
 40
0
 41
0
  0
VERTEX
  8
0
 10
3.7296
 20
6.81369
 30
0.0
 40
0
 41
0
  0
SEQEND
 8
0
  0
POLYLINE
  8
0
 62
     12
 66
     1
 10
0
 20
0
 30
0.0
 70
     1
 40
0
 41
0
  0
VERTEX
  8
0
 10
4.0976
 20
6.78054
 30
0.0
 40
0
 41
0
  0
VERTEX
  8
0
 10
4.0976
 20
6.77431
 30
0.0
 40
0
 41
0
  0
VERTEX
  8
0
 10
4.09256
 20
6.75558
 30
0.0
 40
0
 41
0
  0
VERTEX
  8
0
 10
4.07883
 20
6.73525
 30
0.0
 40
0
 41
0
  0
VERTEX
  8
0
 10
4.05843
 20
6.72146
 30
0.0
 40
0
 41
0
  0
VERTEX
  8
0
 10
4.03971
 20
6.71642
 30
0.0
 40
0
 41
0
  0
VERTEX
  8
0
 10
4.03353
 20
6.71642
 30
0.0
 40
0
 41
0
  0
VERTEX
  8
0
 10
4.02724
 20
6.71642
 30
0.0
 40
0
 41
0
  0
VERTEX
  8
0
 10
4.00851
 20
6.72146
 30
0.0
 40
0
 41
0
  0
VERTEX
  8
0
 10
3.98817
 20
6.73525
 30
0.0
 40
0
 41
0
  0
VERTEX
  8
0
 10
3.97439
 20
6.75558
 30
0.0
 40
0
 41
0
  0
VERTEX
  8
0
 10
3.9694
 20
6.77431
 30
0.0
 40
0
 41
0
  0
VERTEX
  8
0
 10
3.9694
 20
6.78054
 30
0.0
 40
0
 41
0
  0
VERTEX
  8
0
 10
3.9694
 20
6.78678
 30
0.0
 40
0
 41
0
  0
VERTEX
  8
0
 10
3.97439
 20
6.8055
 30
0.0
 40
0
 41
0
  0
VERTEX
  8
0
 10
3.98817
 20
6.82585
 30
0.0
 40
0
 41
0
  0
VERTEX
  8
0
 10
4.00851
 20
6.83963
 30
0.0
 40
0
 41
0
  0
VERTEX
  8
0
 10
4.02724
 20
6.84462
 30
0.0
 40
0
 41
0
  0
VERTEX
  8
0
 10
4.03353
 20
6.84462
 30
0.0
 40
0
 41
0
  0
VERTEX
  8
0
 10
4.03971
 20
6.84462
 30
0.0
 40
0
 41
0
  0
VERTEX
  8
0
 10
4.05843
 20
6.83963
 30
0.0
 40
0
 41
0
  0
VERTEX
  8
0
 10
4.07883
 20
6.82585
 30
0.0
 40
0
 41
0
  0
VERTEX
  8
0
 10
4.09256
 20
6.8055
 30
0.0
 40
0
 41
0
  0
VERTEX
  8
0
 10
4.0976
 20
6.78678
 30
0.0
 40
0
 41
0
  0
VERTEX
  8
0
 10
4.0976
 20
6.78054
 30
0.0
 40
0
 41
0
  0
SEQEND
 8
0
  0
POLYLINE
  8
0
 62
     12
 66
     1
 10
0
 20
0
 30
0.0
 70
     1
 40
0
 41
0
  0
VERTEX
  8
0
 10
4.30067
 20
7.36729
 30
0.0
 40
0
 41
0
  0
VERTEX
  8
0
 10
4.30067
 20
7.35172
 30
0.0
 40
0
 41
0
  0
VERTEX
  8
0
 10
4.28825
 20
7.30496
 30
0.0
 40
0
 41
0
  0
VERTEX
  8
0
 10
4.26058
 20
7.25971
 30
0.0
 40
0
 41
0
  0
VERTEX
  8
0
 10
4.25299
 20
7.25206
 30
0.0
 40
0
 41
0
  0
VERTEX
  8
0
 10
4.24533
 20
7.24447
 30
0.0
 40
0
 41
0
  0
VERTEX
  8
0
 10
4.20008
 20
7.21674
 30
0.0
 40
0
 41
0
  0
VERTEX
  8
0
 10
4.15332
 20
7.20432
 30
0.0
 40
0
 41
0
  0
VERTEX
  8
0
 10
4.13775
 20
7.20432
 30
0.0
 40
0
 41
0
  0
VERTEX
  8
0
 10
4.12185
 20
7.20432
 30
0.0
 40
0
 41
0
  0
VERTEX
  8
0
 10
4.07428
 20
7.21718
 30
0.0
 40
0
 41
0
  0
VERTEX
  8
0
 10
4.02246
 20
7.25206
 30
0.0
 40
0
 41
0
  0
VERTEX
  8
0
 10
3.98757
 20
7.30388
 30
0.0
 40
0
 41
0
  0
VERTEX
  8
0
 10
3.97478
 20
7.35146
 30
0.0
 40
0
 41
0
  0
VERTEX
  8
0
 10
3.97478
 20
7.36729
 30
0.0
 40
0
 41
0
  0
VERTEX
  8
0
 10
3.97478
 20
7.38319
 30
0.0
 40
0
 41
0
  0
VERTEX
  8
0
 10
3.98757
 20
7.43078
 30
0.0
 40
0
 41
0
  0
VERTEX
  8
0
 10
4.02246
 20
7.48258
 30
0.0
 40
0
 41
0
  0
VERTEX
  8
0
 10
4.07428
 20
7.51747
 30
0.0
 40
0
 41
0
  0
VERTEX
  8
0
 10
4.12185
 20
7.53028
 30
0.0
 40
0
 41
0
  0
VERTEX
  8
0
 10
4.13775
 20
7.53028
 30
0.0
 40
0
 41
0
  0
VERTEX
  8
0
 10
4.15332
 20
7.53028
 30
0.0
 40
0
 41
0
  0
VERTEX
  8
0
 10
4.20008
 20
7.5179
 30
0.0
 40
0
 41
0
  0
VERTEX
  8
0
 10
4.24533
 20
7.49018
 30
0.0
 40
0
 41
0
  0
VERTEX
  8
0
 10
4.25299
 20
7.48253
 30
0.0
 40
0
 41
0
  0
VERTEX
  8
0
 10
4.26058
 20
7.47493
 30
0.0
 40
0
 41
0
  0
VERTEX
  8
0
 10
4.28825
 20
7.42969
 30
0.0
 40
0
 41
0
  0
VERTEX
  8
0
 10
4.30067
 20
7.38292
 30
0.0
 40
0
 41
0
  0
VERTEX
  8
0
 10
4.30067
 20
7.36729
 30
0.0
 40
0
 41
0
  0
SEQEND
 8
0
  0
POLYLINE
  8
0
 62
     12
 66
     1
 10
0
 20
0
 30
0.0
 70
     1
 40
0
 41
0
  0
VERTEX
  8
0
 10
4.04428
 20
7.04699
 30
0.0
 40
0
 41
0
  0
VERTEX
  8
0
 10
4.04428
 20
7.03808
 30
0.0
 40
0
 41
0
  0
VERTEX
  8
0
 10
4.03717
 20
7.01133
 30
0.0
 40
0
 41
0
  0
VERTEX
  8
0
 10
4.02132
 20
6.98546
 30
0.0
 40
0
 41
0
  0
VERTEX
  8
0
 10
4.01699
 20
6.98107
 30
0.0
 40
0
 41
0
  0
VERTEX
  8
0
 10
4.01258
 20
6.97672
 30
0.0
 40
0
 41
0
  0
VERTEX
  8
0
 10
3.98671
 20
6.96089
 30
0.0
 40
0
 41
0
  0
VERTEX
  8
0
 10
3.95996
 20
6.95372
 30
0.0
 40
0
 41
0
  0
VERTEX
  8
0
 10
3.95107
 20
6.95372
 30
0.0
 40
0
 41
0
  0
VERTEX
  8
0
 10
3.94194
 20
6.95372
 30
0.0
 40
0
 41
0
  0
VERTEX
  8
0
 10
3.91476
 20
6.9611
 30
0.0
 40
0
 41
0
  0
VERTEX
  8
0
 10
3.8851
 20
6.98107
 30
0.0
 40
0
 41
0
  0
VERTEX
  8
0
 10
3.86513
 20
7.01074
 30
0.0
 40
0
 41
0
  0
VERTEX
  8
0
 10
3.85781
 20
7.03792
 30
0.0
 40
0
 41
0
  0
VERTEX
  8
0
 10
3.85781
 20
7.04699
 30
0.0
 40
0
 41
0
  0
VERTEX
  8
0
 10
3.85781
 20
7.0561
 30
0.0
 40
0
 41
0
  0
VERTEX
  8
0
 10
3.86513
 20
7.08328
 30
0.0
 40
0
 41
0
  0
VERTEX
  8
0
 10
3.8851
 20
7.11296
 30
0.0
 40
0
 41
0
  0
VERTEX
  8
0
 10
3.91476
 20
7.13292
 30
0.0
 40
0
 41
0
  0
VERTEX
  8
0
 10
3.94194
 20
7.14025
 30
0.0
 40
0
 41
0
  0
VERTEX
  8
0
 10
3.95107
 20
7.14025
 30
0.0
 40
0
 41
0
  0
VERTEX
  8
0
 10
3.95996
 20
7.14025
 30
0.0
 40
0
 41
0
  0
VERTEX
  8
0
 10
3.98671
 20
7.13319
 30
0.0
 40
0
 41
0
  0
VERTEX
  8
0
 10
4.01258
 20
7.11729
 30
0.0
 40
0
 41
0
  0
VERTEX
  8
0
 10
4.01699
 20
7.1129
 30
0.0
 40
0
 41
0
  0
VERTEX
  8
0
 10
4.02132
 20
7.10856
 30
0.0
 40
0
 41
0
  0
VERTEX
  8
0
 10
4.03717
 20
7.08268
 30
0.0
 40
0
 41
0
  0
VERTEX
  8
0
 10
4.04428
 20
7.05593
 30
0.0
 40
0
 41
0
  0
VERTEX
  8
0
 10
4.04428
 20
7.04699
 30
0.0
 40
0
 41
0
  0
SEQEND
 8
0
  0
POLYLINE
  8
0
 62
     12
 66
     1
 10
0
 20
0
 30
0.0
 70
     1
 40
0
 41
0
  0
VERTEX
  8
0
 10
3.82867
 20
7.14312
 30
0.0
 40
0
 41
0
  0
VERTEX
  8
0
 10
3.82867
 20
7.13835
 30
0.0
 40
0
 41
0
  0
VERTEX
  8
0
 10
3.82476
 20
7.12386
 30
0.0
 40
0
 41
0
  0
VERTEX
  8
0
 10
3.81413
 20
7.10813
 30
0.0
 40
0
 41
0
  0
VERTEX
  8
0
 10
3.79839
 20
7.0975
 30
0.0
 40
0
 41
0
  0
VERTEX
  8
0
 10
3.7839
 20
7.09358
 30
0.0
 40
0
 41
0
  0
VERTEX
  8
0
 10
3.77914
 20
7.09358
 30
0.0
 40
0
 41
0
  0
VERTEX
  8
0
 10
3.77431
 20
7.09358
 30
0.0
 40
0
 41
0
  0
VERTEX
  8
0
 10
3.75982
 20
7.0975
 30
0.0
 40
0
 41
0
  0
VERTEX
  8
0
 10
3.74408
 20
7.10813
 30
0.0
 40
0
 41
0
  0
VERTEX
  8
0
 10
3.73346
 20
7.12386
 30
0.0
 40
0
 41
0
  0
VERTEX
  8
0
 10
3.7296
 20
7.13835
 30
0.0
 40
0
 41
0
  0
VERTEX
  8
0
 10
3.7296
 20
7.14312
 30
0.0
 40
0
 41
0
  0
VERTEX
  8
0
 10
3.7296
 20
7.14794
 30
0.0
 40
0
 41
0
  0
VERTEX
  8
0
 10
3.73346
 20
7.16243
 30
0.0
 40
0
 41
0
  0
VERTEX
  8
0
 10
3.74408
 20
7.17817
 30
0.0
 40
0
 41
0
  0
VERTEX
  8
0
 10
3.75982
 20
7.18881
 30
0.0
 40
0
 41
0
  0
VERTEX
  8
0
 10
3.77431
 20
7.19265
 30
0.0
 40
0
 41
0
  0
VERTEX
  8
0
 10
3.77914
 20
7.19265
 30
0.0
 40
0
 41
0
  0
VERTEX
  8
0
 10
3.7839
 20
7.19265
 30
0.0
 40
0
 41
0
  0
VERTEX
  8
0
 10
3.79839
 20
7.18881
 30
0.0
 40
0
 41
0
  0
VERTEX
  8
0
 10
3.81413
 20
7.17817
 30
0.0
 40
0
 41
0
  0
VERTEX
  8
0
 10
3.82476
 20
7.16243
 30
0.0
 40
0
 41
0
  0
VERTEX
  8
0
 10
3.82867
 20
7.14794
 30
0.0
 40
0
 41
0
  0
VERTEX
  8
0
 10
3.82867
 20
7.14312
 30
0.0
 40
0
 41
0
  0
SEQEND
 8
0
  0
POLYLINE
  8
0
 62
     12
 66
     1
 10
0
 20
0
 30
0.0
 70
     1
 40
0
 41
0
  0
VERTEX
  8
0
 10
4.25206
 20
7.09358
 30
0.0
 40
0
 41
0
  0
VERTEX
  8
0
 10
4.25206
 20
7.08882
 30
0.0
 40
0
 41
0
  0
VERTEX
  8
0
 10
4.24815
 20
7.07433
 30
0.0
 40
0
 41
0
  0
VERTEX
  8
0
 10
4.23753
 20
7.0586
 30
0.0
 40
0
 41
0
  0
VERTEX
  8
0
 10
4.22179
 20
7.04796
 30
0.0
 40
0
 41
0
  0
VERTEX
  8
0
 10
4.20731
 20
7.04406
 30
0.0
 40
0
 41
0
  0
VERTEX
  8
0
 10
4.20253
 20
7.04406
 30
0.0
 40
0
 41
0
  0
VERTEX
  8
0
 10
4.19769
 20
7.04406
 30
0.0
 40
0
 41
0
  0
VERTEX
  8
0
 10
4.18321
 20
7.04796
 30
0.0
 40
0
 41
0
  0
VERTEX
  8
0
 10
4.16749
 20
7.0586
 30
0.0
 40
0
 41
0
  0
VERTEX
  8
0
 10
4.15685
 20
7.07433
 30
0.0
 40
0
 41
0
  0
VERTEX
  8
0
 10
4.153
 20
7.08882
 30
0.0
 40
0
 41
0
  0
VERTEX
  8
0
 10
4.153
 20
7.09358
 30
0.0
 40
0
 41
0
  0
VERTEX
  8
0
 10
4.153
 20
7.09842
 30
0.0
 40
0
 41
0
  0
VERTEX
  8
0
 10
4.15685
 20
7.1129
 30
0.0
 40
0
 41
0
  0
VERTEX
  8
0
 10
4.16749
 20
7.12864
 30
0.0
 40
0
 41
0
  0
VERTEX
  8
0
 10
4.18321
 20
7.13926
 30
0.0
 40
0
 41
0
  0
VERTEX
  8
0
 10
4.19769
 20
7.14312
 30
0.0
 40
0
 41
0
  0
VERTEX
  8
0
 10
4.20253
 20
7.14312
 30
0.0
 40
0
 41
0
  0
VERTEX
  8
0
 10
4.20731
 20
7.14312
 30
0.0
 40
0
 41
0
  0
VERTEX
  8
0
 10
4.22179
 20
7.13926
 30
0.0
 40
0
 41
0
  0
VERTEX
  8
0
 10
4.23753
 20
7.12864
 30
0.0
 40
0
 41
0
  0
VERTEX
  8
0
 10
4.24815
 20
7.1129
 30
0.0
 40
0
 41
0
  0
VERTEX
  8
0
 10
4.25206
 20
7.09842
 30
0.0
 40
0
 41
0
  0
VERTEX
  8
0
 10
4.25206
 20
7.09358
 30
0.0
 40
0
 41
0
  0
SEQEND
 8
0
  0
POLYLINE
  8
0
 62
     12
 66
     1
 10
0
 20
0
 30
0.0
 70
     1
 40
0
 41
0
  0
VERTEX
  8
0
 10
4.40267
 20
7.51318
 30
0.0
 40
0
 41
0
  0
VERTEX
  8
0
 10
4.40267
 20
7.5084
 30
0.0
 40
0
 41
0
  0
VERTEX
  8
0
 10
4.39876
 20
7.49393
 30
0.0
 40
0
 41
0
  0
VERTEX
  8
0
 10
4.38813
 20
7.47819
 30
0.0
 40
0
 41
0
  0
VERTEX
  8
0
 10
4.3724
 20
7.46756
 30
0.0
 40
0
 41
0
  0
VERTEX
  8
0
 10
4.35792
 20
7.46365
 30
0.0
 40
0
 41
0
  0
VERTEX
  8
0
 10
4.35314
 20
7.46365
 30
0.0
 40
0
 41
0
  0
VERTEX
  8
0
 10
4.34831
 20
7.46365
 30
0.0
 40
0
 41
0
  0
VERTEX
  8
0
 10
4.33382
 20
7.46756
 30
0.0
 40
0
 41
0
  0
VERTEX
  8
0
 10
4.31808
 20
7.47819
 30
0.0
 40
0
 41
0
  0
VERTEX
  8
0
 10
4.30746
 20
7.49393
 30
0.0
 40
0
 41
0
  0
VERTEX
  8
0
 10
4.3036
 20
7.5084
 30
0.0
 40
0
 41
0
  0
VERTEX
  8
0
 10
4.3036
 20
7.51318
 30
0.0
 40
0
 41
0
  0
VERTEX
  8
0
 10
4.3036
 20
7.51801
 30
0.0
 40
0
 41
0
  0
VERTEX
  8
0
 10
4.30746
 20
7.5325
 30
0.0
 40
0
 41
0
  0
VERTEX
  8
0
 10
4.31808
 20
7.54824
 30
0.0
 40
0
 41
0
  0
VERTEX
  8
0
 10
4.33382
 20
7.55886
 30
0.0
 40
0
 41
0
  0
VERTEX
  8
0
 10
4.34831
 20
7.56272
 30
0.0
 40
0
 41
0
  0
VERTEX
  8
0
 10
4.35314
 20
7.56272
 30
0.0
 40
0
 41
0
  0
VERTEX
  8
0
 10
4.35792
 20
7.56272
 30
0.0
 40
0
 41
0
  0
VERTEX
  8
0
 10
4.3724
 20
7.55886
 30
0.0
 40
0
 41
0
  0
VERTEX
  8
0
 10
4.38813
 20
7.54824
 30
0.0
 40
0
 41
0
  0
VERTEX
  8
0
 10
4.39876
 20
7.5325
 30
0.0
 40
0
 41
0
  0
VERTEX
  8
0
 10
4.40267
 20
7.51801
 30
0.0
 40
0
 41
0
  0
VERTEX
  8
0
 10
4.40267
 20
7.51318
 30
0.0
 40
0
 41
0
  0
SEQEND
 8
0
  0
POLYLINE
  8
0
 62
     12
 66
     1
 10
0
 20
0
 30
0.0
 70
     1
 40
0
 41
0
  0
VERTEX
  8
0
 10
4.51047
 20
7.66715
 30
0.0
 40
0
 41
0
  0
VERTEX
  8
0
 10
4.51047
 20
7.65826
 30
0.0
 40
0
 41
0
  0
VERTEX
  8
0
 10
4.50336
 20
7.63151
 30
0.0
 40
0
 41
0
  0
VERTEX
  8
0
 10
4.48753
 20
7.60562
 30
0.0
 40
0
 41
0
  0
VERTEX
  8
0
 10
4.48318
 20
7.60124
 30
0.0
 40
0
 41
0
  0
VERTEX
  8
0
 10
4.47879
 20
7.5969
 30
0.0
 40
0
 41
0
  0
VERTEX
  8
0
 10
4.4529
 20
7.58106
 30
0.0
 40
0
 41
0
  0
VERTEX
  8
0
 10
4.42617
 20
7.57394
 30
0.0
 40
0
 41
0
  0
VERTEX
  8
0
 10
4.41726
 20
7.57394
 30
0.0
 40
0
 41
0
  0
VERTEX
  8
0
 10
4.40815
 20
7.57394
 30
0.0
 40
0
 41
0
  0
VERTEX
  8
0
 10
4.38097
 20
7.58128
 30
0.0
 40
0
 41
0
  0
VERTEX
  8
0
 10
4.35129
 20
7.60129
 30
0.0
 40
0
 41
0
  0
VERTEX
  8
0
 10
4.33132
 20
7.63092
 30
0.0
 40
0
 41
0
  0
VERTEX
  8
0
 10
4.324
 20
7.6581
 30
0.0
 40
0
 41
0
  0
VERTEX
  8
0
 10
4.324
 20
7.66715
 30
0.0
 40
0
 41
0
  0
VERTEX
  8
0
 10
4.324
 20
7.67611
 30
0.0
 40
0
 41
0
  0
VERTEX
  8
0
 10
4.33106
 20
7.70285
 30
0.0
 40
0
 41
0
  0
VERTEX
  8
0
 10
4.34694
 20
7.72879
 30
0.0
 40
0
 41
0
  0
VERTEX
  8
0
 10
4.35135
 20
7.73312
 30
0.0
 40
0
 41
0
  0
VERTEX
  8
0
 10
4.35568
 20
7.73753
 30
0.0
 40
0
 41
0
  0
VERTEX
  8
0
 10
4.38157
 20
7.75336
 30
0.0
 40
0
 41
0
  0
VERTEX
  8
0
 10
4.40831
 20
7.76042
 30
0.0
 40
0
 41
0
  0
VERTEX
  8
0
 10
4.41726
 20
7.76042
 30
0.0
 40
0
 41
0
  0
VERTEX
  8
0
 10
4.42617
 20
7.76042
 30
0.0
 40
0
 41
0
  0
VERTEX
  8
0
 10
4.4529
 20
7.75336
 30
0.0
 40
0
 41
0
  0
VERTEX
  8
0
 10
4.47879
 20
7.73753
 30
0.0
 40
0
 41
0
  0
VERTEX
  8
0
 10
4.48318
 20
7.73312
 30
0.0
 40
0
 41
0
  0
VERTEX
  8
0
 10
4.48753
 20
7.72879
 30
0.0
 40
0
 41
0
  0
VERTEX
  8
0
 10
4.50336
 20
7.70285
 30
0.0
 40
0
 41
0
  0
VERTEX
  8
0
 10
4.51047
 20
7.67611
 30
0.0
 40
0
 41
0
  0
VERTEX
  8
0
 10
4.51047
 20
7.66715
 30
0.0
 40
0
 41
0
  0
SEQEND
 8
0
  0
POLYLINE
  8
0
 62
     12
 66
     1
 10
0
 20
0
 30
0.0
 70
     1
 40
0
 41
0
  0
VERTEX
  8
0
 10
4.29796
 20
7.55881
 30
0.0
 40
0
 41
0
  0
VERTEX
  8
0
 10
4.29796
 20
7.55371
 30
0.0
 40
0
 41
0
  0
VERTEX
  8
0
 10
4.28944
 20
7.53842
 30
0.0
 40
0
 41
0
  0
VERTEX
  8
0
 10
4.27408
 20
7.52989
 30
0.0
 40
0
 41
0
  0
VERTEX
  8
0
 10
4.26899
 20
7.52989
 30
0.0
 40
0
 41
0
  0
VERTEX
  8
0
 10
4.26383
 20
7.52989
 30
0.0
 40
0
 41
0
  0
VERTEX
  8
0
 10
4.24854
 20
7.53842
 30
0.0
 40
0
 41
0
  0
VERTEX
  8
0
 10
4.24007
 20
7.55371
 30
0.0
 40
0
 41
0
  0
VERTEX
  8
0
 10
4.24007
 20
7.55881
 30
0.0
 40
0
 41
0
  0
VERTEX
  8
0
 10
4.24007
 20
7.56396
 30
0.0
 40
0
 41
0
  0
VERTEX
  8
0
 10
4.24854
 20
7.57932
 30
0.0
 40
0
 41
0
  0
VERTEX
  8
0
 10
4.26383
 20
7.58778
 30
0.0
 40
0
 41
0
  0
VERTEX
  8
0
 10
4.26899
 20
7.58778
 30
0.0
 40
0
 41
0
  0
VERTEX
  8
0
 10
4.27408
 20
7.58778
 30
0.0
 40
0
 41
0
  0
VERTEX
  8
0
 10
4.28944
 20
7.57932
 30
0.0
 40
0
 41
0
  0
VERTEX
  8
0
 10
4.29796
 20
7.56396
 30
0.0
 40
0
 41
0
  0
VERTEX
  8
0
 10
4.29796
 20
7.55881
 30
0.0
 40
0
 41
0
  0
SEQEND
 8
0
  0
POLYLINE
  8
0
 62
     12
 66
     1
 10
0
 20
0
 30
0.0
 70
     1
 40
0
 41
0
  0
VERTEX
  8
0
 10
4.29796
 20
7.55881
 30
0.0
 40
0
 41
0
  0
VERTEX
  8
0
 10
4.29796
 20
7.55371
 30
0.0
 40
0
 41
0
  0
VERTEX
  8
0
 10
4.28944
 20
7.53842
 30
0.0
 40
0
 41
0
  0
VERTEX
  8
0
 10
4.27408
 20
7.52989
 30
0.0
 40
0
 41
0
  0
VERTEX
  8
0
 10
4.26899
 20
7.52989
 30
0.0
 40
0
 41
0
  0
VERTEX
  8
0
 10
4.26383
 20
7.52989
 30
0.0
 40
0
 41
0
  0
VERTEX
  8
0
 10
4.24854
 20
7.53842
 30
0.0
 40
0
 41
0
  0
VERTEX
  8
0
 10
4.24007
 20
7.55371
 30
0.0
 40
0
 41
0
  0
VERTEX
  8
0
 10
4.24007
 20
7.55881
 30
0.0
 40
0
 41
0
  0
VERTEX
  8
0
 10
4.24007
 20
7.56396
 30
0.0
 40
0
 41
0
  0
VERTEX
  8
0
 10
4.24854
 20
7.57932
 30
0.0
 40
0
 41
0
  0
VERTEX
  8
0
 10
4.26383
 20
7.58778
 30
0.0
 40
0
 41
0
  0
VERTEX
  8
0
 10
4.26899
 20
7.58778
 30
0.0
 40
0
 41
0
  0
VERTEX
  8
0
 10
4.27408
 20
7.58778
 30
0.0
 40
0
 41
0
  0
VERTEX
  8
0
 10
4.28944
 20
7.57932
 30
0.0
 40
0
 41
0
  0
VERTEX
  8
0
 10
4.29796
 20
7.56396
 30
0.0
 40
0
 41
0
  0
VERTEX
  8
0
 10
4.29796
 20
7.55881
 30
0.0
 40
0
 41
0
  0
SEQEND
 8
0
  0
POLYLINE
  8
0
 62
     12
 66
     1
 10
0
 20
0
 30
0.0
 70
     1
 40
0
 41
0
  0
VERTEX
  8
0
 10
3.95167
 20
7.41461
 30
0.0
 40
0
 41
0
  0
VERTEX
  8
0
 10
3.95167
 20
7.40597
 30
0.0
 40
0
 41
0
  0
VERTEX
  8
0
 10
3.94476
 20
7.37993
 30
0.0
 40
0
 41
0
  0
VERTEX
  8
0
 10
3.92936
 20
7.35482
 30
0.0
 40
0
 41
0
  0
VERTEX
  8
0
 10
3.92513
 20
7.35053
 30
0.0
 40
0
 41
0
  0
VERTEX
  8
0
 10
3.92085
 20
7.34631
 30
0.0
 40
0
 41
0
  0
VERTEX
  8
0
 10
3.89572
 20
7.33094
 30
0.0
 40
0
 41
0
  0
VERTEX
  8
0
 10
3.86968
 20
7.324
 30
0.0
 40
0
 41
0
  0
VERTEX
  8
0
 10
3.86106
 20
7.324
 30
0.0
 40
0
 41
0
  0
VERTEX
  8
0
 10
3.85221
 20
7.324
 30
0.0
 40
0
 41
0
  0
VERTEX
  8
0
 10
3.82579
 20
7.33117
 30
0.0
 40
0
 41
0
  0
VERTEX
  8
0
 10
3.79699
 20
7.35058
 30
0.0
 40
0
 41
0
  0
VERTEX
  8
0
 10
3.77756
 20
7.37939
 30
0.0
 40
0
 41
0
  0
VERTEX
  8
0
 10
3.77046
 20
7.40582
 30
0.0
 40
0
 41
0
  0
VERTEX
  8
0
 10
3.77046
 20
7.41461
 30
0.0
 40
0
 41
0
  0
VERTEX
  8
0
 10
3.77046
 20
7.42344
 30
0.0
 40
0
 41
0
  0
VERTEX
  8
0
 10
3.77756
 20
7.44993
 30
0.0
 40
0
 41
0
  0
VERTEX
  8
0
 10
3.79699
 20
7.47874
 30
0.0
 40
0
 41
0
  0
VERTEX
  8
0
 10
3.82579
 20
7.4981
 30
0.0
 40
0
 41
0
  0
VERTEX
  8
0
 10
3.85221
 20
7.50521
 30
0.0
 40
0
 41
0
  0
VERTEX
  8
0
 10
3.86106
 20
7.50521
 30
0.0
 40
0
 41
0
  0
VERTEX
  8
0
 10
3.86968
 20
7.50521
 30
0.0
 40
0
 41
0
  0
VERTEX
  8
0
 10
3.89572
 20
7.49832
 30
0.0
 40
0
 41
0
  0
VERTEX
  8
0
 10
3.92085
 20
7.48296
 30
0.0
 40
0
 41
0
  0
VERTEX
  8
0
 10
3.92513
 20
7.47868
 30
0.0
 40
0
 41
0
  0
VERTEX
  8
0
 10
3.92936
 20
7.47444
 30
0.0
 40
0
 41
0
  0
VERTEX
  8
0
 10
3.94476
 20
7.44933
 30
0.0
 40
0
 41
0
  0
VERTEX
  8
0
 10
3.95167
 20
7.42329
 30
0.0
 40
0
 41
0
  0
VERTEX
  8
0
 10
3.95167
 20
7.41461
 30
0.0
 40
0
 41
0
  0
SEQEND
 8
0
  0
POLYLINE
  8
0
 62
     12
 66
     1
 10
0
 20
0
 30
0.0
 70
     1
 40
0
 41
0
  0
VERTEX
  8
0
 10
3.97049
 20
7.23329
 30
0.0
 40
0
 41
0
  0
VERTEX
  8
0
 10
3.97049
 20
7.22711
 30
0.0
 40
0
 41
0
  0
VERTEX
  8
0
 10
3.96544
 20
7.20839
 30
0.0
 40
0
 41
0
  0
VERTEX
  8
0
 10
3.95171
 20
7.18799
 30
0.0
 40
0
 41
0
  0
VERTEX
  8
0
 10
3.93132
 20
7.17426
 30
0.0
 40
0
 41
0
  0
VERTEX
  8
0
 10
3.9126
 20
7.16922
 30
0.0
 40
0
 41
0
  0
VERTEX
  8
0
 10
3.90642
 20
7.16922
 30
0.0
 40
0
 41
0
  0
VERTEX
  8
0
 10
3.90012
 20
7.16922
 30
0.0
 40
0
 41
0
  0
VERTEX
  8
0
 10
3.8814
 20
7.17426
 30
0.0
 40
0
 41
0
  0
VERTEX
  8
0
 10
3.86106
 20
7.18799
 30
0.0
 40
0
 41
0
  0
VERTEX
  8
0
 10
3.84728
 20
7.20839
 30
0.0
 40
0
 41
0
  0
VERTEX
  8
0
 10
3.84229
 20
7.22711
 30
0.0
 40
0
 41
0
  0
VERTEX
  8
0
 10
3.84229
 20
7.23329
 30
0.0
 40
0
 41
0
  0
VERTEX
  8
0
 10
3.84229
 20
7.23958
 30
0.0
 40
0
 41
0
  0
VERTEX
  8
0
 10
3.84728
 20
7.25831
 30
0.0
 40
0
 41
0
  0
VERTEX
  8
0
 10
3.86106
 20
7.27865
 30
0.0
 40
0
 41
0
  0
VERTEX
  8
0
 10
3.8814
 20
7.29243
 30
0.0
 40
0
 41
0
  0
VERTEX
  8
0
 10
3.90012
 20
7.29742
 30
0.0
 40
0
 41
0
  0
VERTEX
  8
0
 10
3.90642
 20
7.29742
 30
0.0
 40
0
 41
0
  0
VERTEX
  8
0
 10
3.9126
 20
7.29742
 30
0.0
 40
0
 41
0
  0
VERTEX
  8
0
 10
3.93132
 20
7.29243
 30
0.0
 40
0
 41
0
  0
VERTEX
  8
0
 10
3.95171
 20
7.27865
 30
0.0
 40
0
 41
0
  0
VERTEX
  8
0
 10
3.96544
 20
7.25831
 30
0.0
 40
0
 41
0
  0
VERTEX
  8
0
 10
3.97049
 20
7.23958
 30
0.0
 40
0
 41
0
  0
VERTEX
  8
0
 10
3.97049
 20
7.23329
 30
0.0
 40
0
 41
0
  0
SEQEND
 8
0
  0
POLYLINE
  8
0
 62
     12
 66
     1
 10
0
 20
0
 30
0.0
 70
     1
 40
0
 41
0
  0
VERTEX
  8
0
 10
4.30838
 20
7.67833
 30
0.0
 40
0
 41
0
  0
VERTEX
  8
0
 10
4.30838
 20
7.67215
 30
0.0
 40
0
 41
0
  0
VERTEX
  8
0
 10
4.30333
 20
7.65343
 30
0.0
 40
0
 41
0
  0
VERTEX
  8
0
 10
4.28961
 20
7.63303
 30
0.0
 40
0
 41
0
  0
VERTEX
  8
0
 10
4.26921
 20
7.61931
 30
0.0
 40
0
 41
0
  0
VERTEX
  8
0
 10
4.25049
 20
7.61426
 30
0.0
 40
0
 41
0
  0
VERTEX
  8
0
 10
4.24431
 20
7.61426
 30
0.0
 40
0
 41
0
  0
VERTEX
  8
0
 10
4.23801
 20
7.61426
 30
0.0
 40
0
 41
0
  0
VERTEX
  8
0
 10
4.21929
 20
7.61931
 30
0.0
 40
0
 41
0
  0
VERTEX
  8
0
 10
4.19894
 20
7.63303
 30
0.0
 40
0
 41
0
  0
VERTEX
  8
0
 10
4.18517
 20
7.65343
 30
0.0
 40
0
 41
0
  0
VERTEX
  8
0
 10
4.18018
 20
7.67215
 30
0.0
 40
0
 41
0
  0
VERTEX
  8
0
 10
4.18018
 20
7.67833
 30
0.0
 40
0
 41
0
  0
VERTEX
  8
0
 10
4.18018
 20
7.68463
 30
0.0
 40
0
 41
0
  0
VERTEX
  8
0
 10
4.18517
 20
7.70335
 30
0.0
 40
0
 41
0
  0
VERTEX
  8
0
 10
4.19894
 20
7.72368
 30
0.0
 40
0
 41
0
  0
VERTEX
  8
0
 10
4.21929
 20
7.73747
 30
0.0
 40
0
 41
0
  0
VERTEX
  8
0
 10
4.23801
 20
7.74246
 30
0.0
 40
0
 41
0
  0
VERTEX
  8
0
 10
4.24431
 20
7.74246
 30
0.0
 40
0
 41
0
  0
VERTEX
  8
0
 10
4.25049
 20
7.74246
 30
0.0
 40
0
 41
0
  0
VERTEX
  8
0
 10
4.26921
 20
7.73747
 30
0.0
 40
0
 41
0
  0
VERTEX
  8
0
 10
4.28961
 20
7.72368
 30
0.0
 40
0
 41
0
  0
VERTEX
  8
0
 10
4.30333
 20
7.70335
 30
0.0
 40
0
 41
0
  0
VERTEX
  8
0
 10
4.30838
 20
7.68463
 30
0.0
 40
0
 41
0
  0
VERTEX
  8
0
 10
4.30838
 20
7.67833
 30
0.0
 40
0
 41
0
  0
SEQEND
 8
0
  0
POLYLINE
  8
0
 62
     12
 66
     1
 10
0
 20
0
 30
0.0
 70
     1
 40
0
 41
0
  0
VERTEX
  8
0
 10
4.29406
 20
7.21685
 30
0.0
 40
0
 41
0
  0
VERTEX
  8
0
 10
4.29406
 20
7.21213
 30
0.0
 40
0
 41
0
  0
VERTEX
  8
0
 10
4.28614
 20
7.19786
 30
0.0
 40
0
 41
0
  0
VERTEX
  8
0
 10
4.27192
 20
7.18994
 30
0.0
 40
0
 41
0
  0
VERTEX
  8
0
 10
4.26719
 20
7.18994
 30
0.0
 40
0
 41
0
  0
VERTEX
  8
0
 10
4.26243
 20
7.18994
 30
0.0
 40
0
 41
0
  0
VERTEX
  8
0
 10
4.24815
 20
7.19786
 30
0.0
 40
0
 41
0
  0
VERTEX
  8
0
 10
4.24029
 20
7.21213
 30
0.0
 40
0
 41
0
  0
VERTEX
  8
0
 10
4.24029
 20
7.21685
 30
0.0
 40
0
 41
0
  0
VERTEX
  8
0
 10
4.24029
 20
7.22162
 30
0.0
 40
0
 41
0
  0
VERTEX
  8
0
 10
4.24815
 20
7.23583
 30
0.0
 40
0
 41
0
  0
VERTEX
  8
0
 10
4.26243
 20
7.24371
 30
0.0
 40
0
 41
0
  0
VERTEX
  8
0
 10
4.26719
 20
7.24371
 30
0.0
 40
0
 41
0
  0
VERTEX
  8
0
 10
4.27192
 20
7.24371
 30
0.0
 40
0
 41
0
  0
VERTEX
  8
0
 10
4.28614
 20
7.23583
 30
0.0
 40
0
 41
0
  0
VERTEX
  8
0
 10
4.29406
 20
7.22162
 30
0.0
 40
0
 41
0
  0
VERTEX
  8
0
 10
4.29406
 20
7.21685
 30
0.0
 40
0
 41
0
  0
SEQEND
 8
0
  0
POLYLINE
  8
0
 62
     12
 66
     1
 10
0
 20
0
 30
0.0
 70
     1
 40
0
 41
0
  0
VERTEX
  8
0
 10
4.20042
 20
7.17974
 30
0.0
 40
0
 41
0
  0
VERTEX
  8
0
 10
4.20042
 20
7.17719
 30
0.0
 40
0
 41
0
  0
VERTEX
  8
0
 10
4.19613
 20
7.16949
 30
0.0
 40
0
 41
0
  0
VERTEX
  8
0
 10
4.18847
 20
7.16521
 30
0.0
 40
0
 41
0
  0
VERTEX
  8
0
 10
4.18593
 20
7.16521
 30
0.0
 40
0
 41
0
  0
VERTEX
  8
0
 10
4.18332
 20
7.16521
 30
0.0
 40
0
 41
0
  0
VERTEX
  8
0
 10
4.17562
 20
7.16949
 30
0.0
 40
0
 41
0
  0
VERTEX
  8
0
 10
4.17139
 20
7.17719
 30
0.0
 40
0
 41
0
  0
VERTEX
  8
0
 10
4.17139
 20
7.17974
 30
0.0
 40
0
 41
0
  0
VERTEX
  8
0
 10
4.17139
 20
7.18235
 30
0.0
 40
0
 41
0
  0
VERTEX
  8
0
 10
4.17562
 20
7.19
 30
0.0
 40
0
 41
0
  0
VERTEX
  8
0
 10
4.18332
 20
7.19422
 30
0.0
 40
0
 41
0
  0
VERTEX
  8
0
 10
4.18593
 20
7.19422
 30
0.0
 40
0
 41
0
  0
VERTEX
  8
0
 10
4.18847
 20
7.19422
 30
0.0
 40
0
 41
0
  0
VERTEX
  8
0
 10
4.19613
 20
7.19
 30
0.0
 40
0
 41
0
  0
VERTEX
  8
0
 10
4.20042
 20
7.18235
 30
0.0
 40
0
 41
0
  0
VERTEX
  8
0
 10
4.20042
 20
7.17974
 30
0.0
 40
0
 41
0
  0
SEQEND
 8
0
  0
POLYLINE
  8
0
 62
     12
 66
     1
 10
0
 20
0
 30
0.0
 70
     1
 40
0
 41
0
  0
VERTEX
  8
0
 10
4.13954
 20
7.16325
 30
0.0
 40
0
 41
0
  0
VERTEX
  8
0
 10
4.13954
 20
7.15853
 30
0.0
 40
0
 41
0
  0
VERTEX
  8
0
 10
4.13162
 20
7.14432
 30
0.0
 40
0
 41
0
  0
VERTEX
  8
0
 10
4.1174
 20
7.13639
 30
0.0
 40
0
 41
0
  0
VERTEX
  8
0
 10
4.11268
 20
7.13639
 30
0.0
 40
0
 41
0
  0
VERTEX
  8
0
 10
4.10792
 20
7.13639
 30
0.0
 40
0
 41
0
  0
VERTEX
  8
0
 10
4.09364
 20
7.14432
 30
0.0
 40
0
 41
0
  0
VERTEX
  8
0
 10
4.08578
 20
7.15853
 30
0.0
 40
0
 41
0
  0
VERTEX
  8
0
 10
4.08578
 20
7.16325
 30
0.0
 40
0
 41
0
  0
VERTEX
  8
0
 10
4.08578
 20
7.16803
 30
0.0
 40
0
 41
0
  0
VERTEX
  8
0
 10
4.09364
 20
7.18229
 30
0.0
 40
0
 41
0
  0
VERTEX
  8
0
 10
4.10792
 20
7.19011
 30
0.0
 40
0
 41
0
  0
VERTEX
  8
0
 10
4.11268
 20
7.19011
 30
0.0
 40
0
 41
0
  0
VERTEX
  8
0
 10
4.1174
 20
7.19011
 30
0.0
 40
0
 41
0
  0
VERTEX
  8
0
 10
4.13162
 20
7.18229
 30
0.0
 40
0
 41
0
  0
VERTEX
  8
0
 10
4.13954
 20
7.16803
 30
0.0
 40
0
 41
0
  0
VERTEX
  8
0
 10
4.13954
 20
7.16325
 30
0.0
 40
0
 41
0
  0
SEQEND
 8
0
  0
POLYLINE
  8
0
 62
     12
 66
     1
 10
0
 20
0
 30
0.0
 70
     1
 40
0
 41
0
  0
VERTEX
  8
0
 10
4.45671
 20
7.91297
 30
0.0
 40
0
 41
0
  0
VERTEX
  8
0
 10
4.45671
 20
7.89822
 30
0.0
 40
0
 41
0
  0
VERTEX
  8
0
 10
4.44488
 20
7.85379
 30
0.0
 40
0
 41
0
  0
VERTEX
  8
0
 10
4.41862
 20
7.81087
 30
0.0
 40
0
 41
0
  0
VERTEX
  8
0
 10
4.4114
 20
7.8036
 30
0.0
 40
0
 41
0
  0
VERTEX
  8
0
 10
4.40414
 20
7.79639
 30
0.0
 40
0
 41
0
  0
VERTEX
  8
0
 10
4.36117
 20
7.77007
 30
0.0
 40
0
 41
0
  0
VERTEX
  8
0
 10
4.31674
 20
7.75825
 30
0.0
 40
0
 41
0
  0
VERTEX
  8
0
 10
4.30197
 20
7.75825
 30
0.0
 40
0
 41
0
  0
VERTEX
  8
0
 10
4.28689
 20
7.75825
 30
0.0
 40
0
 41
0
  0
VERTEX
  8
0
 10
4.24169
 20
7.77046
 30
0.0
 40
0
 41
0
  0
VERTEX
  8
0
 10
4.19254
 20
7.8036
 30
0.0
 40
0
 41
0
  0
VERTEX
  8
0
 10
4.1594
 20
7.85275
 30
0.0
 40
0
 41
0
  0
VERTEX
  8
0
 10
4.14725
 20
7.89794
 30
0.0
 40
0
 41
0
  0
VERTEX
  8
0
 10
4.14725
 20
7.91297
 30
0.0
 40
0
 41
0
  0
VERTEX
  8
0
 10
4.14725
 20
7.92806
 30
0.0
 40
0
 41
0
  0
VERTEX
  8
0
 10
4.1594
 20
7.97325
 30
0.0
 40
0
 41
0
  0
VERTEX
  8
0
 10
4.19254
 20
8.0224
 30
0.0
 40
0
 41
0
  0
VERTEX
  8
0
 10
4.24169
 20
8.05556
 30
0.0
 40
0
 41
0
  0
VERTEX
  8
0
 10
4.28689
 20
8.06771
 30
0.0
 40
0
 41
0
  0
VERTEX
  8
0
 10
4.30197
 20
8.06771
 30
0.0
 40
0
 41
0
  0
VERTEX
  8
0
 10
4.31674
 20
8.06771
 30
0.0
 40
0
 41
0
  0
VERTEX
  8
0
 10
4.36117
 20
8.05599
 30
0.0
 40
0
 41
0
  0
VERTEX
  8
0
 10
4.40414
 20
8.02968
 30
0.0
 40
0
 41
0
  0
VERTEX
  8
0
 10
4.4114
 20
8.0224
 30
0.0
 40
0
 41
0
  0
VERTEX
  8
0
 10
4.41862
 20
8.01519
 30
0.0
 40
0
 41
0
  0
VERTEX
  8
0
 10
4.44488
 20
7.97222
 30
0.0
 40
0
 41
0
  0
VERTEX
  8
0
 10
4.45671
 20
7.92779
 30
0.0
 40
0
 41
0
  0
VERTEX
  8
0
 10
4.45671
 20
7.91297
 30
0.0
 40
0
 41
0
  0
SEQEND
 8
0
  0
POLYLINE
  8
0
 62
     12
 66
     1
 10
0
 20
0
 30
0.0
 70
     1
 40
0
 41
0
  0
VERTEX
  8
0
 10
4.10238
 20
7.68658
 30
0.0
 40
0
 41
0
  0
VERTEX
  8
0
 10
4.10238
 20
7.68033
 30
0.0
 40
0
 41
0
  0
VERTEX
  8
0
 10
4.09733
 20
7.66163
 30
0.0
 40
0
 41
0
  0
VERTEX
  8
0
 10
4.08356
 20
7.64128
 30
0.0
 40
0
 41
0
  0
VERTEX
  8
0
 10
4.06321
 20
7.6275
 30
0.0
 40
0
 41
0
  0
VERTEX
  8
0
 10
4.04449
 20
7.62244
 30
0.0
 40
0
 41
0
  0
VERTEX
  8
0
 10
4.03825
 20
7.62244
 30
0.0
 40
0
 41
0
  0
VERTEX
  8
0
 10
4.03201
 20
7.62244
 30
0.0
 40
0
 41
0
  0
VERTEX
  8
0
 10
4.01329
 20
7.6275
 30
0.0
 40
0
 41
0
  0
VERTEX
  8
0
 10
3.99294
 20
7.64128
 30
0.0
 40
0
 41
0
  0
VERTEX
  8
0
 10
3.97917
 20
7.66163
 30
0.0
 40
0
 41
0
  0
VERTEX
  8
0
 10
3.97418
 20
7.68033
 30
0.0
 40
0
 41
0
  0
VERTEX
  8
0
 10
3.97418
 20
7.68658
 30
0.0
 40
0
 41
0
  0
VERTEX
  8
0
 10
3.97418
 20
7.69288
 30
0.0
 40
0
 41
0
  0
VERTEX
  8
0
 10
3.97917
 20
7.71158
 30
0.0
 40
0
 41
0
  0
VERTEX
  8
0
 10
3.99294
 20
7.73193
 30
0.0
 40
0
 41
0
  0
VERTEX
  8
0
 10
4.01329
 20
7.74571
 30
0.0
 40
0
 41
0
  0
VERTEX
  8
0
 10
4.03201
 20
7.75071
 30
0.0
 40
0
 41
0
  0
VERTEX
  8
0
 10
4.03825
 20
7.75071
 30
0.0
 40
0
 41
0
  0
VERTEX
  8
0
 10
4.04449
 20
7.75071
 30
0.0
 40
0
 41
0
  0
VERTEX
  8
0
 10
4.06321
 20
7.74571
 30
0.0
 40
0
 41
0
  0
VERTEX
  8
0
 10
4.08356
 20
7.73193
 30
0.0
 40
0
 41
0
  0
VERTEX
  8
0
 10
4.09733
 20
7.71158
 30
0.0
 40
0
 41
0
  0
VERTEX
  8
0
 10
4.10238
 20
7.69288
 30
0.0
 40
0
 41
0
  0
VERTEX
  8
0
 10
4.10238
 20
7.68658
 30
0.0
 40
0
 41
0
  0
SEQEND
 8
0
  0
POLYLINE
  8
0
 62
     12
 66
     1
 10
0
 20
0
 30
0.0
 70
     1
 40
0
 41
0
  0
VERTEX
  8
0
 10
4.03424
 20
7.1715
 30
0.0
 40
0
 41
0
  0
VERTEX
  8
0
 10
4.03424
 20
7.16639
 30
0.0
 40
0
 41
0
  0
VERTEX
  8
0
 10
4.02572
 20
7.15104
 30
0.0
 40
0
 41
0
  0
VERTEX
  8
0
 10
4.01042
 20
7.14258
 30
0.0
 40
0
 41
0
  0
VERTEX
  8
0
 10
4.00532
 20
7.14258
 30
0.0
 40
0
 41
0
  0
VERTEX
  8
0
 10
4.00017
 20
7.14258
 30
0.0
 40
0
 41
0
  0
VERTEX
  8
0
 10
3.98481
 20
7.15104
 30
0.0
 40
0
 41
0
  0
VERTEX
  8
0
 10
3.97635
 20
7.16639
 30
0.0
 40
0
 41
0
  0
VERTEX
  8
0
 10
3.97635
 20
7.1715
 30
0.0
 40
0
 41
0
  0
VERTEX
  8
0
 10
3.97635
 20
7.17665
 30
0.0
 40
0
 41
0
  0
VERTEX
  8
0
 10
3.98481
 20
7.19194
 30
0.0
 40
0
 41
0
  0
VERTEX
  8
0
 10
4.00017
 20
7.20042
 30
0.0
 40
0
 41
0
  0
VERTEX
  8
0
 10
4.00532
 20
7.20042
 30
0.0
 40
0
 41
0
  0
VERTEX
  8
0
 10
4.01042
 20
7.20042
 30
0.0
 40
0
 41
0
  0
VERTEX
  8
0
 10
4.02572
 20
7.19194
 30
0.0
 40
0
 41
0
  0
VERTEX
  8
0
 10
4.03424
 20
7.17665
 30
0.0
 40
0
 41
0
  0
VERTEX
  8
0
 10
4.03424
 20
7.1715
 30
0.0
 40
0
 41
0
  0
SEQEND
 8
0
  0
POLYLINE
  8
0
 62
     12
 66
     1
 10
0
 20
0
 30
0.0
 70
     1
 40
0
 41
0
  0
VERTEX
  8
0
 10
4.18668
 20
7.58768
 30
0.0
 40
0
 41
0
  0
VERTEX
  8
0
 10
4.18668
 20
7.5829
 30
0.0
 40
0
 41
0
  0
VERTEX
  8
0
 10
4.18278
 20
7.56842
 30
0.0
 40
0
 41
0
  0
VERTEX
  8
0
 10
4.17215
 20
7.55268
 30
0.0
 40
0
 41
0
  0
VERTEX
  8
0
 10
4.15642
 20
7.54204
 30
0.0
 40
0
 41
0
  0
VERTEX
  8
0
 10
4.14193
 20
7.53814
 30
0.0
 40
0
 41
0
  0
VERTEX
  8
0
 10
4.13715
 20
7.53814
 30
0.0
 40
0
 41
0
  0
VERTEX
  8
0
 10
4.13232
 20
7.53814
 30
0.0
 40
0
 41
0
  0
VERTEX
  8
0
 10
4.11783
 20
7.54204
 30
0.0
 40
0
 41
0
  0
VERTEX
  8
0
 10
4.10211
 20
7.55268
 30
0.0
 40
0
 41
0
  0
VERTEX
  8
0
 10
4.09147
 20
7.56842
 30
0.0
 40
0
 41
0
  0
VERTEX
  8
0
 10
4.08762
 20
7.5829
 30
0.0
 40
0
 41
0
  0
VERTEX
  8
0
 10
4.08762
 20
7.58768
 30
0.0
 40
0
 41
0
  0
VERTEX
  8
0
 10
4.08762
 20
7.5925
 30
0.0
 40
0
 41
0
  0
VERTEX
  8
0
 10
4.09147
 20
7.60699
 30
0.0
 40
0
 41
0
  0
VERTEX
  8
0
 10
4.10211
 20
7.62272
 30
0.0
 40
0
 41
0
  0
VERTEX
  8
0
 10
4.11783
 20
7.63336
 30
0.0
 40
0
 41
0
  0
VERTEX
  8
0
 10
4.13232
 20
7.63721
 30
0.0
 40
0
 41
0
  0
VERTEX
  8
0
 10
4.13715
 20
7.63721
 30
0.0
 40
0
 41
0
  0
VERTEX
  8
0
 10
4.14193
 20
7.63721
 30
0.0
 40
0
 41
0
  0
VERTEX
  8
0
 10
4.15642
 20
7.63336
 30
0.0
 40
0
 41
0
  0
VERTEX
  8
0
 10
4.17215
 20
7.62272
 30
0.0
 40
0
 41
0
  0
VERTEX
  8
0
 10
4.18278
 20
7.60699
 30
0.0
 40
0
 41
0
  0
VERTEX
  8
0
 10
4.18668
 20
7.5925
 30
0.0
 40
0
 41
0
  0
VERTEX
  8
0
 10
4.18668
 20
7.58768
 30
0.0
 40
0
 41
0
  0
SEQEND
 8
0
  0
POLYLINE
  8
0
 62
     12
 66
     1
 10
0
 20
0
 30
0.0
 70
     1
 40
0
 41
0
  0
VERTEX
  8
0
 10
4.1805
 20
7.71957
 30
0.0
 40
0
 41
0
  0
VERTEX
  8
0
 10
4.1805
 20
7.71485
 30
0.0
 40
0
 41
0
  0
VERTEX
  8
0
 10
4.17258
 20
7.70057
 30
0.0
 40
0
 41
0
  0
VERTEX
  8
0
 10
4.15836
 20
7.69265
 30
0.0
 40
0
 41
0
  0
VERTEX
  8
0
 10
4.15365
 20
7.69265
 30
0.0
 40
0
 41
0
  0
VERTEX
  8
0
 10
4.14887
 20
7.69265
 30
0.0
 40
0
 41
0
  0
VERTEX
  8
0
 10
4.1346
 20
7.70057
 30
0.0
 40
0
 41
0
  0
VERTEX
  8
0
 10
4.12679
 20
7.71485
 30
0.0
 40
0
 41
0
  0
VERTEX
  8
0
 10
4.12679
 20
7.71957
 30
0.0
 40
0
 41
0
  0
VERTEX
  8
0
 10
4.12679
 20
7.72433
 30
0.0
 40
0
 41
0
  0
VERTEX
  8
0
 10
4.1346
 20
7.73856
 30
0.0
 40
0
 41
0
  0
VERTEX
  8
0
 10
4.14887
 20
7.74642
 30
0.0
 40
0
 41
0
  0
VERTEX
  8
0
 10
4.15365
 20
7.74642
 30
0.0
 40
0
 41
0
  0
VERTEX
  8
0
 10
4.15836
 20
7.74642
 30
0.0
 40
0
 41
0
  0
VERTEX
  8
0
 10
4.17258
 20
7.73856
 30
0.0
 40
0
 41
0
  0
VERTEX
  8
0
 10
4.1805
 20
7.72433
 30
0.0
 40
0
 41
0
  0
VERTEX
  8
0
 10
4.1805
 20
7.71957
 30
0.0
 40
0
 41
0
  0
SEQEND
 8
0
  0
POLYLINE
  8
0
 62
     12
 66
     1
 10
0
 20
0
 30
0.0
 70
     1
 40
0
 41
0
  0
VERTEX
  8
0
 10
4.37418
 20
7.41461
 30
0.0
 40
0
 41
0
  0
VERTEX
  8
0
 10
4.37418
 20
7.40989
 30
0.0
 40
0
 41
0
  0
VERTEX
  8
0
 10
4.36626
 20
7.39567
 30
0.0
 40
0
 41
0
  0
VERTEX
  8
0
 10
4.35206
 20
7.38775
 30
0.0
 40
0
 41
0
  0
VERTEX
  8
0
 10
4.34733
 20
7.38775
 30
0.0
 40
0
 41
0
  0
VERTEX
  8
0
 10
4.34256
 20
7.38775
 30
0.0
 40
0
 41
0
  0
VERTEX
  8
0
 10
4.32829
 20
7.39567
 30
0.0
 40
0
 41
0
  0
VERTEX
  8
0
 10
4.32042
 20
7.40989
 30
0.0
 40
0
 41
0
  0
VERTEX
  8
0
 10
4.32042
 20
7.41461
 30
0.0
 40
0
 41
0
  0
VERTEX
  8
0
 10
4.32042
 20
7.41938
 30
0.0
 40
0
 41
0
  0
VERTEX
  8
0
 10
4.32829
 20
7.43365
 30
0.0
 40
0
 41
0
  0
VERTEX
  8
0
 10
4.34256
 20
7.44146
 30
0.0
 40
0
 41
0
  0
VERTEX
  8
0
 10
4.34733
 20
7.44146
 30
0.0
 40
0
 41
0
  0
VERTEX
  8
0
 10
4.35206
 20
7.44146
 30
0.0
 40
0
 41
0
  0
VERTEX
  8
0
 10
4.36626
 20
7.43365
 30
0.0
 40
0
 41
0
  0
VERTEX
  8
0
 10
4.37418
 20
7.41938
 30
0.0
 40
0
 41
0
  0
VERTEX
  8
0
 10
4.37418
 20
7.41461
 30
0.0
 40
0
 41
0
  0
SEQEND
 8
0
  0
POLYLINE
  8
0
 62
     12
 66
     1
 10
0
 20
0
 30
0.0
 70
     1
 40
0
 41
0
  0
VERTEX
  8
0
 10
4.10612
 20
7.09825
 30
0.0
 40
0
 41
0
  0
VERTEX
  8
0
 10
4.10612
 20
7.09571
 30
0.0
 40
0
 41
0
  0
VERTEX
  8
0
 10
4.10183
 20
7.088
 30
0.0
 40
0
 41
0
  0
VERTEX
  8
0
 10
4.09413
 20
7.08371
 30
0.0
 40
0
 41
0
  0
VERTEX
  8
0
 10
4.09158
 20
7.08371
 30
0.0
 40
0
 41
0
  0
VERTEX
  8
0
 10
4.08897
 20
7.08371
 30
0.0
 40
0
 41
0
  0
VERTEX
  8
0
 10
4.08132
 20
7.088
 30
0.0
 40
0
 41
0
  0
VERTEX
  8
0
 10
4.0771
 20
7.09571
 30
0.0
 40
0
 41
0
  0
VERTEX
  8
0
 10
4.0771
 20
7.09825
 30
0.0
 40
0
 41
0
  0
VERTEX
  8
0
 10
4.0771
 20
7.10086
 30
0.0
 40
0
 41
0
  0
VERTEX
  8
0
 10
4.08132
 20
7.10851
 30
0.0
 40
0
 41
0
  0
VERTEX
  8
0
 10
4.08897
 20
7.11274
 30
0.0
 40
0
 41
0
  0
VERTEX
  8
0
 10
4.09158
 20
7.11274
 30
0.0
 40
0
 41
0
  0
VERTEX
  8
0
 10
4.09413
 20
7.11274
 30
0.0
 40
0
 41
0
  0
VERTEX
  8
0
 10
4.10183
 20
7.10851
 30
0.0
 40
0
 41
0
  0
VERTEX
  8
0
 10
4.10612
 20
7.10086
 30
0.0
 40
0
 41
0
  0
VERTEX
  8
0
 10
4.10612
 20
7.09825
 30
0.0
 40
0
 41
0
  0
SEQEND
 8
0
  0
POLYLINE
  8
0
 62
     12
 66
     1
 10
0
 20
0
 30
0.0
 70
     1
 40
0
 41
0
  0
VERTEX
  8
0
 10
4.12392
 20
7.04275
 30
0.0
 40
0
 41
0
  0
VERTEX
  8
0
 10
4.12392
 20
7.03803
 30
0.0
 40
0
 41
0
  0
VERTEX
  8
0
 10
4.116
 20
7.02382
 30
0.0
 40
0
 41
0
  0
VERTEX
  8
0
 10
4.10172
 20
7.0159
 30
0.0
 40
0
 41
0
  0
VERTEX
  8
0
 10
4.097
 20
7.0159
 30
0.0
 40
0
 41
0
  0
VERTEX
  8
0
 10
4.09224
 20
7.0159
 30
0.0
 40
0
 41
0
  0
VERTEX
  8
0
 10
4.07801
 20
7.02382
 30
0.0
 40
0
 41
0
  0
VERTEX
  8
0
 10
4.07015
 20
7.03803
 30
0.0
 40
0
 41
0
  0
VERTEX
  8
0
 10
4.07015
 20
7.04275
 30
0.0
 40
0
 41
0
  0
VERTEX
  8
0
 10
4.07015
 20
7.04753
 30
0.0
 40
0
 41
0
  0
VERTEX
  8
0
 10
4.07801
 20
7.06179
 30
0.0
 40
0
 41
0
  0
VERTEX
  8
0
 10
4.09224
 20
7.06961
 30
0.0
 40
0
 41
0
  0
VERTEX
  8
0
 10
4.097
 20
7.06961
 30
0.0
 40
0
 41
0
  0
VERTEX
  8
0
 10
4.10172
 20
7.06961
 30
0.0
 40
0
 41
0
  0
VERTEX
  8
0
 10
4.116
 20
7.06179
 30
0.0
 40
0
 41
0
  0
VERTEX
  8
0
 10
4.12392
 20
7.04753
 30
0.0
 40
0
 41
0
  0
VERTEX
  8
0
 10
4.12392
 20
7.04275
 30
0.0
 40
0
 41
0
  0
SEQEND
 8
0
  0
POLYLINE
  8
0
 62
     12
 66
     1
 10
0
 20
0
 30
0.0
 70
     1
 40
0
 41
0
  0
VERTEX
  8
0
 10
3.94965
 20
7.55354
 30
0.0
 40
0
 41
0
  0
VERTEX
  8
0
 10
3.94965
 20
7.54844
 30
0.0
 40
0
 41
0
  0
VERTEX
  8
0
 10
3.94119
 20
7.5331
 30
0.0
 40
0
 41
0
  0
VERTEX
  8
0
 10
3.92583
 20
7.52463
 30
0.0
 40
0
 41
0
  0
VERTEX
  8
0
 10
3.92074
 20
7.52463
 30
0.0
 40
0
 41
0
  0
VERTEX
  8
0
 10
3.91558
 20
7.52463
 30
0.0
 40
0
 41
0
  0
VERTEX
  8
0
 10
3.90028
 20
7.5331
 30
0.0
 40
0
 41
0
  0
VERTEX
  8
0
 10
3.89182
 20
7.54844
 30
0.0
 40
0
 41
0
  0
VERTEX
  8
0
 10
3.89182
 20
7.55354
 30
0.0
 40
0
 41
0
  0
VERTEX
  8
0
 10
3.89182
 20
7.55871
 30
0.0
 40
0
 41
0
  0
VERTEX
  8
0
 10
3.90028
 20
7.574
 30
0.0
 40
0
 41
0
  0
VERTEX
  8
0
 10
3.91558
 20
7.58247
 30
0.0
 40
0
 41
0
  0
VERTEX
  8
0
 10
3.92074
 20
7.58247
 30
0.0
 40
0
 41
0
  0
VERTEX
  8
0
 10
3.92583
 20
7.58247
 30
0.0
 40
0
 41
0
  0
VERTEX
  8
0
 10
3.94119
 20
7.574
 30
0.0
 40
0
 41
0
  0
VERTEX
  8
0
 10
3.94965
 20
7.55871
 30
0.0
 40
0
 41
0
  0
VERTEX
  8
0
 10
3.94965
 20
7.55354
 30
0.0
 40
0
 41
0
  0
SEQEND
 8
0
  0
POLYLINE
  8
0
 62
     12
 66
     1
 10
0
 20
0
 30
0.0
 70
     1
 40
0
 41
0
  0
VERTEX
  8
0
 10
3.58393
 20
7.69092
 30
0.0
 40
0
 41
0
  0
VERTEX
  8
0
 10
3.58393
 20
7.68614
 30
0.0
 40
0
 41
0
  0
VERTEX
  8
0
 10
3.58003
 20
7.67165
 30
0.0
 40
0
 41
0
  0
VERTEX
  8
0
 10
3.56939
 20
7.65593
 30
0.0
 40
0
 41
0
  0
VERTEX
  8
0
 10
3.55365
 20
7.64529
 30
0.0
 40
0
 41
0
  0
VERTEX
  8
0
 10
3.53917
 20
7.64139
 30
0.0
 40
0
 41
0
  0
VERTEX
  8
0
 10
3.5344
 20
7.64139
 30
0.0
 40
0
 41
0
  0
VERTEX
  8
0
 10
3.52957
 20
7.64139
 30
0.0
 40
0
 41
0
  0
VERTEX
  8
0
 10
3.51508
 20
7.64529
 30
0.0
 40
0
 41
0
  0
VERTEX
  8
0
 10
3.49935
 20
7.65593
 30
0.0
 40
0
 41
0
  0
VERTEX
  8
0
 10
3.48872
 20
7.67165
 30
0.0
 40
0
 41
0
  0
VERTEX
  8
0
 10
3.48486
 20
7.68614
 30
0.0
 40
0
 41
0
  0
VERTEX
  8
0
 10
3.48486
 20
7.69092
 30
0.0
 40
0
 41
0
  0
VERTEX
  8
0
 10
3.48486
 20
7.69575
 30
0.0
 40
0
 41
0
  0
VERTEX
  8
0
 10
3.48872
 20
7.71024
 30
0.0
 40
0
 41
0
  0
VERTEX
  8
0
 10
3.49935
 20
7.72597
 30
0.0
 40
0
 41
0
  0
VERTEX
  8
0
 10
3.51508
 20
7.7366
 30
0.0
 40
0
 41
0
  0
VERTEX
  8
0
 10
3.52957
 20
7.74046
 30
0.0
 40
0
 41
0
  0
VERTEX
  8
0
 10
3.5344
 20
7.74046
 30
0.0
 40
0
 41
0
  0
VERTEX
  8
0
 10
3.53917
 20
7.74046
 30
0.0
 40
0
 41
0
  0
VERTEX
  8
0
 10
3.55365
 20
7.7366
 30
0.0
 40
0
 41
0
  0
VERTEX
  8
0
 10
3.56939
 20
7.72597
 30
0.0
 40
0
 41
0
  0
VERTEX
  8
0
 10
3.58003
 20
7.71024
 30
0.0
 40
0
 41
0
  0
VERTEX
  8
0
 10
3.58393
 20
7.69575
 30
0.0
 40
0
 41
0
  0
VERTEX
  8
0
 10
3.58393
 20
7.69092
 30
0.0
 40
0
 41
0
  0
SEQEND
 8
0
  0
POLYLINE
  8
0
 62
     12
 66
     1
 10
0
 20
0
 30
0.0
 70
     1
 40
0
 41
0
  0
VERTEX
  8
0
 10
3.74397
 20
7.72006
 30
0.0
 40
0
 41
0
  0
VERTEX
  8
0
 10
3.74397
 20
7.71496
 30
0.0
 40
0
 41
0
  0
VERTEX
  8
0
 10
3.73546
 20
7.69965
 30
0.0
 40
0
 41
0
  0
VERTEX
  8
0
 10
3.72017
 20
7.69114
 30
0.0
 40
0
 41
0
  0
VERTEX
  8
0
 10
3.71506
 20
7.69114
 30
0.0
 40
0
 41
0
  0
VERTEX
  8
0
 10
3.7099
 20
7.69114
 30
0.0
 40
0
 41
0
  0
VERTEX
  8
0
 10
3.69456
 20
7.69965
 30
0.0
 40
0
 41
0
  0
VERTEX
  8
0
 10
3.68608
 20
7.71496
 30
0.0
 40
0
 41
0
  0
VERTEX
  8
0
 10
3.68608
 20
7.72006
 30
0.0
 40
0
 41
0
  0
VERTEX
  8
0
 10
3.68608
 20
7.72521
 30
0.0
 40
0
 41
0
  0
VERTEX
  8
0
 10
3.69456
 20
7.74056
 30
0.0
 40
0
 41
0
  0
VERTEX
  8
0
 10
3.7099
 20
7.74897
 30
0.0
 40
0
 41
0
  0
VERTEX
  8
0
 10
3.71506
 20
7.74897
 30
0.0
 40
0
 41
0
  0
VERTEX
  8
0
 10
3.72017
 20
7.74897
 30
0.0
 40
0
 41
0
  0
VERTEX
  8
0
 10
3.73546
 20
7.74056
 30
0.0
 40
0
 41
0
  0
VERTEX
  8
0
 10
3.74397
 20
7.72521
 30
0.0
 40
0
 41
0
  0
VERTEX
  8
0
 10
3.74397
 20
7.72006
 30
0.0
 40
0
 41
0
  0
SEQEND
 8
0
  0
POLYLINE
  8
0
 62
     12
 66
     1
 10
0
 20
0
 30
0.0
 70
     1
 40
0
 41
0
  0
VERTEX
  8
0
 10
3.64199
 20
7.60932
 30
0.0
 40
0
 41
0
  0
VERTEX
  8
0
 10
3.64199
 20
7.60422
 30
0.0
 40
0
 41
0
  0
VERTEX
  8
0
 10
3.63346
 20
7.58892
 30
0.0
 40
0
 41
0
  0
VERTEX
  8
0
 10
3.61817
 20
7.5804
 30
0.0
 40
0
 41
0
  0
VERTEX
  8
0
 10
3.61307
 20
7.5804
 30
0.0
 40
0
 41
0
  0
VERTEX
  8
0
 10
3.60792
 20
7.5804
 30
0.0
 40
0
 41
0
  0
VERTEX
  8
0
 10
3.59256
 20
7.58892
 30
0.0
 40
0
 41
0
  0
VERTEX
  8
0
 10
3.58415
 20
7.60422
 30
0.0
 40
0
 41
0
  0
VERTEX
  8
0
 10
3.58415
 20
7.60932
 30
0.0
 40
0
 41
0
  0
VERTEX
  8
0
 10
3.58415
 20
7.61447
 30
0.0
 40
0
 41
0
  0
VERTEX
  8
0
 10
3.59256
 20
7.62983
 30
0.0
 40
0
 41
0
  0
VERTEX
  8
0
 10
3.60792
 20
7.63829
 30
0.0
 40
0
 41
0
  0
VERTEX
  8
0
 10
3.61307
 20
7.63829
 30
0.0
 40
0
 41
0
  0
VERTEX
  8
0
 10
3.61817
 20
7.63829
 30
0.0
 40
0
 41
0
  0
VERTEX
  8
0
 10
3.63346
 20
7.62983
 30
0.0
 40
0
 41
0
  0
VERTEX
  8
0
 10
3.64199
 20
7.61447
 30
0.0
 40
0
 41
0
  0
VERTEX
  8
0
 10
3.64199
 20
7.60932
 30
0.0
 40
0
 41
0
  0
SEQEND
 8
0
  0
POLYLINE
  8
0
 62
     12
 66
     1
 10
0
 20
0
 30
0.0
 70
     1
 40
0
 41
0
  0
VERTEX
  8
0
 10
3.65088
 20
7.69385
 30
0.0
 40
0
 41
0
  0
VERTEX
  8
0
 10
3.65088
 20
7.69129
 30
0.0
 40
0
 41
0
  0
VERTEX
  8
0
 10
3.6466
 20
7.6836
 30
0.0
 40
0
 41
0
  0
VERTEX
  8
0
 10
3.63889
 20
7.67931
 30
0.0
 40
0
 41
0
  0
VERTEX
  8
0
 10
3.63633
 20
7.67931
 30
0.0
 40
0
 41
0
  0
VERTEX
  8
0
 10
3.63374
 20
7.67931
 30
0.0
 40
0
 41
0
  0
VERTEX
  8
0
 10
3.62608
 20
7.6836
 30
0.0
 40
0
 41
0
  0
VERTEX
  8
0
 10
3.62185
 20
7.69129
 30
0.0
 40
0
 41
0
  0
VERTEX
  8
0
 10
3.62185
 20
7.69385
 30
0.0
 40
0
 41
0
  0
VERTEX
  8
0
 10
3.62185
 20
7.69646
 30
0.0
 40
0
 41
0
  0
VERTEX
  8
0
 10
3.62608
 20
7.7041
 30
0.0
 40
0
 41
0
  0
VERTEX
  8
0
 10
3.63374
 20
7.70833
 30
0.0
 40
0
 41
0
  0
VERTEX
  8
0
 10
3.63633
 20
7.70833
 30
0.0
 40
0
 41
0
  0
VERTEX
  8
0
 10
3.63889
 20
7.70833
 30
0.0
 40
0
 41
0
  0
VERTEX
  8
0
 10
3.6466
 20
7.7041
 30
0.0
 40
0
 41
0
  0
VERTEX
  8
0
 10
3.65088
 20
7.69646
 30
0.0
 40
0
 41
0
  0
VERTEX
  8
0
 10
3.65088
 20
7.69385
 30
0.0
 40
0
 41
0
  0
SEQEND
 8
0
  0
POLYLINE
  8
0
 62
     12
 66
     1
 10
0
 20
0
 30
0.0
 70
     1
 40
0
 41
0
  0
VERTEX
  8
0
 10
2.15907
 20
9.31392
 30
0.0
 40
0
 41
0
  0
VERTEX
  8
0
 10
2.09782
 20
9.31392
 30
0.0
 40
0
 41
0
  0
VERTEX
  8
0
 10
1.91407
 20
9.28971
 30
0.0
 40
0
 41
0
  0
VERTEX
  8
0
 10
1.68072
 20
9.21875
 30
0.0
 40
0
 41
0
  0
VERTEX
  8
0
 10
1.4656
 20
9.10389
 30
0.0
 40
0
 41
0
  0
VERTEX
  8
0
 10
1.31852
 20
8.9911
 30
0.0
 40
0
 41
0
  0
VERTEX
  8
0
 10
1.27523
 20
8.94775
 30
0.0
 40
0
 41
0
  0
VERTEX
  8
0
 10
1.23188
 20
8.90446
 30
0.0
 40
0
 41
0
  0
VERTEX
  8
0
 10
1.11909
 20
8.75743
 30
0.0
 40
0
 41
0
  0
VERTEX
  8
0
 10
1.00423
 20
8.54226
 30
0.0
 40
0
 41
0
  0
VERTEX
  8
0
 10
0.933268
 20
8.30892
 30
0.0
 40
0
 41
0
  0
VERTEX
  8
0
 10
0.909071
 20
8.12517
 30
0.0
 40
0
 41
0
  0
VERTEX
  8
0
 10
0.909071
 20
8.06392
 30
0.0
 40
0
 41
0
  0
VERTEX
  8
0
 10
0.909071
 20
8.00265
 30
0.0
 40
0
 41
0
  0
VERTEX
  8
0
 10
0.933268
 20
7.8189
 30
0.0
 40
0
 41
0
  0
VERTEX
  8
0
 10
1.00423
 20
7.58556
 30
0.0
 40
0
 41
0
  0
VERTEX
  8
0
 10
1.11909
 20
7.37044
 30
0.0
 40
0
 41
0
  0
VERTEX
  8
0
 10
1.23188
 20
7.22336
 30
0.0
 40
0
 41
0
  0
VERTEX
  8
0
 10
1.27523
 20
7.18001
 30
0.0
 40
0
 41
0
  0
VERTEX
  8
0
 10
1.31852
 20
7.13672
 30
0.0
 40
0
 41
0
  0
VERTEX
  8
0
 10
1.4656
 20
7.02393
 30
0.0
 40
0
 41
0
  0
VERTEX
  8
0
 10
1.68072
 20
6.90907
 30
0.0
 40
0
 41
0
  0
VERTEX
  8
0
 10
1.91407
 20
6.83817
 30
0.0
 40
0
 41
0
  0
VERTEX
  8
0
 10
2.09782
 20
6.81392
 30
0.0
 40
0
 41
0
  0
VERTEX
  8
0
 10
2.15907
 20
6.81392
 30
0.0
 40
0
 41
0
  0
VERTEX
  8
0
 10
2.222
 20
6.81392
 30
0.0
 40
0
 41
0
  0
VERTEX
  8
0
 10
2.41097
 20
6.83936
 30
0.0
 40
0
 41
0
  0
VERTEX
  8
0
 10
2.64561
 20
6.91217
 30
0.0
 40
0
 41
0
  0
VERTEX
  8
0
 10
2.85796
 20
7.0274
 30
0.0
 40
0
 41
0
  0
VERTEX
  8
0
 10
3.04292
 20
7.18007
 30
0.0
 40
0
 41
0
  0
VERTEX
  8
0
 10
3.19558
 20
7.36501
 30
0.0
 40
0
 41
0
  0
VERTEX
  8
0
 10
3.31082
 20
7.57736
 30
0.0
 40
0
 41
0
  0
VERTEX
  8
0
 10
3.38363
 20
7.81201
 30
0.0
 40
0
 41
0
  0
VERTEX
  8
0
 10
3.40907
 20
8.00097
 30
0.0
 40
0
 41
0
  0
VERTEX
  8
0
 10
3.40907
 20
8.06392
 30
0.0
 40
0
 41
0
  0
VERTEX
  8
0
 10
3.40901
 20
8.10439
 30
0.0
 40
0
 41
0
  0
VERTEX
  8
0
 10
3.39828
 20
8.22569
 30
0.0
 40
0
 41
0
  0
VERTEX
  8
0
 10
3.36686
 20
8.38406
 30
0.0
 40
0
 41
0
  0
VERTEX
  8
0
 10
3.31532
 20
8.53706
 30
0.0
 40
0
 41
0
  0
VERTEX
  8
0
 10
3.26421
 20
8.64763
 30
0.0
 40
0
 41
0
  0
VERTEX
  8
0
 10
3.24414
 20
8.68267
 30
0.0
 40
0
 41
0
  0
VERTEX
  8
0
 10
3.24388
 20
8.68153
 30
0.0
 40
0
 41
0
  0
VERTEX
  8
0
 10
3.24115
 20
8.67079
 30
0.0
 40
0
 41
0
  0
VERTEX
  8
0
 10
3.24089
 20
8.66982
 30
0.0
 40
0
 41
0
  0
VERTEX
  8
0
 10
3.23921
 20
8.66439
 30
0.0
 40
0
 41
0
  0
VERTEX
  8
0
 10
3.20437
 20
8.61025
 30
0.0
 40
0
 41
0
  0
VERTEX
  8
0
 10
3.19911
 20
8.60488
 30
0.0
 40
0
 41
0
  0
VERTEX
  8
0
 10
3.20361
 20
8.60151
 30
0.0
 40
0
 41
0
  0
VERTEX
  8
0
 10
3.2231
 20
8.57949
 30
0.0
 40
0
 41
0
  0
VERTEX
  8
0
 10
3.23844
 20
8.55067
 30
0.0
 40
0
 41
0
  0
VERTEX
  8
0
 10
3.24089
 20
8.54389
 30
0.0
 40
0
 41
0
  0
VERTEX
  8
0
 10
3.24322
 20
8.53743
 30
0.0
 40
0
 41
0
  0
VERTEX
  8
0
 10
3.24724
 20
8.51693
 30
0.0
 40
0
 41
0
  0
VERTEX
  8
0
 10
3.25185
 20
8.47592
 30
0.0
 40
0
 41
0
  0
VERTEX
  8
0
 10
3.25456
 20
8.4209
 30
0.0
 40
0
 41
0
  0
VERTEX
  8
0
 10
3.25553
 20
8.36919
 30
0.0
 40
0
 41
0
  0
VERTEX
  8
0
 10
3.25553
 20
8.35194
 30
0.0
 40
0
 41
0
  0
VERTEX
  8
0
 10
3.25553
 20
8.32796
 30
0.0
 40
0
 41
0
  0
VERTEX
  8
0
 10
3.25261
 20
8.25592
 30
0.0
 40
0
 41
0
  0
VERTEX
  8
0
 10
3.24582
 20
8.19764
 30
0.0
 40
0
 41
0
  0
VERTEX
  8
0
 10
3.24393
 20
8.18886
 30
0.0
 40
0
 41
0
  0
VERTEX
  8
0
 10
3.24197
 20
8.18012
 30
0.0
 40
0
 41
0
  0
VERTEX
  8
0
 10
3.22683
 20
8.141
 30
0.0
 40
0
 41
0
  0
VERTEX
  8
0
 10
3.20437
 20
8.10807
 30
0.0
 40
0
 41
0
  0
VERTEX
  8
0
 10
3.19879
 20
8.10243
 30
0.0
 40
0
 41
0
  0
VERTEX
  8
0
 10
3.19319
 20
8.0969
 30
0.0
 40
0
 41
0
  0
VERTEX
  8
0
 10
3.15956
 20
8.07747
 30
0.0
 40
0
 41
0
  0
VERTEX
  8
0
 10
3.12153
 20
8.06912
 30
0.0
 40
0
 41
0
  0
VERTEX
  8
0
 10
3.10889
 20
8.06912
 30
0.0
 40
0
 41
0
  0
VERTEX
  8
0
 10
3.09657
 20
8.06912
 30
0.0
 40
0
 41
0
  0
VERTEX
  8
0
 10
3.05974
 20
8.07721
 30
0.0
 40
0
 41
0
  0
VERTEX
  8
0
 10
3.02735
 20
8.09597
 30
0.0
 40
0
 41
0
  0
VERTEX
  8
0
 10
3.02203
 20
8.10135
 30
0.0
 40
0
 41
0
  0
VERTEX
  8
0
 10
3.01665
 20
8.10672
 30
0.0
 40
0
 41
0
  0
VERTEX
  8
0
 10
2.99451
 20
8.13878
 30
0.0
 40
0
 41
0
  0
VERTEX
  8
0
 10
2.97831
 20
8.17774
 30
0.0
 40
0
 41
0
  0
VERTEX
  8
0
 10
2.97597
 20
8.18658
 30
0.0
 40
0
 41
0
  0
VERTEX
  8
0
 10
2.97368
 20
8.19542
 30
0.0
 40
0
 41
0
  0
VERTEX
  8
0
 10
2.96571
 20
8.25726
 30
0.0
 40
0
 41
0
  0
VERTEX
  8
0
 10
2.96229
 20
8.33675
 30
0.0
 40
0
 41
0
  0
VERTEX
  8
0
 10
2.96229
 20
8.36322
 30
0.0
 40
0
 41
0
  0
VERTEX
  8
0
 10
2.96229
 20
8.38265
 30
0.0
 40
0
 41
0
  0
VERTEX
  8
0
 10
2.96392
 20
8.44075
 30
0.0
 40
0
 41
0
  0
VERTEX
  8
0
 10
2.96783
 20
8.49707
 30
0.0
 40
0
 41
0
  0
VERTEX
  8
0
 10
2.96897
 20
8.50722
 30
0.0
 40
0
 41
0
  0
VERTEX
  8
0
 10
2.97011
 20
8.51742
 30
0.0
 40
0
 41
0
  0
VERTEX
  8
0
 10
2.98329
 20
8.56213
 30
0.0
 40
0
 41
0
  0
VERTEX
  8
0
 10
3.00618
 20
8.59879
 30
0.0
 40
0
 41
0
  0
VERTEX
  8
0
 10
3.01226
 20
8.60488
 30
0.0
 40
0
 41
0
  0
VERTEX
  8
0
 10
3.0084
 20
8.60829
 30
0.0
 40
0
 41
0
  0
VERTEX
  8
0
 10
2.99219
 20
8.63112
 30
0.0
 40
0
 41
0
  0
VERTEX
  8
0
 10
2.97971
 20
8.66189
 30
0.0
 40
0
 41
0
  0
VERTEX
  8
0
 10
2.97781
 20
8.66922
 30
0.0
 40
0
 41
0
  0
VERTEX
  8
0
 10
2.97592
 20
8.67665
 30
0.0
 40
0
 41
0
  0
VERTEX
  8
0
 10
2.96935
 20
8.71978
 30
0.0
 40
0
 41
0
  0
VERTEX
  8
0
 10
2.96653
 20
8.76654
 30
0.0
 40
0
 41
0
  0
VERTEX
  8
0
 10
2.96653
 20
8.78212
 30
0.0
 40
0
 41
0
  0
VERTEX
  8
0
 10
2.96653
 20
8.80794
 30
0.0
 40
0
 41
0
  0
VERTEX
  8
0
 10
2.97538
 20
8.88531
 30
0.0
 40
0
 41
0
  0
VERTEX
  8
0
 10
2.99599
 20
8.94906
 30
0.0
 40
0
 41
0
  0
VERTEX
  8
0
 10
3.0019
 20
8.95882
 30
0.0
 40
0
 41
0
  0
VERTEX
  8
0
 10
3.00276
 20
8.96035
 30
0.0
 40
0
 41
0
  0
VERTEX
  8
0
 10
3.01238
 20
8.9739
 30
0.0
 40
0
 41
0
  0
VERTEX
  8
0
 10
3.0134
 20
8.97515
 30
0.0
 40
0
 41
0
  0
VERTEX
  8
0
 10
2.9706
 20
9.01535
 30
0.0
 40
0
 41
0
  0
VERTEX
  8
0
 10
2.82693
 20
9.11974
 30
0.0
 40
0
 41
0
  0
VERTEX
  8
0
 10
2.61849
 20
9.22592
 30
0.0
 40
0
 41
0
  0
VERTEX
  8
0
 10
2.39393
 20
9.29139
 30
0.0
 40
0
 41
0
  0
VERTEX
  8
0
 10
2.21778
 20
9.31386
 30
0.0
 40
0
 41
0
  0
VERTEX
  8
0
 10
2.15907
 20
9.31392
 30
0.0
 40
0
 41
0
  0
SEQEND
 8
0
  0
POLYLINE
  8
0
 62
     12
 66
     1
 10
0
 20
0
 30
0.0
 70
     1
 40
0
 41
0
  0
VERTEX
  8
0
 10
2.77513
 20
9.01867
 30
0.0
 40
0
 41
0
  0
VERTEX
  8
0
 10
2.78689
 20
9.01867
 30
0.0
 40
0
 41
0
  0
VERTEX
  8
0
 10
2.82226
 20
9.0109
 30
0.0
 40
0
 41
0
  0
VERTEX
  8
0
 10
2.8546
 20
8.99278
 30
0.0
 40
0
 41
0
  0
VERTEX
  8
0
 10
2.86019
 20
8.98757
 30
0.0
 40
0
 41
0
  0
VERTEX
  8
0
 10
2.86572
 20
8.98242
 30
0.0
 40
0
 41
0
  0
VERTEX
  8
0
 10
2.88867
 20
8.95019
 30
0.0
 40
0
 41
0
  0
VERTEX
  8
0
 10
2.90533
 20
8.90956
 30
0.0
 40
0
 41
0
  0
VERTEX
  8
0
 10
2.90771
 20
8.90013
 30
0.0
 40
0
 41
0
  0
VERTEX
  8
0
 10
2.9101
 20
8.89074
 30
0.0
 40
0
 41
0
  0
VERTEX
  8
0
 10
2.91846
 20
8.83632
 30
0.0
 40
0
 41
0
  0
VERTEX
  8
0
 10
2.92204
 20
8.7775
 30
0.0
 40
0
 41
0
  0
VERTEX
  8
0
 10
2.92204
 20
8.75786
 30
0.0
 40
0
 41
0
  0
VERTEX
  8
0
 10
2.79889
 20
8.75786
 30
0.0
 40
0
 41
0
  0
VERTEX
  8
0
 10
2.79889
 20
8.77089
 30
0.0
 40
0
 41
0
  0
VERTEX
  8
0
 10
2.79867
 20
8.80979
 30
0.0
 40
0
 41
0
  0
VERTEX
  8
0
 10
2.79812
 20
8.83529
 30
0.0
 40
0
 41
0
  0
VERTEX
  8
0
 10
2.79801
 20
8.838
 30
0.0
 40
0
 41
0
  0
VERTEX
  8
0
 10
2.7979
 20
8.84082
 30
0.0
 40
0
 41
0
  0
VERTEX
  8
0
 10
2.79178
 20
8.86436
 30
0.0
 40
0
 41
0
  0
VERTEX
  8
0
 10
2.79069
 20
8.86621
 30
0.0
 40
0
 41
0
  0
VERTEX
  8
0
 10
2.78961
 20
8.86811
 30
0.0
 40
0
 41
0
  0
VERTEX
  8
0
 10
2.77713
 20
8.8775
 30
0.0
 40
0
 41
0
  0
VERTEX
  8
0
 10
2.773
 20
8.8775
 30
0.0
 40
0
 41
0
  0
VERTEX
  8
0
 10
2.7691
 20
8.8775
 30
0.0
 40
0
 41
0
  0
VERTEX
  8
0
 10
2.75846
 20
8.8686
 30
0.0
 40
0
 41
0
  0
VERTEX
  8
0
 10
2.75749
 20
8.86681
 30
0.0
 40
0
 41
0
  0
VERTEX
  8
0
 10
2.75646
 20
8.86501
 30
0.0
 40
0
 41
0
  0
VERTEX
  8
0
 10
2.75054
 20
8.84196
 30
0.0
 40
0
 41
0
  0
VERTEX
  8
0
 10
2.75043
 20
8.83914
 30
0.0
 40
0
 41
0
  0
VERTEX
  8
0
 10
2.75028
 20
8.83632
 30
0.0
 40
0
 41
0
  0
VERTEX
  8
0
 10
2.74972
 20
8.81364
 30
0.0
 40
0
 41
0
  0
VERTEX
  8
0
 10
2.74951
 20
8.78157
 30
0.0
 40
0
 41
0
  0
VERTEX
  8
0
 10
2.74951
 20
8.77083
 30
0.0
 40
0
 41
0
  0
VERTEX
  8
0
 10
2.74951
 20
8.62522
 30
0.0
 40
0
 41
0
  0
VERTEX
  8
0
 10
2.75108
 20
8.63135
 30
0.0
 40
0
 41
0
  0
VERTEX
  8
0
 10
2.77419
 20
8.67697
 30
0.0
 40
0
 41
0
  0
VERTEX
  8
0
 10
2.77724
 20
8.67996
 30
0.0
 40
0
 41
0
  0
VERTEX
  8
0
 10
2.78028
 20
8.68311
 30
0.0
 40
0
 41
0
  0
VERTEX
  8
0
 10
2.81185
 20
8.69857
 30
0.0
 40
0
 41
0
  0
VERTEX
  8
0
 10
2.82238
 20
8.69857
 30
0.0
 40
0
 41
0
  0
VERTEX
  8
0
 10
2.83029
 20
8.69857
 30
0.0
 40
0
 41
0
  0
VERTEX
  8
0
 10
2.85422
 20
8.69011
 30
0.0
 40
0
 41
0
  0
VERTEX
  8
0
 10
2.87776
 20
8.67036
 30
0.0
 40
0
 41
0
  0
VERTEX
  8
0
 10
2.88211
 20
8.66471
 30
0.0
 40
0
 41
0
  0
VERTEX
  8
0
 10
2.88639
 20
8.65907
 30
0.0
 40
0
 41
0
  0
VERTEX
  8
0
 10
2.90326
 20
8.6275
 30
0.0
 40
0
 41
0
  0
VERTEX
  8
0
 10
2.91385
 20
8.59131
 30
0.0
 40
0
 41
0
  0
VERTEX
  8
0
 10
2.91504
 20
8.58339
 30
0.0
 40
0
 41
0
  0
VERTEX
  8
0
 10
2.91618
 20
8.57553
 30
0.0
 40
0
 41
0
  0
VERTEX
  8
0
 10
2.92025
 20
8.52767
 30
0.0
 40
0
 41
0
  0
VERTEX
  8
0
 10
2.92204
 20
8.47342
 30
0.0
 40
0
 41
0
  0
VERTEX
  8
0
 10
2.92204
 20
8.45529
 30
0.0
 40
0
 41
0
  0
VERTEX
  8
0
 10
2.92204
 20
8.38243
 30
0.0
 40
0
 41
0
  0
VERTEX
  8
0
 10
2.92204
 20
8.36154
 30
0.0
 40
0
 41
0
  0
VERTEX
  8
0
 10
2.92101
 20
8.29878
 30
0.0
 40
0
 41
0
  0
VERTEX
  8
0
 10
2.91872
 20
8.24744
 30
0.0
 40
0
 41
0
  0
VERTEX
  8
0
 10
2.91808
 20
8.23964
 30
0.0
 40
0
 41
0
  0
VERTEX
  8
0
 10
2.91743
 20
8.23182
 30
0.0
 40
0
 41
0
  0
VERTEX
  8
0
 10
2.89962
 20
8.1594
 30
0.0
 40
0
 41
0
  0
VERTEX
  8
0
 10
2.89675
 20
8.15272
 30
0.0
 40
0
 41
0
  0
VERTEX
  8
0
 10
2.89387
 20
8.14615
 30
0.0
 40
0
 41
0
  0
VERTEX
  8
0
 10
2.87636
 20
8.11757
 30
0.0
 40
0
 41
0
  0
VERTEX
  8
0
 10
2.85449
 20
8.09483
 30
0.0
 40
0
 41
0
  0
VERTEX
  8
0
 10
2.8495
 20
8.09115
 30
0.0
 40
0
 41
0
  0
VERTEX
  8
0
 10
2.84451
 20
8.08751
 30
0.0
 40
0
 41
0
  0
VERTEX
  8
0
 10
2.81711
 20
8.07465
 30
0.0
 40
0
 41
0
  0
VERTEX
  8
0
 10
2.78901
 20
8.06912
 30
0.0
 40
0
 41
0
  0
VERTEX
  8
0
 10
2.77968
 20
8.06912
 30
0.0
 40
0
 41
0
  0
VERTEX
  8
0
 10
2.76833
 20
8.06912
 30
0.0
 40
0
 41
0
  0
VERTEX
  8
0
 10
2.73449
 20
8.07553
 30
0.0
 40
0
 41
0
  0
VERTEX
  8
0
 10
2.70356
 20
8.09033
 30
0.0
 40
0
 41
0
  0
VERTEX
  8
0
 10
2.69829
 20
8.09457
 30
0.0
 40
0
 41
0
  0
VERTEX
  8
0
 10
2.69299
 20
8.09879
 30
0.0
 40
0
 41
0
  0
VERTEX
  8
0
 10
2.67019
 20
8.12549
 30
0.0
 40
0
 41
0
  0
VERTEX
  8
0
 10
2.65213
 20
8.1595
 30
0.0
 40
0
 41
0
  0
VERTEX
  8
0
 10
2.64925
 20
8.16738
 30
0.0
 40
0
 41
0
  0
VERTEX
  8
0
 10
2.64638
 20
8.1754
 30
0.0
 40
0
 41
0
  0
VERTEX
  8
0
 10
2.62961
 20
8.25911
 30
0.0
 40
0
 41
0
  0
VERTEX
  8
0
 10
2.62912
 20
8.26785
 30
0.0
 40
0
 41
0
  0
VERTEX
  8
0
 10
2.62864
 20
8.27664
 30
0.0
 40
0
 41
0
  0
VERTEX
  8
0
 10
2.62701
 20
8.34506
 30
0.0
 40
0
 41
0
  0
VERTEX
  8
0
 10
2.62636
 20
8.44
 30
0.0
 40
0
 41
0
  0
VERTEX
  8
0
 10
2.62636
 20
8.47162
 30
0.0
 40
0
 41
0
  0
VERTEX
  8
0
 10
2.62636
 20
8.5981
 30
0.0
 40
0
 41
0
  0
VERTEX
  8
0
 10
2.62636
 20
8.61681
 30
0.0
 40
0
 41
0
  0
VERTEX
  8
0
 10
2.62646
 20
8.6729
 30
0.0
 40
0
 41
0
  0
VERTEX
  8
0
 10
2.62696
 20
8.73415
 30
0.0
 40
0
 41
0
  0
VERTEX
  8
0
 10
2.62771
 20
8.78185
 30
0.0
 40
0
 41
0
  0
VERTEX
  8
0
 10
2.62842
 20
8.80746
 30
0.0
 40
0
 41
0
  0
VERTEX
  8
0
 10
2.62879
 20
8.81597
 30
0.0
 40
0
 41
0
  0
VERTEX
  8
0
 10
2.62924
 20
8.82519
 30
0.0
 40
0
 41
0
  0
VERTEX
  8
0
 10
2.64703
 20
8.91228
 30
0.0
 40
0
 41
0
  0
VERTEX
  8
0
 10
2.65018
 20
8.92042
 30
0.0
 40
0
 41
0
  0
VERTEX
  8
0
 10
2.65326
 20
8.9286
 30
0.0
 40
0
 41
0
  0
VERTEX
  8
0
 10
2.6721
 20
8.96332
 30
0.0
 40
0
 41
0
  0
VERTEX
  8
0
 10
2.69536
 20
8.98981
 30
0.0
 40
0
 41
0
  0
VERTEX
  8
0
 10
2.70074
 20
8.99382
 30
0.0
 40
0
 41
0
  0
VERTEX
  8
0
 10
2.70611
 20
8.99799
 30
0.0
 40
0
 41
0
  0
VERTEX
  8
0
 10
2.73546
 20
9.01247
 30
0.0
 40
0
 41
0
  0
VERTEX
  8
0
 10
2.76519
 20
9.01867
 30
0.0
 40
0
 41
0
  0
VERTEX
  8
0
 10
2.77513
 20
9.01867
 30
0.0
 40
0
 41
0
  0
SEQEND
 8
0
  0
POLYLINE
  8
0
 62
     12
 66
     1
 10
0
 20
0
 30
0.0
 70
     1
 40
0
 41
0
  0
VERTEX
  8
0
 10
1.95828
 20
9.0006
 30
0.0
 40
0
 41
0
  0
VERTEX
  8
0
 10
2.0491
 20
9.0006
 30
0.0
 40
0
 41
0
  0
VERTEX
  8
0
 10
2.06808
 20
9.0006
 30
0.0
 40
0
 41
0
  0
VERTEX
  8
0
 10
2.12522
 20
8.99735
 30
0.0
 40
0
 41
0
  0
VERTEX
  8
0
 10
2.16656
 20
8.98975
 30
0.0
 40
0
 41
0
  0
VERTEX
  8
0
 10
2.17193
 20
8.98757
 30
0.0
 40
0
 41
0
  0
VERTEX
  8
0
 10
2.17731
 20
8.98546
 30
0.0
 40
0
 41
0
  0
VERTEX
  8
0
 10
2.20117
 20
8.96446
 30
0.0
 40
0
 41
0
  0
VERTEX
  8
0
 10
2.22097
 20
8.92996
 30
0.0
 40
0
 41
0
  0
VERTEX
  8
0
 10
2.22433
 20
8.92101
 30
0.0
 40
0
 41
0
  0
VERTEX
  8
0
 10
2.22771
 20
8.91217
 30
0.0
 40
0
 41
0
  0
VERTEX
  8
0
 10
2.23964
 20
8.852
 30
0.0
 40
0
 41
0
  0
VERTEX
  8
0
 10
2.24479
 20
8.77632
 30
0.0
 40
0
 41
0
  0
VERTEX
  8
0
 10
2.24479
 20
8.75108
 30
0.0
 40
0
 41
0
  0
VERTEX
  8
0
 10
2.24479
 20
8.72879
 30
0.0
 40
0
 41
0
  0
VERTEX
  8
0
 10
2.24121
 20
8.66189
 30
0.0
 40
0
 41
0
  0
VERTEX
  8
0
 10
2.23286
 20
8.61382
 30
0.0
 40
0
 41
0
  0
VERTEX
  8
0
 10
2.23047
 20
8.60769
 30
0.0
 40
0
 41
0
  0
VERTEX
  8
0
 10
2.22808
 20
8.60161
 30
0.0
 40
0
 41
0
  0
VERTEX
  8
0
 10
2.20915
 20
8.57835
 30
0.0
 40
0
 41
0
  0
VERTEX
  8
0
 10
2.18104
 20
8.56489
 30
0.0
 40
0
 41
0
  0
VERTEX
  8
0
 10
2.17404
 20
8.56364
 30
0.0
 40
0
 41
0
  0
VERTEX
  8
0
 10
2.18039
 20
8.56076
 30
0.0
 40
0
 41
0
  0
VERTEX
  8
0
 10
2.20589
 20
8.54318
 30
0.0
 40
0
 41
0
  0
VERTEX
  8
0
 10
2.22304
 20
8.52171
 30
0.0
 40
0
 41
0
  0
VERTEX
  8
0
 10
2.22526
 20
8.51682
 30
0.0
 40
0
 41
0
  0
VERTEX
  8
0
 10
2.22743
 20
8.51193
 30
0.0
 40
0
 41
0
  0
VERTEX
  8
0
 10
2.24089
 20
8.46679
 30
0.0
 40
0
 41
0
  0
VERTEX
  8
0
 10
2.24143
 20
8.46263
 30
0.0
 40
0
 41
0
  0
VERTEX
  8
0
 10
2.24197
 20
8.45861
 30
0.0
 40
0
 41
0
  0
VERTEX
  8
0
 10
2.24393
 20
8.41678
 30
0.0
 40
0
 41
0
  0
VERTEX
  8
0
 10
2.24479
 20
8.34999
 30
0.0
 40
0
 41
0
  0
VERTEX
  8
0
 10
2.24479
 20
8.32769
 30
0.0
 40
0
 41
0
  0
VERTEX
  8
0
 10
2.24479
 20
8.08664
 30
0.0
 40
0
 41
0
  0
VERTEX
  8
0
 10
2.1256
 20
8.08664
 30
0.0
 40
0
 41
0
  0
VERTEX
  8
0
 10
2.1256
 20
8.39035
 30
0.0
 40
0
 41
0
  0
VERTEX
  8
0
 10
2.1256
 20
8.40522
 30
0.0
 40
0
 41
0
  0
VERTEX
  8
0
 10
2.12397
 20
8.44982
 30
0.0
 40
0
 41
0
  0
VERTEX
  8
0
 10
2.12022
 20
8.47835
 30
0.0
 40
0
 41
0
  0
VERTEX
  8
0
 10
2.11919
 20
8.48122
 30
0.0
 40
0
 41
0
  0
VERTEX
  8
0
 10
2.11817
 20
8.48415
 30
0.0
 40
0
 41
0
  0
VERTEX
  8
0
 10
2.10796
 20
8.49442
 30
0.0
 40
0
 41
0
  0
VERTEX
  8
0
 10
2.0919
 20
8.49875
 30
0.0
 40
0
 41
0
  0
VERTEX
  8
0
 10
2.08658
 20
8.49875
 30
0.0
 40
0
 41
0
  0
VERTEX
  8
0
 10
2.08658
 20
8.08664
 30
0.0
 40
0
 41
0
  0
VERTEX
  8
0
 10
1.95828
 20
8.08664
 30
0.0
 40
0
 41
0
  0
VERTEX
  8
0
 10
1.95828
 20
9.0006
 30
0.0
 40
0
 41
0
  0
SEQEND
 8
0
  0
POLYLINE
  8
0
 62
     12
 66
     1
 10
0
 20
0
 30
0.0
 70
     1
 40
0
 41
0
  0
VERTEX
  8
0
 10
2.29476
 20
9.0006
 30
0.0
 40
0
 41
0
  0
VERTEX
  8
0
 10
2.42307
 20
9.0006
 30
0.0
 40
0
 41
0
  0
VERTEX
  8
0
 10
2.42307
 20
8.64551
 30
0.0
 40
0
 41
0
  0
VERTEX
  8
0
 10
2.48008
 20
9.0006
 30
0.0
 40
0
 41
0
  0
VERTEX
  8
0
 10
2.60047
 20
9.0006
 30
0.0
 40
0
 41
0
  0
VERTEX
  8
0
 10
2.52701
 20
8.58794
 30
0.0
 40
0
 41
0
  0
VERTEX
  8
0
 10
2.60747
 20
8.08664
 30
0.0
 40
0
 41
0
  0
VERTEX
  8
0
 10
2.47493
 20
8.08664
 30
0.0
 40
0
 41
0
  0
VERTEX
  8
0
 10
2.42307
 20
8.4784
 30
0.0
 40
0
 41
0
  0
VERTEX
  8
0
 10
2.42307
 20
8.08664
 30
0.0
 40
0
 41
0
  0
VERTEX
  8
0
 10
2.29476
 20
8.08664
 30
0.0
 40
0
 41
0
  0
VERTEX
  8
0
 10
2.29476
 20
9.0006
 30
0.0
 40
0
 41
0
  0
SEQEND
 8
0
  0
POLYLINE
  8
0
 62
     12
 66
     1
 10
0
 20
0
 30
0.0
 70
     1
 40
0
 41
0
  0
VERTEX
  8
0
 10
3.10747
 20
8.87739
 30
0.0
 40
0
 41
0
  0
VERTEX
  8
0
 10
3.10558
 20
8.87728
 30
0.0
 40
0
 41
0
  0
VERTEX
  8
0
 10
3.09278
 20
8.86376
 30
0.0
 40
0
 41
0
  0
VERTEX
  8
0
 10
3.09212
 20
8.86117
 30
0.0
 40
0
 41
0
  0
VERTEX
  8
0
 10
3.09142
 20
8.85856
 30
0.0
 40
0
 41
0
  0
VERTEX
  8
0
 10
3.08892
 20
8.83832
 30
0.0
 40
0
 41
0
  0
VERTEX
  8
0
 10
3.08789
 20
8.8106
 30
0.0
 40
0
 41
0
  0
VERTEX
  8
0
 10
3.08789
 20
8.80132
 30
0.0
 40
0
 41
0
  0
VERTEX
  8
0
 10
3.08789
 20
8.73188
 30
0.0
 40
0
 41
0
  0
VERTEX
  8
0
 10
3.08789
 20
8.72319
 30
0.0
 40
0
 41
0
  0
VERTEX
  8
0
 10
3.08908
 20
8.69706
 30
0.0
 40
0
 41
0
  0
VERTEX
  8
0
 10
3.0919
 20
8.67751
 30
0.0
 40
0
 41
0
  0
VERTEX
  8
0
 10
3.09272
 20
8.67486
 30
0.0
 40
0
 41
0
  0
VERTEX
  8
0
 10
3.09353
 20
8.67225
 30
0.0
 40
0
 41
0
  0
VERTEX
  8
0
 10
3.10525
 20
8.65907
 30
0.0
 40
0
 41
0
  0
VERTEX
  8
0
 10
3.10921
 20
8.65907
 30
0.0
 40
0
 41
0
  0
VERTEX
  8
0
 10
3.11328
 20
8.65907
 30
0.0
 40
0
 41
0
  0
VERTEX
  8
0
 10
3.12494
 20
8.67176
 30
0.0
 40
0
 41
0
  0
VERTEX
  8
0
 10
3.12565
 20
8.67426
 30
0.0
 40
0
 41
0
  0
VERTEX
  8
0
 10
3.12636
 20
8.67692
 30
0.0
 40
0
 41
0
  0
VERTEX
  8
0
 10
3.12885
 20
8.69829
 30
0.0
 40
0
 41
0
  0
VERTEX
  8
0
 10
3.12993
 20
8.72857
 30
0.0
 40
0
 41
0
  0
VERTEX
  8
0
 10
3.12993
 20
8.73867
 30
0.0
 40
0
 41
0
  0
VERTEX
  8
0
 10
3.12993
 20
8.80132
 30
0.0
 40
0
 41
0
  0
VERTEX
  8
0
 10
3.12993
 20
8.81429
 30
0.0
 40
0
 41
0
  0
VERTEX
  8
0
 10
3.12776
 20
8.85037
 30
0.0
 40
0
 41
0
  0
VERTEX
  8
0
 10
3.12733
 20
8.85319
 30
0.0
 40
0
 41
0
  0
VERTEX
  8
0
 10
3.12571
 20
8.85525
 30
0.0
 40
0
 41
0
  0
VERTEX
  8
0
 10
3.10915
 20
8.87543
 30
0.0
 40
0
 41
0
  0
VERTEX
  8
0
 10
3.10747
 20
8.87739
 30
0.0
 40
0
 41
0
  0
SEQEND
 8
0
  0
POLYLINE
  8
0
 62
     12
 66
     1
 10
0
 20
0
 30
0.0
 70
     1
 40
0
 41
0
  0
VERTEX
  8
0
 10
2.08658
 20
8.84418
 30
0.0
 40
0
 41
0
  0
VERTEX
  8
0
 10
2.08658
 20
8.641
 30
0.0
 40
0
 41
0
  0
VERTEX
  8
0
 10
2.09412
 20
8.641
 30
0.0
 40
0
 41
0
  0
VERTEX
  8
0
 10
2.11529
 20
8.64996
 30
0.0
 40
0
 41
0
  0
VERTEX
  8
0
 10
2.11675
 20
8.65175
 30
0.0
 40
0
 41
0
  0
VERTEX
  8
0
 10
2.11822
 20
8.65365
 30
0.0
 40
0
 41
0
  0
VERTEX
  8
0
 10
2.12337
 20
8.67529
 30
0.0
 40
0
 41
0
  0
VERTEX
  8
0
 10
2.1256
 20
8.71143
 30
0.0
 40
0
 41
0
  0
VERTEX
  8
0
 10
2.1256
 20
8.72342
 30
0.0
 40
0
 41
0
  0
VERTEX
  8
0
 10
2.1256
 20
8.77365
 30
0.0
 40
0
 41
0
  0
VERTEX
  8
0
 10
2.1256
 20
8.78267
 30
0.0
 40
0
 41
0
  0
VERTEX
  8
0
 10
2.12343
 20
8.80968
 30
0.0
 40
0
 41
0
  0
VERTEX
  8
0
 10
2.11849
 20
8.82844
 30
0.0
 40
0
 41
0
  0
VERTEX
  8
0
 10
2.11708
 20
8.83068
 30
0.0
 40
0
 41
0
  0
VERTEX
  8
0
 10
2.11567
 20
8.83296
 30
0.0
 40
0
 41
0
  0
VERTEX
  8
0
 10
2.09386
 20
8.84418
 30
0.0
 40
0
 41
0
  0
VERTEX
  8
0
 10
2.08658
 20
8.84418
 30
0.0
 40
0
 41
0
  0
SEQEND
 8
0
  0
POLYLINE
  8
0
 62
     12
 66
     1
 10
0
 20
0
 30
0.0
 70
     1
 40
0
 41
0
  0
VERTEX
  8
0
 10
2.77425
 20
8.55746
 30
0.0
 40
0
 41
0
  0
VERTEX
  8
0
 10
2.76947
 20
8.55746
 30
0.0
 40
0
 41
0
  0
VERTEX
  8
0
 10
2.75629
 20
8.54286
 30
0.0
 40
0
 41
0
  0
VERTEX
  8
0
 10
2.75532
 20
8.53993
 30
0.0
 40
0
 41
0
  0
VERTEX
  8
0
 10
2.75435
 20
8.53711
 30
0.0
 40
0
 41
0
  0
VERTEX
  8
0
 10
2.75092
 20
8.51471
 30
0.0
 40
0
 41
0
  0
VERTEX
  8
0
 10
2.74951
 20
8.48329
 30
0.0
 40
0
 41
0
  0
VERTEX
  8
0
 10
2.74951
 20
8.47276
 30
0.0
 40
0
 41
0
  0
VERTEX
  8
0
 10
2.74951
 20
8.30735
 30
0.0
 40
0
 41
0
  0
VERTEX
  8
0
 10
2.74951
 20
8.29486
 30
0.0
 40
0
 41
0
  0
VERTEX
  8
0
 10
2.75088
 20
8.25743
 30
0.0
 40
0
 41
0
  0
VERTEX
  8
0
 10
2.75412
 20
8.2315
 30
0.0
 40
0
 41
0
  0
VERTEX
  8
0
 10
2.75504
 20
8.22835
 30
0.0
 40
0
 41
0
  0
VERTEX
  8
0
 10
2.75597
 20
8.22526
 30
0.0
 40
0
 41
0
  0
VERTEX
  8
0
 10
2.76942
 20
8.20969
 30
0.0
 40
0
 41
0
  0
VERTEX
  8
0
 10
2.77393
 20
8.20969
 30
0.0
 40
0
 41
0
  0
VERTEX
  8
0
 10
2.778
 20
8.20969
 30
0.0
 40
0
 41
0
  0
VERTEX
  8
0
 10
2.78896
 20
8.22151
 30
0.0
 40
0
 41
0
  0
VERTEX
  8
0
 10
2.79036
 20
8.22385
 30
0.0
 40
0
 41
0
  0
VERTEX
  8
0
 10
2.79178
 20
8.22629
 30
0.0
 40
0
 41
0
  0
VERTEX
  8
0
 10
2.79671
 20
8.25065
 30
0.0
 40
0
 41
0
  0
VERTEX
  8
0
 10
2.79889
 20
8.28896
 30
0.0
 40
0
 41
0
  0
VERTEX
  8
0
 10
2.79889
 20
8.30171
 30
0.0
 40
0
 41
0
  0
VERTEX
  8
0
 10
2.79889
 20
8.47276
 30
0.0
 40
0
 41
0
  0
VERTEX
  8
0
 10
2.79889
 20
8.48301
 30
0.0
 40
0
 41
0
  0
VERTEX
  8
0
 10
2.79742
 20
8.51372
 30
0.0
 40
0
 41
0
  0
VERTEX
  8
0
 10
2.79406
 20
8.5364
 30
0.0
 40
0
 41
0
  0
VERTEX
  8
0
 10
2.79312
 20
8.53939
 30
0.0
 40
0
 41
0
  0
VERTEX
  8
0
 10
2.79215
 20
8.54243
 30
0.0
 40
0
 41
0
  0
VERTEX
  8
0
 10
2.77869
 20
8.55746
 30
0.0
 40
0
 41
0
  0
VERTEX
  8
0
 10
2.77425
 20
8.55746
 30
0.0
 40
0
 41
0
  0
SEQEND
 8
0
  0
POLYLINE
  8
0
 62
     12
 66
     1
 10
0
 20
0
 30
0.0
 70
     1
 40
0
 41
0
  0
VERTEX
  8
0
 10
3.10829
 20
8.50836
 30
0.0
 40
0
 41
0
  0
VERTEX
  8
0
 10
3.10385
 20
8.50836
 30
0.0
 40
0
 41
0
  0
VERTEX
  8
0
 10
3.09147
 20
8.49425
 30
0.0
 40
0
 41
0
  0
VERTEX
  8
0
 10
3.0906
 20
8.49143
 30
0.0
 40
0
 41
0
  0
VERTEX
  8
0
 10
3.08974
 20
8.48872
 30
0.0
 40
0
 41
0
  0
VERTEX
  8
0
 10
3.08669
 20
8.46571
 30
0.0
 40
0
 41
0
  0
VERTEX
  8
0
 10
3.08544
 20
8.43251
 30
0.0
 40
0
 41
0
  0
VERTEX
  8
0
 10
3.08544
 20
8.42139
 30
0.0
 40
0
 41
0
  0
VERTEX
  8
0
 10
3.08544
 20
8.30285
 30
0.0
 40
0
 41
0
  0
VERTEX
  8
0
 10
3.08544
 20
8.29069
 30
0.0
 40
0
 41
0
  0
VERTEX
  8
0
 10
3.08686
 20
8.25418
 30
0.0
 40
0
 41
0
  0
VERTEX
  8
0
 10
3.09022
 20
8.22949
 30
0.0
 40
0
 41
0
  0
VERTEX
  8
0
 10
3.09119
 20
8.22667
 30
0.0
 40
0
 41
0
  0
VERTEX
  8
0
 10
3.09218
 20
8.22385
 30
0.0
 40
0
 41
0
  0
VERTEX
  8
0
 10
3.10558
 20
8.20969
 30
0.0
 40
0
 41
0
  0
VERTEX
  8
0
 10
3.11008
 20
8.20969
 30
0.0
 40
0
 41
0
  0
VERTEX
  8
0
 10
3.11447
 20
8.20969
 30
0.0
 40
0
 41
0
  0
VERTEX
  8
0
 10
3.12701
 20
8.22385
 30
0.0
 40
0
 41
0
  0
VERTEX
  8
0
 10
3.12776
 20
8.22667
 30
0.0
 40
0
 41
0
  0
VERTEX
  8
0
 10
3.12853
 20
8.2296
 30
0.0
 40
0
 41
0
  0
VERTEX
  8
0
 10
3.13118
 20
8.25489
 30
0.0
 40
0
 41
0
  0
VERTEX
  8
0
 10
3.13238
 20
8.29215
 30
0.0
 40
0
 41
0
  0
VERTEX
  8
0
 10
3.13238
 20
8.30458
 30
0.0
 40
0
 41
0
  0
VERTEX
  8
0
 10
3.13238
 20
8.42139
 30
0.0
 40
0
 41
0
  0
VERTEX
  8
0
 10
3.13238
 20
8.43229
 30
0.0
 40
0
 41
0
  0
VERTEX
  8
0
 10
3.13092
 20
8.465
 30
0.0
 40
0
 41
0
  0
VERTEX
  8
0
 10
3.1275
 20
8.48801
 30
0.0
 40
0
 41
0
  0
VERTEX
  8
0
 10
3.12657
 20
8.49083
 30
0.0
 40
0
 41
0
  0
VERTEX
  8
0
 10
3.1256
 20
8.49376
 30
0.0
 40
0
 41
0
  0
VERTEX
  8
0
 10
3.11257
 20
8.50836
 30
0.0
 40
0
 41
0
  0
VERTEX
  8
0
 10
3.10829
 20
8.50836
 30
0.0
 40
0
 41
0
  0
SEQEND
 8
0
  0
POLYLINE
  8
0
 62
     12
 66
     1
 10
0
 20
0
 30
0.0
 70
     1
 40
0
 41
0
  0
VERTEX
  8
0
 10
2.69228
 20
7.87158
 30
0.0
 40
0
 41
0
  0
VERTEX
  8
0
 10
2.69706
 20
7.87158
 30
0.0
 40
0
 41
0
  0
VERTEX
  8
0
 10
2.71153
 20
7.86774
 30
0.0
 40
0
 41
0
  0
VERTEX
  8
0
 10
2.72732
 20
7.8571
 30
0.0
 40
0
 41
0
  0
VERTEX
  8
0
 10
2.7379
 20
7.84136
 30
0.0
 40
0
 41
0
  0
VERTEX
  8
0
 10
2.74186
 20
7.82687
 30
0.0
 40
0
 41
0
  0
VERTEX
  8
0
 10
2.74186
 20
7.82206
 30
0.0
 40
0
 41
0
  0
VERTEX
  8
0
 10
2.74186
 20
7.81728
 30
0.0
 40
0
 41
0
  0
VERTEX
  8
0
 10
2.73796
 20
7.80279
 30
0.0
 40
0
 41
0
  0
VERTEX
  8
0
 10
2.72732
 20
7.78706
 30
0.0
 40
0
 41
0
  0
VERTEX
  8
0
 10
2.71153
 20
7.77642
 30
0.0
 40
0
 41
0
  0
VERTEX
  8
0
 10
2.69706
 20
7.77251
 30
0.0
 40
0
 41
0
  0
VERTEX
  8
0
 10
2.69228
 20
7.77251
 30
0.0
 40
0
 41
0
  0
VERTEX
  8
0
 10
2.68744
 20
7.77251
 30
0.0
 40
0
 41
0
  0
VERTEX
  8
0
 10
2.67296
 20
7.77642
 30
0.0
 40
0
 41
0
  0
VERTEX
  8
0
 10
2.65728
 20
7.78706
 30
0.0
 40
0
 41
0
  0
VERTEX
  8
0
 10
2.64665
 20
7.80279
 30
0.0
 40
0
 41
0
  0
VERTEX
  8
0
 10
2.64279
 20
7.81728
 30
0.0
 40
0
 41
0
  0
VERTEX
  8
0
 10
2.64279
 20
7.82206
 30
0.0
 40
0
 41
0
  0
VERTEX
  8
0
 10
2.64279
 20
7.82687
 30
0.0
 40
0
 41
0
  0
VERTEX
  8
0
 10
2.64665
 20
7.84136
 30
0.0
 40
0
 41
0
  0
VERTEX
  8
0
 10
2.65728
 20
7.8571
 30
0.0
 40
0
 41
0
  0
VERTEX
  8
0
 10
2.67296
 20
7.86774
 30
0.0
 40
0
 41
0
  0
VERTEX
  8
0
 10
2.68744
 20
7.87158
 30
0.0
 40
0
 41
0
  0
VERTEX
  8
0
 10
2.69228
 20
7.87158
 30
0.0
 40
0
 41
0
  0
SEQEND
 8
0
  0
POLYLINE
  8
0
 62
     12
 66
     1
 10
0
 20
0
 30
0.0
 70
     1
 40
0
 41
0
  0
VERTEX
  8
0
 10
2.89626
 20
7.83931
 30
0.0
 40
0
 41
0
  0
VERTEX
  8
0
 10
2.90136
 20
7.83931
 30
0.0
 40
0
 41
0
  0
VERTEX
  8
0
 10
2.91667
 20
7.83089
 30
0.0
 40
0
 41
0
  0
VERTEX
  8
0
 10
2.92518
 20
7.81554
 30
0.0
 40
0
 41
0
  0
VERTEX
  8
0
 10
2.92518
 20
7.81039
 30
0.0
 40
0
 41
0
  0
VERTEX
  8
0
 10
2.92518
 20
7.80528
 30
0.0
 40
0
 41
0
  0
VERTEX
  8
0
 10
2.91667
 20
7.78999
 30
0.0
 40
0
 41
0
  0
VERTEX
  8
0
 10
2.90136
 20
7.78147
 30
0.0
 40
0
 41
0
  0
VERTEX
  8
0
 10
2.89626
 20
7.78147
 30
0.0
 40
0
 41
0
  0
VERTEX
  8
0
 10
2.89111
 20
7.78147
 30
0.0
 40
0
 41
0
  0
VERTEX
  8
0
 10
2.87576
 20
7.78999
 30
0.0
 40
0
 41
0
  0
VERTEX
  8
0
 10
2.86735
 20
7.80528
 30
0.0
 40
0
 41
0
  0
VERTEX
  8
0
 10
2.86735
 20
7.81039
 30
0.0
 40
0
 41
0
  0
VERTEX
  8
0
 10
2.86735
 20
7.81554
 30
0.0
 40
0
 41
0
  0
VERTEX
  8
0
 10
2.87576
 20
7.83089
 30
0.0
 40
0
 41
0
  0
VERTEX
  8
0
 10
2.89111
 20
7.83931
 30
0.0
 40
0
 41
0
  0
VERTEX
  8
0
 10
2.89626
 20
7.83931
 30
0.0
 40
0
 41
0
  0
SEQEND
 8
0
  0
POLYLINE
  8
0
 62
     12
 66
     1
 10
0
 20
0
 30
0.0
 70
     1
 40
0
 41
0
  0
VERTEX
  8
0
 10
3.02447
 20
7.74046
 30
0.0
 40
0
 41
0
  0
VERTEX
  8
0
 10
3.03336
 20
7.74046
 30
0.0
 40
0
 41
0
  0
VERTEX
  8
0
 10
3.06011
 20
7.7334
 30
0.0
 40
0
 41
0
  0
VERTEX
  8
0
 10
3.08599
 20
7.71756
 30
0.0
 40
0
 41
0
  0
VERTEX
  8
0
 10
3.09039
 20
7.71317
 30
0.0
 40
0
 41
0
  0
VERTEX
  8
0
 10
3.09472
 20
7.70882
 30
0.0
 40
0
 41
0
  0
VERTEX
  8
0
 10
3.11062
 20
7.68294
 30
0.0
 40
0
 41
0
  0
VERTEX
  8
0
 10
3.11774
 20
7.65619
 30
0.0
 40
0
 41
0
  0
VERTEX
  8
0
 10
3.11774
 20
7.64725
 30
0.0
 40
0
 41
0
  0
VERTEX
  8
0
 10
3.11774
 20
7.63835
 30
0.0
 40
0
 41
0
  0
VERTEX
  8
0
 10
3.11062
 20
7.6116
 30
0.0
 40
0
 41
0
  0
VERTEX
  8
0
 10
3.09472
 20
7.58567
 30
0.0
 40
0
 41
0
  0
VERTEX
  8
0
 10
3.09039
 20
7.58128
 30
0.0
 40
0
 41
0
  0
VERTEX
  8
0
 10
3.08599
 20
7.57693
 30
0.0
 40
0
 41
0
  0
VERTEX
  8
0
 10
3.06011
 20
7.56108
 30
0.0
 40
0
 41
0
  0
VERTEX
  8
0
 10
3.03336
 20
7.55399
 30
0.0
 40
0
 41
0
  0
VERTEX
  8
0
 10
3.02447
 20
7.55399
 30
0.0
 40
0
 41
0
  0
VERTEX
  8
0
 10
3.01551
 20
7.55399
 30
0.0
 40
0
 41
0
  0
VERTEX
  8
0
 10
2.98876
 20
7.56108
 30
0.0
 40
0
 41
0
  0
VERTEX
  8
0
 10
2.96289
 20
7.57693
 30
0.0
 40
0
 41
0
  0
VERTEX
  8
0
 10
2.95856
 20
7.58128
 30
0.0
 40
0
 41
0
  0
VERTEX
  8
0
 10
2.95415
 20
7.58567
 30
0.0
 40
0
 41
0
  0
VERTEX
  8
0
 10
2.93832
 20
7.6116
 30
0.0
 40
0
 41
0
  0
VERTEX
  8
0
 10
2.93121
 20
7.63835
 30
0.0
 40
0
 41
0
  0
VERTEX
  8
0
 10
2.93121
 20
7.64725
 30
0.0
 40
0
 41
0
  0
VERTEX
  8
0
 10
2.93121
 20
7.65619
 30
0.0
 40
0
 41
0
  0
VERTEX
  8
0
 10
2.93832
 20
7.68294
 30
0.0
 40
0
 41
0
  0
VERTEX
  8
0
 10
2.95415
 20
7.70882
 30
0.0
 40
0
 41
0
  0
VERTEX
  8
0
 10
2.95856
 20
7.71317
 30
0.0
 40
0
 41
0
  0
VERTEX
  8
0
 10
2.96289
 20
7.71756
 30
0.0
 40
0
 41
0
  0
VERTEX
  8
0
 10
2.98876
 20
7.7334
 30
0.0
 40
0
 41
0
  0
VERTEX
  8
0
 10
3.01551
 20
7.74046
 30
0.0
 40
0
 41
0
  0
VERTEX
  8
0
 10
3.02447
 20
7.74046
 30
0.0
 40
0
 41
0
  0
SEQEND
 8
0
  0
POLYLINE
  8
0
 62
     12
 66
     1
 10
0
 20
0
 30
0.0
 70
     1
 40
0
 41
0
  0
VERTEX
  8
0
 10
2.84381
 20
7.53944
 30
0.0
 40
0
 41
0
  0
VERTEX
  8
0
 10
2.84858
 20
7.53944
 30
0.0
 40
0
 41
0
  0
VERTEX
  8
0
 10
2.86307
 20
7.53554
 30
0.0
 40
0
 41
0
  0
VERTEX
  8
0
 10
2.87879
 20
7.5249
 30
0.0
 40
0
 41
0
  0
VERTEX
  8
0
 10
2.88943
 20
7.50917
 30
0.0
 40
0
 41
0
  0
VERTEX
  8
0
 10
2.89333
 20
7.49468
 30
0.0
 40
0
 41
0
  0
VERTEX
  8
0
 10
2.89333
 20
7.48986
 30
0.0
 40
0
 41
0
  0
VERTEX
  8
0
 10
2.89333
 20
7.48508
 30
0.0
 40
0
 41
0
  0
VERTEX
  8
0
 10
2.88943
 20
7.4706
 30
0.0
 40
0
 41
0
  0
VERTEX
  8
0
 10
2.87879
 20
7.45486
 30
0.0
 40
0
 41
0
  0
VERTEX
  8
0
 10
2.86307
 20
7.44422
 30
0.0
 40
0
 41
0
  0
VERTEX
  8
0
 10
2.84858
 20
7.44032
 30
0.0
 40
0
 41
0
  0
VERTEX
  8
0
 10
2.84381
 20
7.44032
 30
0.0
 40
0
 41
0
  0
VERTEX
  8
0
 10
2.83897
 20
7.44032
 30
0.0
 40
0
 41
0
  0
VERTEX
  8
0
 10
2.82449
 20
7.44422
 30
0.0
 40
0
 41
0
  0
VERTEX
  8
0
 10
2.80875
 20
7.45486
 30
0.0
 40
0
 41
0
  0
VERTEX
  8
0
 10
2.79812
 20
7.4706
 30
0.0
 40
0
 41
0
  0
VERTEX
  8
0
 10
2.79428
 20
7.48508
 30
0.0
 40
0
 41
0
  0
VERTEX
  8
0
 10
2.79428
 20
7.48986
 30
0.0
 40
0
 41
0
  0
VERTEX
  8
0
 10
2.79428
 20
7.49468
 30
0.0
 40
0
 41
0
  0
VERTEX
  8
0
 10
2.79812
 20
7.50917
 30
0.0
 40
0
 41
0
  0
VERTEX
  8
0
 10
2.80875
 20
7.52496
 30
0.0
 40
0
 41
0
  0
VERTEX
  8
0
 10
2.82449
 20
7.5356
 30
0.0
 40
0
 41
0
  0
VERTEX
  8
0
 10
2.83897
 20
7.53944
 30
0.0
 40
0
 41
0
  0
VERTEX
  8
0
 10
2.84381
 20
7.53944
 30
0.0
 40
0
 41
0
  0
SEQEND
 8
0
  0
POLYLINE
  8
0
 62
     12
 66
     1
 10
0
 20
0
 30
0.0
 70
     1
 40
0
 41
0
  0
VERTEX
  8
0
 10
3.82286
 20
7.60644
 30
0.0
 40
0
 41
0
  0
VERTEX
  8
0
 10
3.82286
 20
7.60021
 30
0.0
 40
0
 41
0
  0
VERTEX
  8
0
 10
3.81782
 20
7.58149
 30
0.0
 40
0
 41
0
  0
VERTEX
  8
0
 10
3.80404
 20
7.56114
 30
0.0
 40
0
 41
0
  0
VERTEX
  8
0
 10
3.78369
 20
7.54736
 30
0.0
 40
0
 41
0
  0
VERTEX
  8
0
 10
3.76497
 20
7.54232
 30
0.0
 40
0
 41
0
  0
VERTEX
  8
0
 10
3.75874
 20
7.54232
 30
0.0
 40
0
 41
0
  0
VERTEX
  8
0
 10
3.7525
 20
7.54232
 30
0.0
 40
0
 41
0
  0
VERTEX
  8
0
 10
3.73378
 20
7.54736
 30
0.0
 40
0
 41
0
  0
VERTEX
  8
0
 10
3.71343
 20
7.56114
 30
0.0
 40
0
 41
0
  0
VERTEX
  8
0
 10
3.69965
 20
7.58149
 30
0.0
 40
0
 41
0
  0
VERTEX
  8
0
 10
3.69467
 20
7.60021
 30
0.0
 40
0
 41
0
  0
VERTEX
  8
0
 10
3.69467
 20
7.60644
 30
0.0
 40
0
 41
0
  0
VERTEX
  8
0
 10
3.69467
 20
7.61268
 30
0.0
 40
0
 41
0
  0
VERTEX
  8
0
 10
3.69965
 20
7.6314
 30
0.0
 40
0
 41
0
  0
VERTEX
  8
0
 10
3.71343
 20
7.65175
 30
0.0
 40
0
 41
0
  0
VERTEX
  8
0
 10
3.73378
 20
7.66553
 30
0.0
 40
0
 41
0
  0
VERTEX
  8
0
 10
3.7525
 20
7.67051
 30
0.0
 40
0
 41
0
  0
VERTEX
  8
0
 10
3.75874
 20
7.67051
 30
0.0
 40
0
 41
0
  0
VERTEX
  8
0
 10
3.76497
 20
7.67051
 30
0.0
 40
0
 41
0
  0
VERTEX
  8
0
 10
3.78369
 20
7.66553
 30
0.0
 40
0
 41
0
  0
VERTEX
  8
0
 10
3.80404
 20
7.65175
 30
0.0
 40
0
 41
0
  0
VERTEX
  8
0
 10
3.81782
 20
7.6314
 30
0.0
 40
0
 41
0
  0
VERTEX
  8
0
 10
3.82286
 20
7.61268
 30
0.0
 40
0
 41
0
  0
VERTEX
  8
0
 10
3.82286
 20
7.60644
 30
0.0
 40
0
 41
0
  0
SEQEND
 8
0
  0
POLYLINE
  8
0
 62
     12
 66
     1
 10
0
 20
0
 30
0.0
 70
     1
 40
0
 41
0
  0
VERTEX
  8
0
 10
3.63053
 20
7.86285
 30
0.0
 40
0
 41
0
  0
VERTEX
  8
0
 10
3.63053
 20
7.85394
 30
0.0
 40
0
 41
0
  0
VERTEX
  8
0
 10
3.62343
 20
7.82721
 30
0.0
 40
0
 41
0
  0
VERTEX
  8
0
 10
3.60758
 20
7.80132
 30
0.0
 40
0
 41
0
  0
VERTEX
  8
0
 10
3.60325
 20
7.79693
 30
0.0
 40
0
 41
0
  0
VERTEX
  8
0
 10
3.59885
 20
7.79258
 30
0.0
 40
0
 41
0
  0
VERTEX
  8
0
 10
3.57292
 20
7.77669
 30
0.0
 40
0
 41
0
  0
VERTEX
  8
0
 10
3.54617
 20
7.76958
 30
0.0
 40
0
 41
0
  0
VERTEX
  8
0
 10
3.53728
 20
7.76958
 30
0.0
 40
0
 41
0
  0
VERTEX
  8
0
 10
3.52815
 20
7.76958
 30
0.0
 40
0
 41
0
  0
VERTEX
  8
0
 10
3.50097
 20
7.77696
 30
0.0
 40
0
 41
0
  0
VERTEX
  8
0
 10
3.47136
 20
7.79693
 30
0.0
 40
0
 41
0
  0
VERTEX
  8
0
 10
3.45133
 20
7.82661
 30
0.0
 40
0
 41
0
  0
VERTEX
  8
0
 10
3.44407
 20
7.85379
 30
0.0
 40
0
 41
0
  0
VERTEX
  8
0
 10
3.44407
 20
7.86285
 30
0.0
 40
0
 41
0
  0
VERTEX
  8
0
 10
3.44407
 20
7.87181
 30
0.0
 40
0
 41
0
  0
VERTEX
  8
0
 10
3.45111
 20
7.89854
 30
0.0
 40
0
 41
0
  0
VERTEX
  8
0
 10
3.46696
 20
7.92443
 30
0.0
 40
0
 41
0
  0
VERTEX
  8
0
 10
3.47136
 20
7.92876
 30
0.0
 40
0
 41
0
  0
VERTEX
  8
0
 10
3.47569
 20
7.93317
 30
0.0
 40
0
 41
0
  0
VERTEX
  8
0
 10
3.50163
 20
7.949
 30
0.0
 40
0
 41
0
  0
VERTEX
  8
0
 10
3.52832
 20
7.95606
 30
0.0
 40
0
 41
0
  0
VERTEX
  8
0
 10
3.53728
 20
7.95606
 30
0.0
 40
0
 41
0
  0
VERTEX
  8
0
 10
3.54617
 20
7.95606
 30
0.0
 40
0
 41
0
  0
VERTEX
  8
0
 10
3.57292
 20
7.949
 30
0.0
 40
0
 41
0
  0
VERTEX
  8
0
 10
3.59885
 20
7.93317
 30
0.0
 40
0
 41
0
  0
VERTEX
  8
0
 10
3.60325
 20
7.92876
 30
0.0
 40
0
 41
0
  0
VERTEX
  8
0
 10
3.60758
 20
7.92443
 30
0.0
 40
0
 41
0
  0
VERTEX
  8
0
 10
3.62343
 20
7.89854
 30
0.0
 40
0
 41
0
  0
VERTEX
  8
0
 10
3.63053
 20
7.87181
 30
0.0
 40
0
 41
0
  0
VERTEX
  8
0
 10
3.63053
 20
7.86285
 30
0.0
 40
0
 41
0
  0
SEQEND
 8
0
  0
POLYLINE
  8
0
 62
     12
 66
     1
 10
0
 20
0
 30
0.0
 70
     1
 40
0
 41
0
  0
VERTEX
  8
0
 10
3.97433
 20
7.74631
 30
0.0
 40
0
 41
0
  0
VERTEX
  8
0
 10
3.97433
 20
7.73725
 30
0.0
 40
0
 41
0
  0
VERTEX
  8
0
 10
3.96701
 20
7.71001
 30
0.0
 40
0
 41
0
  0
VERTEX
  8
0
 10
3.947
 20
7.68039
 30
0.0
 40
0
 41
0
  0
VERTEX
  8
0
 10
3.91737
 20
7.66038
 30
0.0
 40
0
 41
0
  0
VERTEX
  8
0
 10
3.89019
 20
7.65306
 30
0.0
 40
0
 41
0
  0
VERTEX
  8
0
 10
3.88113
 20
7.65306
 30
0.0
 40
0
 41
0
  0
VERTEX
  8
0
 10
3.87201
 20
7.65306
 30
0.0
 40
0
 41
0
  0
VERTEX
  8
0
 10
3.84483
 20
7.66038
 30
0.0
 40
0
 41
0
  0
VERTEX
  8
0
 10
3.81515
 20
7.68039
 30
0.0
 40
0
 41
0
  0
VERTEX
  8
0
 10
3.79519
 20
7.71001
 30
0.0
 40
0
 41
0
  0
VERTEX
  8
0
 10
3.78787
 20
7.73725
 30
0.0
 40
0
 41
0
  0
VERTEX
  8
0
 10
3.78787
 20
7.74631
 30
0.0
 40
0
 41
0
  0
VERTEX
  8
0
 10
3.78787
 20
7.75543
 30
0.0
 40
0
 41
0
  0
VERTEX
  8
0
 10
3.79519
 20
7.78261
 30
0.0
 40
0
 41
0
  0
VERTEX
  8
0
 10
3.81515
 20
7.81222
 30
0.0
 40
0
 41
0
  0
VERTEX
  8
0
 10
3.84483
 20
7.83225
 30
0.0
 40
0
 41
0
  0
VERTEX
  8
0
 10
3.87201
 20
7.83951
 30
0.0
 40
0
 41
0
  0
VERTEX
  8
0
 10
3.88113
 20
7.83951
 30
0.0
 40
0
 41
0
  0
VERTEX
  8
0
 10
3.89003
 20
7.83951
 30
0.0
 40
0
 41
0
  0
VERTEX
  8
0
 10
3.91678
 20
7.83247
 30
0.0
 40
0
 41
0
  0
VERTEX
  8
0
 10
3.94265
 20
7.81663
 30
0.0
 40
0
 41
0
  0
VERTEX
  8
0
 10
3.94706
 20
7.81222
 30
0.0
 40
0
 41
0
  0
VERTEX
  8
0
 10
3.95139
 20
7.80789
 30
0.0
 40
0
 41
0
  0
VERTEX
  8
0
 10
3.96724
 20
7.78196
 30
0.0
 40
0
 41
0
  0
VERTEX
  8
0
 10
3.97433
 20
7.75526
 30
0.0
 40
0
 41
0
  0
VERTEX
  8
0
 10
3.97433
 20
7.74631
 30
0.0
 40
0
 41
0
  0
SEQEND
 8
0
  0
POLYLINE
  8
0
 62
     12
 66
     1
 10
0
 20
0
 30
0.0
 70
     1
 40
0
 41
0
  0
VERTEX
  8
0
 10
3.60704
 20
7.43158
 30
0.0
 40
0
 41
0
  0
VERTEX
  8
0
 10
3.60704
 20
7.41601
 30
0.0
 40
0
 41
0
  0
VERTEX
  8
0
 10
3.59462
 20
7.36925
 30
0.0
 40
0
 41
0
  0
VERTEX
  8
0
 10
3.56689
 20
7.324
 30
0.0
 40
0
 41
0
  0
VERTEX
  8
0
 10
3.55931
 20
7.31635
 30
0.0
 40
0
 41
0
  0
VERTEX
  8
0
 10
3.55165
 20
7.30875
 30
0.0
 40
0
 41
0
  0
VERTEX
  8
0
 10
3.5064
 20
7.28108
 30
0.0
 40
0
 41
0
  0
VERTEX
  8
0
 10
3.45964
 20
7.26867
 30
0.0
 40
0
 41
0
  0
VERTEX
  8
0
 10
3.44407
 20
7.26867
 30
0.0
 40
0
 41
0
  0
VERTEX
  8
0
 10
3.42817
 20
7.26867
 30
0.0
 40
0
 41
0
  0
VERTEX
  8
0
 10
3.38058
 20
7.28147
 30
0.0
 40
0
 41
0
  0
VERTEX
  8
0
 10
3.32878
 20
7.3164
 30
0.0
 40
0
 41
0
  0
VERTEX
  8
0
 10
3.29389
 20
7.36817
 30
0.0
 40
0
 41
0
  0
VERTEX
  8
0
 10
3.28108
 20
7.41575
 30
0.0
 40
0
 41
0
  0
VERTEX
  8
0
 10
3.28108
 20
7.43158
 30
0.0
 40
0
 41
0
  0
VERTEX
  8
0
 10
3.28108
 20
7.44749
 30
0.0
 40
0
 41
0
  0
VERTEX
  8
0
 10
3.29389
 20
7.49507
 30
0.0
 40
0
 41
0
  0
VERTEX
  8
0
 10
3.32878
 20
7.54688
 30
0.0
 40
0
 41
0
  0
VERTEX
  8
0
 10
3.38058
 20
7.58176
 30
0.0
 40
0
 41
0
  0
VERTEX
  8
0
 10
3.42817
 20
7.59457
 30
0.0
 40
0
 41
0
  0
VERTEX
  8
0
 10
3.44407
 20
7.59457
 30
0.0
 40
0
 41
0
  0
VERTEX
  8
0
 10
3.45964
 20
7.59457
 30
0.0
 40
0
 41
0
  0
VERTEX
  8
0
 10
3.5064
 20
7.58219
 30
0.0
 40
0
 41
0
  0
VERTEX
  8
0
 10
3.55165
 20
7.55447
 30
0.0
 40
0
 41
0
  0
VERTEX
  8
0
 10
3.55931
 20
7.54682
 30
0.0
 40
0
 41
0
  0
VERTEX
  8
0
 10
3.56689
 20
7.53922
 30
0.0
 40
0
 41
0
  0
VERTEX
  8
0
 10
3.59462
 20
7.49397
 30
0.0
 40
0
 41
0
  0
VERTEX
  8
0
 10
3.60704
 20
7.44721
 30
0.0
 40
0
 41
0
  0
VERTEX
  8
0
 10
3.60704
 20
7.43158
 30
0.0
 40
0
 41
0
  0
SEQEND
 8
0
  0
POLYLINE
  8
0
 62
     12
 66
     1
 10
0
 20
0
 30
0.0
 70
     1
 40
0
 41
0
  0
VERTEX
  8
0
 10
4.41433
 20
8.14839
 30
0.0
 40
0
 41
0
  0
VERTEX
  8
0
 10
4.41433
 20
8.14361
 30
0.0
 40
0
 41
0
  0
VERTEX
  8
0
 10
4.41043
 20
8.12913
 30
0.0
 40
0
 41
0
  0
VERTEX
  8
0
 10
4.39979
 20
8.11339
 30
0.0
 40
0
 41
0
  0
VERTEX
  8
0
 10
4.38406
 20
8.10275
 30
0.0
 40
0
 41
0
  0
VERTEX
  8
0
 10
4.36957
 20
8.09885
 30
0.0
 40
0
 41
0
  0
VERTEX
  8
0
 10
4.36481
 20
8.09885
 30
0.0
 40
0
 41
0
  0
VERTEX
  8
0
 10
4.35997
 20
8.09885
 30
0.0
 40
0
 41
0
  0
VERTEX
  8
0
 10
4.34549
 20
8.10275
 30
0.0
 40
0
 41
0
  0
VERTEX
  8
0
 10
4.32975
 20
8.11339
 30
0.0
 40
0
 41
0
  0
VERTEX
  8
0
 10
4.31912
 20
8.12913
 30
0.0
 40
0
 41
0
  0
VERTEX
  8
0
 10
4.31526
 20
8.14361
 30
0.0
 40
0
 41
0
  0
VERTEX
  8
0
 10
4.31526
 20
8.14839
 30
0.0
 40
0
 41
0
  0
VERTEX
  8
0
 10
4.31526
 20
8.15321
 30
0.0
 40
0
 41
0
  0
VERTEX
  8
0
 10
4.31912
 20
8.16769
 30
0.0
 40
0
 41
0
  0
VERTEX
  8
0
 10
4.32975
 20
8.18343
 30
0.0
 40
0
 41
0
  0
VERTEX
  8
0
 10
4.34549
 20
8.19407
 30
0.0
 40
0
 41
0
  0
VERTEX
  8
0
 10
4.35997
 20
8.19792
 30
0.0
 40
0
 41
0
  0
VERTEX
  8
0
 10
4.36481
 20
8.19792
 30
0.0
 40
0
 41
0
  0
VERTEX
  8
0
 10
4.36957
 20
8.19792
 30
0.0
 40
0
 41
0
  0
VERTEX
  8
0
 10
4.38406
 20
8.19407
 30
0.0
 40
0
 41
0
  0
VERTEX
  8
0
 10
4.39979
 20
8.18343
 30
0.0
 40
0
 41
0
  0
VERTEX
  8
0
 10
4.41043
 20
8.16769
 30
0.0
 40
0
 41
0
  0
VERTEX
  8
0
 10
4.41433
 20
8.15321
 30
0.0
 40
0
 41
0
  0
VERTEX
  8
0
 10
4.41433
 20
8.14839
 30
0.0
 40
0
 41
0
  0
SEQEND
 8
0
  0
POLYLINE
  8
0
 62
     12
 66
     1
 10
0
 20
0
 30
0.0
 70
     1
 40
0
 41
0
  0
VERTEX
  8
0
 10
4.56239
 20
7.98519
 30
0.0
 40
0
 41
0
  0
VERTEX
  8
0
 10
4.56239
 20
7.98047
 30
0.0
 40
0
 41
0
  0
VERTEX
  8
0
 10
4.55453
 20
7.96625
 30
0.0
 40
0
 41
0
  0
VERTEX
  8
0
 10
4.54025
 20
7.95833
 30
0.0
 40
0
 41
0
  0
VERTEX
  8
0
 10
4.53554
 20
7.95833
 30
0.0
 40
0
 41
0
  0
VERTEX
  8
0
 10
4.53076
 20
7.95833
 30
0.0
 40
0
 41
0
  0
VERTEX
  8
0
 10
4.51654
 20
7.96625
 30
0.0
 40
0
 41
0
  0
VERTEX
  8
0
 10
4.50868
 20
7.98047
 30
0.0
 40
0
 41
0
  0
VERTEX
  8
0
 10
4.50868
 20
7.98519
 30
0.0
 40
0
 41
0
  0
VERTEX
  8
0
 10
4.50868
 20
7.98996
 30
0.0
 40
0
 41
0
  0
VERTEX
  8
0
 10
4.51654
 20
8.00424
 30
0.0
 40
0
 41
0
  0
VERTEX
  8
0
 10
4.53076
 20
8.0121
 30
0.0
 40
0
 41
0
  0
VERTEX
  8
0
 10
4.53554
 20
8.0121
 30
0.0
 40
0
 41
0
  0
VERTEX
  8
0
 10
4.54025
 20
8.0121
 30
0.0
 40
0
 41
0
  0
VERTEX
  8
0
 10
4.55453
 20
8.00424
 30
0.0
 40
0
 41
0
  0
VERTEX
  8
0
 10
4.56239
 20
7.98893
 30
0.0
 40
0
 41
0
  0
VERTEX
  8
0
 10
4.56239
 20
7.98519
 30
0.0
 40
0
 41
0
  0
SEQEND
 8
0
  0
POLYLINE
  8
0
 62
     12
 66
     1
 10
0
 20
0
 30
0.0
 70
     1
 40
0
 41
0
  0
VERTEX
  8
0
 10
4.57997
 20
7.82454
 30
0.0
 40
0
 41
0
  0
VERTEX
  8
0
 10
4.57997
 20
7.81976
 30
0.0
 40
0
 41
0
  0
VERTEX
  8
0
 10
4.57607
 20
7.80528
 30
0.0
 40
0
 41
0
  0
VERTEX
  8
0
 10
4.56543
 20
7.78956
 30
0.0
 40
0
 41
0
  0
VERTEX
  8
0
 10
4.54969
 20
7.77892
 30
0.0
 40
0
 41
0
  0
VERTEX
  8
0
 10
4.53521
 20
7.77501
 30
0.0
 40
0
 41
0
  0
VERTEX
  8
0
 10
4.53043
 20
7.77501
 30
0.0
 40
0
 41
0
  0
VERTEX
  8
0
 10
4.52561
 20
7.77501
 30
0.0
 40
0
 41
0
  0
VERTEX
  8
0
 10
4.51112
 20
7.77892
 30
0.0
 40
0
 41
0
  0
VERTEX
  8
0
 10
4.49539
 20
7.78956
 30
0.0
 40
0
 41
0
  0
VERTEX
  8
0
 10
4.48475
 20
7.80528
 30
0.0
 40
0
 41
0
  0
VERTEX
  8
0
 10
4.4809
 20
7.81976
 30
0.0
 40
0
 41
0
  0
VERTEX
  8
0
 10
4.4809
 20
7.82454
 30
0.0
 40
0
 41
0
  0
VERTEX
  8
0
 10
4.4809
 20
7.82938
 30
0.0
 40
0
 41
0
  0
VERTEX
  8
0
 10
4.48475
 20
7.84386
 30
0.0
 40
0
 41
0
  0
VERTEX
  8
0
 10
4.49539
 20
7.8596
 30
0.0
 40
0
 41
0
  0
VERTEX
  8
0
 10
4.51112
 20
7.87022
 30
0.0
 40
0
 41
0
  0
VERTEX
  8
0
 10
4.52561
 20
7.87408
 30
0.0
 40
0
 41
0
  0
VERTEX
  8
0
 10
4.53043
 20
7.87408
 30
0.0
 40
0
 41
0
  0
VERTEX
  8
0
 10
4.53521
 20
7.87408
 30
0.0
 40
0
 41
0
  0
VERTEX
  8
0
 10
4.54969
 20
7.87022
 30
0.0
 40
0
 41
0
  0
VERTEX
  8
0
 10
4.56543
 20
7.8596
 30
0.0
 40
0
 41
0
  0
VERTEX
  8
0
 10
4.57607
 20
7.84386
 30
0.0
 40
0
 41
0
  0
VERTEX
  8
0
 10
4.57997
 20
7.82938
 30
0.0
 40
0
 41
0
  0
VERTEX
  8
0
 10
4.57997
 20
7.82454
 30
0.0
 40
0
 41
0
  0
SEQEND
 8
0
  0
POLYLINE
  8
0
 62
     12
 66
     1
 10
0
 20
0
 30
0.0
 70
     1
 40
0
 41
0
  0
VERTEX
  8
0
 10
4.32975
 20
6.69775
 30
0.0
 40
0
 41
0
  0
VERTEX
  8
0
 10
4.32975
 20
6.69303
 30
0.0
 40
0
 41
0
  0
VERTEX
  8
0
 10
4.32183
 20
6.67882
 30
0.0
 40
0
 41
0
  0
VERTEX
  8
0
 10
4.30761
 20
6.6709
 30
0.0
 40
0
 41
0
  0
VERTEX
  8
0
 10
4.3029
 20
6.6709
 30
0.0
 40
0
 41
0
  0
VERTEX
  8
0
 10
4.29812
 20
6.6709
 30
0.0
 40
0
 41
0
  0
VERTEX
  8
0
 10
4.28386
 20
6.67882
 30
0.0
 40
0
 41
0
  0
VERTEX
  8
0
 10
4.27599
 20
6.69303
 30
0.0
 40
0
 41
0
  0
VERTEX
  8
0
 10
4.27599
 20
6.69775
 30
0.0
 40
0
 41
0
  0
VERTEX
  8
0
 10
4.27599
 20
6.70253
 30
0.0
 40
0
 41
0
  0
VERTEX
  8
0
 10
4.28386
 20
6.71679
 30
0.0
 40
0
 41
0
  0
VERTEX
  8
0
 10
4.29812
 20
6.72467
 30
0.0
 40
0
 41
0
  0
VERTEX
  8
0
 10
4.3029
 20
6.72467
 30
0.0
 40
0
 41
0
  0
VERTEX
  8
0
 10
4.30761
 20
6.72467
 30
0.0
 40
0
 41
0
  0
VERTEX
  8
0
 10
4.32183
 20
6.71679
 30
0.0
 40
0
 41
0
  0
VERTEX
  8
0
 10
4.32975
 20
6.70253
 30
0.0
 40
0
 41
0
  0
VERTEX
  8
0
 10
4.32975
 20
6.69775
 30
0.0
 40
0
 41
0
  0
SEQEND
 8
0
  0
POLYLINE
  8
0
 62
     12
 66
     1
 10
0
 20
0
 30
0.0
 70
     1
 40
0
 41
0
  0
VERTEX
  8
0
 10
4.07628
 20
7.76958
 30
0.0
 40
0
 41
0
  0
VERTEX
  8
0
 10
4.07628
 20
7.76704
 30
0.0
 40
0
 41
0
  0
VERTEX
  8
0
 10
4.072
 20
7.75939
 30
0.0
 40
0
 41
0
  0
VERTEX
  8
0
 10
4.06435
 20
7.7551
 30
0.0
 40
0
 41
0
  0
VERTEX
  8
0
 10
4.06179
 20
7.7551
 30
0.0
 40
0
 41
0
  0
VERTEX
  8
0
 10
4.05919
 20
7.7551
 30
0.0
 40
0
 41
0
  0
VERTEX
  8
0
 10
4.05149
 20
7.75939
 30
0.0
 40
0
 41
0
  0
VERTEX
  8
0
 10
4.04725
 20
7.76704
 30
0.0
 40
0
 41
0
  0
VERTEX
  8
0
 10
4.04725
 20
7.76958
 30
0.0
 40
0
 41
0
  0
VERTEX
  8
0
 10
4.04725
 20
7.77219
 30
0.0
 40
0
 41
0
  0
VERTEX
  8
0
 10
4.05149
 20
7.77989
 30
0.0
 40
0
 41
0
  0
VERTEX
  8
0
 10
4.05919
 20
7.78412
 30
0.0
 40
0
 41
0
  0
VERTEX
  8
0
 10
4.06179
 20
7.78412
 30
0.0
 40
0
 41
0
  0
VERTEX
  8
0
 10
4.06435
 20
7.78412
 30
0.0
 40
0
 41
0
  0
VERTEX
  8
0
 10
4.072
 20
7.77989
 30
0.0
 40
0
 41
0
  0
VERTEX
  8
0
 10
4.07628
 20
7.77219
 30
0.0
 40
0
 41
0
  0
VERTEX
  8
0
 10
4.07628
 20
7.76958
 30
0.0
 40
0
 41
0
  0
SEQEND
 8
0
  0
POLYLINE
  8
0
 62
     12
 66
     1
 10
0
 20
0
 30
0.0
 70
     1
 40
0
 41
0
  0
VERTEX
  8
0
 10
3.72765
 20
7.46858
 30
0.0
 40
0
 41
0
  0
VERTEX
  8
0
 10
3.72765
 20
7.46604
 30
0.0
 40
0
 41
0
  0
VERTEX
  8
0
 10
3.72336
 20
7.45839
 30
0.0
 40
0
 41
0
  0
VERTEX
  8
0
 10
3.71571
 20
7.4541
 30
0.0
 40
0
 41
0
  0
VERTEX
  8
0
 10
3.71317
 20
7.4541
 30
0.0
 40
0
 41
0
  0
VERTEX
  8
0
 10
3.71056
 20
7.4541
 30
0.0
 40
0
 41
0
  0
VERTEX
  8
0
 10
3.70285
 20
7.45839
 30
0.0
 40
0
 41
0
  0
VERTEX
  8
0
 10
3.69862
 20
7.46604
 30
0.0
 40
0
 41
0
  0
VERTEX
  8
0
 10
3.69862
 20
7.46858
 30
0.0
 40
0
 41
0
  0
VERTEX
  8
0
 10
3.69862
 20
7.47119
 30
0.0
 40
0
 41
0
  0
VERTEX
  8
0
 10
3.70285
 20
7.47889
 30
0.0
 40
0
 41
0
  0
VERTEX
  8
0
 10
3.71056
 20
7.48312
 30
0.0
 40
0
 41
0
  0
VERTEX
  8
0
 10
3.71317
 20
7.48312
 30
0.0
 40
0
 41
0
  0
VERTEX
  8
0
 10
3.71571
 20
7.48312
 30
0.0
 40
0
 41
0
  0
VERTEX
  8
0
 10
3.72336
 20
7.47889
 30
0.0
 40
0
 41
0
  0
VERTEX
  8
0
 10
3.72765
 20
7.47119
 30
0.0
 40
0
 41
0
  0
VERTEX
  8
0
 10
3.72765
 20
7.46858
 30
0.0
 40
0
 41
0
  0
SEQEND
 8
0
  0
POLYLINE
  8
0
 62
     242
 66
     1
 10
0
 20
0
 30
0.0
 70
     1
 40
3.68504
 41
3.68504
  0
VERTEX
  8
0
 10
2.097
 20
9.62522
 30
0.0
 40
0.0511811
 41
0.0511811
  0
VERTEX
  8
0
 10
2.05871
 20
9.62522
 30
0.0
 40
0.0511811
 41
0.0511811
  0
VERTEX
  8
0
 10
1.94385
 20
9.61751
 30
0.0
 40
0.0511811
 41
0.0511811
  0
VERTEX
  8
0
 10
1.79514
 20
9.59483
 30
0.0
 40
0.0511811
 41
0.0511811
  0
VERTEX
  8
0
 10
1.65164
 20
9.55789
 30
0.0
 40
0.0511811
 41
0.0511811
  0
VERTEX
  8
0
 10
1.51406
 20
9.50754
 30
0.0
 40
0.0511811
 41
0.0511811
  0
VERTEX
  8
0
 10
1.38314
 20
9.4445
 30
0.0
 40
0.0511811
 41
0.0511811
  0
VERTEX
  8
0
 10
1.25966
 20
9.36947
 30
0.0
 40
0.0511811
 41
0.0511811
  0
VERTEX
  8
0
 10
1.14437
 20
9.28326
 30
0.0
 40
0.0511811
 41
0.0511811
  0
VERTEX
  8
0
 10
1.03803
 20
9.18658
 30
0.0
 40
0.0511811
 41
0.0511811
  0
VERTEX
  8
0
 10
0.941351
 20
9.08024
 30
0.0
 40
0.0511811
 41
0.0511811
  0
VERTEX
  8
0
 10
0.855143
 20
8.96496
 30
0.0
 40
0.0511811
 41
0.0511811
  0
VERTEX
  8
0
 10
0.780111
 20
8.84147
 30
0.0
 40
0.0511811
 41
0.0511811
  0
VERTEX
  8
0
 10
0.717014
 20
8.71056
 30
0.0
 40
0.0511811
 41
0.0511811
  0
VERTEX
  8
0
 10
0.666667
 20
8.57292
 30
0.0
 40
0.0511811
 41
0.0511811
  0
VERTEX
  8
0
 10
0.629775
 20
8.42942
 30
0.0
 40
0.0511811
 41
0.0511811
  0
VERTEX
  8
0
 10
0.607042
 20
8.28071
 30
0.0
 40
0.0511811
 41
0.0511811
  0
VERTEX
  8
0
 10
0.599338
 20
8.16585
 30
0.0
 40
0.0511811
 41
0.0511811
  0
VERTEX
  8
0
 10
0.599338
 20
8.12756
 30
0.0
 40
0.0511811
 41
0.0511811
  0
VERTEX
  8
0
 10
0.599338
 20
8.08931
 30
0.0
 40
0.0511811
 41
0.0511811
  0
VERTEX
  8
0
 10
0.607042
 20
7.97444
 30
0.0
 40
0.0511811
 41
0.0511811
  0
VERTEX
  8
0
 10
0.629775
 20
7.82574
 30
0.0
 40
0.0511811
 41
0.0511811
  0
VERTEX
  8
0
 10
0.666667
 20
7.68224
 30
0.0
 40
0.0511811
 41
0.0511811
  0
VERTEX
  8
0
 10
0.717014
 20
7.5446
 30
0.0
 40
0.0511811
 41
0.0511811
  0
VERTEX
  8
0
 10
0.780111
 20
7.41368
 30
0.0
 40
0.0511811
 41
0.0511811
  0
VERTEX
  8
0
 10
0.855143
 20
7.29021
 30
0.0
 40
0.0511811
 41
0.0511811
  0
VERTEX
  8
0
 10
0.941351
 20
7.17492
 30
0.0
 40
0.0511811
 41
0.0511811
  0
VERTEX
  8
0
 10
1.03803
 20
7.06858
 30
0.0
 40
0.0511811
 41
0.0511811
  0
VERTEX
  8
0
 10
1.14437
 20
6.9719
 30
0.0
 40
0.0511811
 41
0.0511811
  0
VERTEX
  8
0
 10
1.25966
 20
6.88569
 30
0.0
 40
0.0511811
 41
0.0511811
  0
VERTEX
  8
0
 10
1.38314
 20
6.81065
 30
0.0
 40
0.0511811
 41
0.0511811
  0
VERTEX
  8
0
 10
1.51406
 20
6.74761
 30
0.0
 40
0.0511811
 41
0.0511811
  0
VERTEX
  8
0
 10
1.65164
 20
6.69726
 30
0.0
 40
0.0511811
 41
0.0511811
  0
VERTEX
  8
0
 10
1.79514
 20
6.66032
 30
0.0
 40
0.0511811
 41
0.0511811
  0
VERTEX
  8
0
 10
1.94385
 20
6.63764
 30
0.0
 40
0.0511811
 41
0.0511811
  0
VERTEX
  8
0
 10
2.05871
 20
6.62989
 30
0.0
 40
0.0511811
 41
0.0511811
  0
VERTEX
  8
0
 10
2.097
 20
6.62989
 30
0.0
 40
0.0511811
 41
0.0511811
  0
VERTEX
  8
0
 10
2.15132
 20
6.62993
 30
0.0
 40
0.0511811
 41
0.0511811
  0
VERTEX
  8
0
 10
2.3144
 20
6.646
 30
0.0
 40
0.0511811
 41
0.0511811
  0
VERTEX
  8
0
 10
2.5261
 20
6.69308
 30
0.0
 40
0.0511811
 41
0.0511811
  0
VERTEX
  8
0
 10
2.72874
 20
6.77029
 30
0.0
 40
0.0511811
 41
0.0511811
  0
VERTEX
  8
0
 10
2.87369
 20
6.84668
 30
0.0
 40
0.0511811
 41
0.0511811
  0
VERTEX
  8
0
 10
2.91911
 20
6.87651
 30
0.0
 40
0.0511811
 41
0.0511811
  0
VERTEX
  8
0
 10
2.91889
 20
6.87397
 30
0.0
 40
0.0511811
 41
0.0511811
  0
VERTEX
  8
0
 10
2.91769
 20
6.8481
 30
0.0
 40
0.0511811
 41
0.0511811
  0
VERTEX
  8
0
 10
2.91764
 20
6.84549
 30
0.0
 40
0.0511811
 41
0.0511811
  0
VERTEX
  8
0
 10
2.91764
 20
6.80806
 30
0.0
 40
0.0511811
 41
0.0511811
  0
VERTEX
  8
0
 10
2.93197
 20
6.69569
 30
0.0
 40
0.0511811
 41
0.0511811
  0
VERTEX
  8
0
 10
2.97401
 20
6.55296
 30
0.0
 40
0.0511811
 41
0.0511811
  0
VERTEX
  8
0
 10
3.04215
 20
6.42139
 30
0.0
 40
0.0511811
 41
0.0511811
  0
VERTEX
  8
0
 10
3.10894
 20
6.33154
 30
0.0
 40
0.0511811
 41
0.0511811
  0
VERTEX
  8
0
 10
3.13471
 20
6.30496
 30
0.0
 40
0.0511811
 41
0.0511811
  0
VERTEX
  8
0
 10
3.16026
 20
6.2786
 30
0.0
 40
0.0511811
 41
0.0511811
  0
VERTEX
  8
0
 10
3.24756
 20
6.20947
 30
0.0
 40
0.0511811
 41
0.0511811
  0
VERTEX
  8
0
 10
3.37517
 20
6.13921
 30
0.0
 40
0.0511811
 41
0.0511811
  0
VERTEX
  8
0
 10
3.51351
 20
6.09586
 30
0.0
 40
0.0511811
 41
0.0511811
  0
VERTEX
  8
0
 10
3.62244
 20
6.081
 30
0.0
 40
0.0511811
 41
0.0511811
  0
VERTEX
  8
0
 10
3.65881
 20
6.081
 30
0.0
 40
0.0511811
 41
0.0511811
  0
VERTEX
  8
0
 10
3.68696
 20
6.08106
 30
0.0
 40
0.0511811
 41
0.0511811
  0
VERTEX
  8
0
 10
3.7716
 20
6.09
 30
0.0
 40
0.0511811
 41
0.0511811
  0
VERTEX
  8
0
 10
3.87993
 20
6.116
 30
0.0
 40
0.0511811
 41
0.0511811
  0
VERTEX
  8
0
 10
3.98226
 20
6.15793
 30
0.0
 40
0.0511811
 41
0.0511811
  0
VERTEX
  8
0
 10
4.07699
 20
6.21474
 30
0.0
 40
0.0511811
 41
0.0511811
  0
VERTEX
  8
0
 10
4.16254
 20
6.28526
 30
0.0
 40
0.0511811
 41
0.0511811
  0
VERTEX
  8
0
 10
4.23747
 20
6.36849
 30
0.0
 40
0.0511811
 41
0.0511811
  0
VERTEX
  8
0
 10
4.30018
 20
6.46322
 30
0.0
 40
0.0511811
 41
0.0511811
  0
VERTEX
  8
0
 10
4.33892
 20
6.54139
 30
0.0
 40
0.0511811
 41
0.0511811
  0
VERTEX
  8
0
 10
4.34912
 20
6.56847
 30
0.0
 40
0.0511811
 41
0.0511811
  0
VERTEX
  8
0
 10
4.38124
 20
6.52599
 30
0.0
 40
0.0511811
 41
0.0511811
  0
VERTEX
  8
0
 10
4.49729
 20
6.41336
 30
0.0
 40
0.0511811
 41
0.0511811
  0
VERTEX
  8
0
 10
4.67432
 20
6.29779
 30
0.0
 40
0.0511811
 41
0.0511811
  0
VERTEX
  8
0
 10
4.87256
 20
6.22569
 30
0.0
 40
0.0511811
 41
0.0511811
  0
VERTEX
  8
0
 10
5.03153
 20
6.20068
 30
0.0
 40
0.0511811
 41
0.0511811
  0
VERTEX
  8
0
 10
5.08453
 20
6.20063
 30
0.0
 40
0.0511811
 41
0.0511811
  0
VERTEX
  8
0
 10
5.13118
 20
6.20063
 30
0.0
 40
0.0511811
 41
0.0511811
  0
VERTEX
  8
0
 10
5.27126
 20
6.21967
 30
0.0
 40
0.0511811
 41
0.0511811
  0
VERTEX
  8
0
 10
5.44521
 20
6.27425
 30
0.0
 40
0.0511811
 41
0.0511811
  0
VERTEX
  8
0
 10
5.6026
 20
6.36057
 30
0.0
 40
0.0511811
 41
0.0511811
  0
VERTEX
  8
0
 10
5.73969
 20
6.47488
 30
0.0
 40
0.0511811
 41
0.0511811
  0
VERTEX
  8
0
 10
5.85286
 20
6.61344
 30
0.0
 40
0.0511811
 41
0.0511811
  0
VERTEX
  8
0
 10
5.93826
 20
6.77246
 30
0.0
 40
0.0511811
 41
0.0511811
  0
VERTEX
  8
0
 10
5.99229
 20
6.94824
 30
0.0
 40
0.0511811
 41
0.0511811
  0
VERTEX
  8
0
 10
6.01112
 20
7.08974
 30
0.0
 40
0.0511811
 41
0.0511811
  0
VERTEX
  8
0
 10
6.01112
 20
7.13687
 30
0.0
 40
0.0511811
 41
0.0511811
  0
VERTEX
  8
0
 10
6.01112
 20
7.18278
 30
0.0
 40
0.0511811
 41
0.0511811
  0
VERTEX
  8
0
 10
5.99311
 20
7.32042
 30
0.0
 40
0.0511811
 41
0.0511811
  0
VERTEX
  8
0
 10
5.9406
 20
7.49517
 30
0.0
 40
0.0511811
 41
0.0511811
  0
VERTEX
  8
0
 10
5.85542
 20
7.65631
 30
0.0
 40
0.0511811
 41
0.0511811
  0
VERTEX
  8
0
 10
5.77186
 20
7.76644
 30
0.0
 40
0.0511811
 41
0.0511811
  0
VERTEX
  8
0
 10
5.73975
 20
7.79889
 30
0.0
 40
0.0511811
 41
0.0511811
  0
VERTEX
  8
0
 10
5.70763
 20
7.83132
 30
0.0
 40
0.0511811
 41
0.0511811
  0
VERTEX
  8
0
 10
5.59858
 20
7.91585
 30
0.0
 40
0.0511811
 41
0.0511811
  0
VERTEX
  8
0
 10
5.43913
 20
8.0019
 30
0.0
 40
0.0511811
 41
0.0511811
  0
VERTEX
  8
0
 10
5.26611
 20
8.05501
 30
0.0
 40
0.0511811
 41
0.0511811
  0
VERTEX
  8
0
 10
5.12989
 20
8.07314
 30
0.0
 40
0.0511811
 41
0.0511811
  0
VERTEX
  8
0
 10
5.08453
 20
8.07314
 30
0.0
 40
0.0511811
 41
0.0511811
  0
VERTEX
  8
0
 10
5.05849
 20
8.07308
 30
0.0
 40
0.0511811
 41
0.0511811
  0
VERTEX
  8
0
 10
4.92958
 20
8.0594
 30
0.0
 40
0.0511811
 41
0.0511811
  0
VERTEX
  8
0
 10
4.8036
 20
8.02843
 30
0.0
 40
0.0511811
 41
0.0511811
  0
VERTEX
  8
0
 10
4.77908
 20
8.01964
 30
0.0
 40
0.0511811
 41
0.0511811
  0
VERTEX
  8
0
 10
4.75336
 20
8.05376
 30
0.0
 40
0.0511811
 41
0.0511811
  0
VERTEX
  8
0
 10
4.66081
 20
8.14432
 30
0.0
 40
0.0511811
 41
0.0511811
  0
VERTEX
  8
0
 10
4.52013
 20
8.23703
 30
0.0
 40
0.0511811
 41
0.0511811
  0
VERTEX
  8
0
 10
4.36285
 20
8.29497
 30
0.0
 40
0.0511811
 41
0.0511811
  0
VERTEX
  8
0
 10
4.23687
 20
8.31506
 30
0.0
 40
0.0511811
 41
0.0511811
  0
VERTEX
  8
0
 10
4.19493
 20
8.31511
 30
0.0
 40
0.0511811
 41
0.0511811
  0
VERTEX
  8
0
 10
4.15039
 20
8.31511
 30
0.0
 40
0.0511811
 41
0.0511811
  0
VERTEX
  8
0
 10
4.01676
 20
8.29264
 30
0.0
 40
0.0511811
 41
0.0511811
  0
VERTEX
  8
0
 10
3.85129
 20
8.22786
 30
0.0
 40
0.0511811
 41
0.0511811
  0
VERTEX
  8
0
 10
3.7054
 20
8.12446
 30
0.0
 40
0.0511811
 41
0.0511811
  0
VERTEX
  8
0
 10
3.61139
 20
8.02387
 30
0.0
 40
0.0511811
 41
0.0511811
  0
VERTEX
  8
0
 10
3.5861
 20
7.98622
 30
0.0
 40
0.0511811
 41
0.0511811
  0
VERTEX
  8
0
 10
3.58735
 20
7.99799
 30
0.0
 40
0.0511811
 41
0.0511811
  0
VERTEX
  8
0
 10
3.59457
 20
8.11578
 30
0.0
 40
0.0511811
 41
0.0511811
  0
VERTEX
  8
0
 10
3.59472
 20
8.12756
 30
0.0
 40
0.0511811
 41
0.0511811
  0
VERTEX
  8
0
 10
3.59472
 20
8.20096
 30
0.0
 40
0.0511811
 41
0.0511811
  0
VERTEX
  8
0
 10
3.56565
 20
8.42111
 30
0.0
 40
0.0511811
 41
0.0511811
  0
VERTEX
  8
0
 10
3.48068
 20
8.70068
 30
0.0
 40
0.0511811
 41
0.0511811
  0
VERTEX
  8
0
 10
3.34304
 20
8.9585
 30
0.0
 40
0.0511811
 41
0.0511811
  0
VERTEX
  8
0
 10
3.2079
 20
9.13471
 30
0.0
 40
0.0511811
 41
0.0511811
  0
VERTEX
  8
0
 10
3.15603
 20
9.18658
 30
0.0
 40
0.0511811
 41
0.0511811
  0
VERTEX
  8
0
 10
3.10411
 20
9.2385
 30
0.0
 40
0.0511811
 41
0.0511811
  0
VERTEX
  8
0
 10
2.9279
 20
9.37364
 30
0.0
 40
0.0511811
 41
0.0511811
  0
VERTEX
  8
0
 10
2.67014
 20
9.51124
 30
0.0
 40
0.0511811
 41
0.0511811
  0
VERTEX
  8
0
 10
2.39051
 20
9.59619
 30
0.0
 40
0.0511811
 41
0.0511811
  0
VERTEX
  8
0
 10
2.17036
 20
9.62522
 30
0.0
 40
0.0511811
 41
0.0511811
  0
VERTEX
  8
0
 10
2.097
 20
9.62522
 30
0.0
 40
0.0511811
 41
0.0511811
  0
SEQEND
 8
0
  0
ENDSEC
  0
EOF
