0
SECTION
2
HEADER
9
$INSUNITS
70
4
9
$ACADVER
1
AC1014
9
$HANDSEED
5
FFFF
0
ENDSEC
0
SECTION
2
TABLES
0
TABLE
2
VPORT
5
8
100
AcDbSymbolTable
0
ENDTAB
0
TABLE
2
LTYPE
5
5
100
AcDbSymbolTable
0
LTYPE
5
14
100
AcDbSymbolTableRecord
100
AcDbLinetypeTableRecord
2
BYBLOCK
70
0
0
LTYPE
5
15
100
AcDbSymbolTableRecord
100
AcDbLinetypeTableRecord
2
BYLAYER
70
0
0
ENDTAB
0
TABLE
2
LAYER
5
2
100
AcDbSymbolTable
70
2
0
LAYER
5
50
100
AcDbSymbolTableRecord
100
AcDbLayerTableRecord
2
0
70
0
6
CONTINUOUS
0
ENDTAB
0
TABLE
2
STYLE
5
3
100
AcDbSymbolTable
70
1
0
STYLE
5
11
100
AcDbSymbolTableRecord
100
AcDbTextStyleTableRecord
2
STANDARD
70
0
0
ENDTAB
0
TABLE
2
VIEW
5
6
100
AcDbSymbolTable
70
0
0
ENDTAB
0
TABLE
2
UCS
5
7
100
AcDbSymbolTable
70
0
0
ENDTAB
0
TABLE
2
APPID
5
9
100
AcDbSymbolTable
70
2
0
APPID
5
12
100
AcDbSymbolTableRecord
100
AcDbRegAppTableRecord
2
ACAD
70
0
0
ENDTAB
0
TABLE
2
DIMSTYLE
5
A
100
AcDbSymbolTable
70
1
0
ENDTAB
0
TABLE
2
BLOCK_RECORD
5
1
100
AcDbSymbolTable
70
1
0
BLOCK_RECORD
5
1F
100
AcDbSymbolTableRecord
100
AcDbBlockTableRecord
2
*MODEL_SPACE
0
BLOCK_RECORD
5
1B
100
AcDbSymbolTableRecord
100
AcDbBlockTableRecord
2
*PAPER_SPACE
0
ENDTAB
0
ENDSEC
0
SECTION
2
BLOCKS
0
BLOCK
5
20
100
AcDbEntity
100
AcDbBlockBegin
2
*MODEL_SPACE
0
ENDBLK
5
21
100
AcDbEntity
100
AcDbBlockEnd
0
BLOCK
5
1C
100
AcDbEntity
100
AcDbBlockBegin
2
*PAPER_SPACE
0
ENDBLK
5
1D
100
AcDbEntity
100
AcDbBlockEnd
0
ENDSEC
0
SECTION
2
ENTITIES
0
LWPOLYLINE
5
100
100
AcDbEntity
8
0
100
AcDbPolyline
90
10
70
1
43
0.0
10
-538.56334865666895
20
244.90968593801404
10
-538.56334865666895
20
249.90968593801404
10
-523.56334865666895
20
249.90968593801404
10
-523.56334865666895
20
-250.09031406198596
10
-553.56334865666895
20
-250.09031406198596
10
-553.56334865666895
20
199.90968593801404
10
-538.56334865666895
20
199.90968593801404
10
-538.56334865666895
20
214.90968593801404
10
-553.56334865666895
20
214.90968593801404
10
-553.56334865666895
20
244.90968593801404
0
LWPOLYLINE
5
101
100
AcDbEntity
8
0
100
AcDbPolyline
90
21
70
1
43
0.0
10
-356.33541739781776
20
-532.89521403698632
10
-344.20016248219355
20
-524.07843525259932
10
-353.0169412665806
20
-511.94318033697505
10
-365.26600422175375
20
-520.84264550212356
42
0.30430852568662176
10
-577.1742098648615
20
-451.98949569530447
10
-581.85293558340038
20
-437.58985857639868
10
-596.11878332782771
20
-442.22511349202296
10
-591.44005760928883
20
-456.6247506109288
42
0.30430852568662081
10
-722.4065311917318
20
-636.88463703766888
10
-737.54720566500032
20
-636.88463703766888
10
-737.54720566500009
20
-651.88463703766888
10
-722.40653119173157
20
-651.88463703766911
42
0.30430852568662042
10
-591.44005760928883
20
-832.14452346440908
10
-596.11878332782783
20
-846.54416058331481
10
-581.85293558340049
20
-851.17941549893908
10
-577.17420986486195
20
-836.77977838003312
42
0.30430852568662203
10
-365.26600422175386
20
-767.92662857321432
10
-353.01694126658072
20
-776.82609373836272
10
-344.2001624821936
20
-764.69083882273844
10
-356.44922543736664
20
-755.79137365758982
42
0.31458370918291884
10
-360.74380666330768
20
-526.82758675356683
0
CIRCLE
5
102
100
AcDbEntity
8
0
100
AcDbCircle
10
-522.54720566499986
20
-644.38463703766888
30
0
40
250
0
CIRCLE
5
103
100
AcDbEntity
8
0
100
AcDbCircle
10
333.28870905062269
20
-577.6305016275453
30
0
40
12.5
0
CIRCLE
5
104
100
AcDbEntity
8
0
100
AcDbCircle
10
67.368451782289156
20
-421.72379169205374
30
0
40
14.999999999999991
0
CIRCLE
5
105
100
AcDbEntity
8
0
100
AcDbCircle
10
-176.37289653549135
20
-757.20497678791378
30
0
40
15
0
CIRCLE
5
106
100
AcDbEntity
8
0
100
AcDbCircle
10
67.368451782289171
20
-836.40134164272592
30
0
40
15
0
CIRCLE
5
107
100
AcDbEntity
8
0
100
AcDbCircle
10
350
20
-629.06256666738977
30
0
40
12.5
0
CIRCLE
5
108
100
AcDbEntity
8
0
100
AcDbCircle
10
333.28870905062263
20
-680.49463170723448
30
0
40
12.5
0
CIRCLE
5
109
100
AcDbEntity
8
0
100
AcDbCircle
10
218.00888950640444
20
-629.06256666738977
30
0
40
15
0
CIRCLE
5
110
100
AcDbEntity
8
0
100
AcDbCircle
10
-176.37289653549135
20
-500.92015654686588
30
0
40
15
0
CIRCLE
5
111
100
AcDbEntity
8
0
100
AcDbCircle
10
393.75072770135841
20
-660.84933097360909
30
0
40
12.5
0
CIRCLE
5
112
100
AcDbEntity
8
0
100
AcDbCircle
10
393.75072770135841
20
-597.27580236117069
30
0
40
12.5
0
LWPOLYLINE
5
113
100
AcDbEntity
8
0
100
AcDbPolyline
90
4
70
1
43
0.0
10
178.34704318280728
20
-508.75636488232027
10
169.5302643984202
20
-496.62110996669605
10
157.07140268504602
20
-505.67300285200014
10
165.88818146943311
20
-517.80825776762435
0
CIRCLE
5
114
100
AcDbEntity
8
0
100
AcDbCircle
10
295.92112649603786
20
-629.06256666738977
30
0
40
12.5
0
LWPOLYLINE
5
115
100
AcDbEntity
8
0
100
AcDbPolyline
90
4
70
1
43
0.0
10
-59.305729918399948
20
-422.26778820611969
10
-73.571577662827252
20
-426.90304312174391
10
-68.812715949453107
20
-441.54931347268928
10
-54.546868205025802
20
-436.91405855706506
0
LWPOLYLINE
5
116
100
AcDbEntity
8
0
100
AcDbPolyline
90
4
70
1
43
0.0
10
-215
20
-621.56256666738977
10
-215
20
-636.56256666738977
10
-199.60000000000002
20
-636.56256666738977
10
-199.60000000000002
20
-621.56256666738977
0
LWPOLYLINE
5
117
100
AcDbEntity
8
0
100
AcDbPolyline
90
4
70
1
43
0.0
10
169.53026439842012
20
-761.50402336808372
10
178.34704318280723
20
-749.36876845245945
10
165.88818146943299
20
-740.31687556715542
10
157.07140268504591
20
-752.45213048277958
0
CIRCLE
5
118
100
AcDbEntity
8
0
100
AcDbCircle
10
0
20
-629.06256666738977
30
0
40
140
0
LWPOLYLINE
5
119
100
AcDbEntity
8
0
100
AcDbPolyline
90
4
70
1
43
0.0
10
-73.571577662827323
20
-831.2220902130357
10
-59.305729918400019
20
-835.85734512865997
10
-54.546868205025874
20
-821.21107477771466
10
-68.812715949453178
20
-816.57581986209038
0
ARC
5
120
100
AcDbEntity
8
0
100
AcDbCircle
10
0
20
-629.06256666738977
30
0
40
250
100
AcDbArc
50
38.518989359806227
51
321.48101064019374
0
SPLINE
5
121
100
AcDbEntity
8
0
100
AcDbSpline
70
1064
71
5
72
26
73
20
74
0
42
0.000000001
43
0.0000000001
44
0.0000000001
40
0
40
0
40
0
40
0
40
0
40
0
40
0.066666666666666666
40
0.13333333333333333
40
0.20000000000000001
40
0.26666666666666666
40
0.33333333333333331
40
0.39999999999999997
40
0.46666666666666662
40
0.53333333333333333
40
0.59999999999999998
40
0.66666666666666663
40
0.73333333333333328
40
0.79999999999999993
40
0.86666666666666659
40
0.93333333333333324
40
1
40
1
40
1
40
1
40
1
40
1
10
195.60044895196734
20
-784.7560616175283
30
0
10
196.81283728477888
20
-783.3660008010313
30
0
10
199.25129200136465
20
-780.57585428155505
30
0
10
202.95000786746766
20
-776.36056315252301
30
0
10
207.96429622205693
20
-770.67956553518616
30
0
10
214.37440668498454
20
-763.48660085763856
30
0
10
220.93394122457147
20
-756.23416117918566
30
0
10
227.65215784292639
20
-748.99210116977088
30
0
10
234.53957152365257
20
-741.88023417589852
30
0
10
241.6064712678226
20
-735.08985126476716
30
0
10
248.86254420295646
20
-728.86519273175224
30
0
10
256.31675485417554
20
-723.46974337804158
30
0
10
263.97635697648116
20
-719.15443269587377
30
0
10
271.84588211508571
20
-716.12704182935897
30
0
10
279.92449036586805
20
-714.50470856479399
30
0
10
288.20708027604962
20
-714.32125156977179
30
0
10
294.99152036246022
20
-715.31918979316288
30
0
10
300.16669105171707
20
-716.70042277360471
30
0
10
303.6551234232802
20
-717.90047463659118
30
0
10
305.40891917993224
20
-718.57030661929673
30
0
0
ARC
5
122
100
AcDbEntity
8
0
100
AcDbCircle
10
350
20
-629.06256666738977
30
0
40
100.00000000000011
100
AcDbArc
50
-116.48162674658452
51
116.48162674658458
0
SPLINE
5
123
100
AcDbEntity
8
0
100
AcDbSpline
70
1064
71
5
72
26
73
20
74
0
42
0.000000001
43
0.0000000001
44
0.0000000001
40
-1
40
-1
40
-1
40
-1
40
-1
40
-1
40
-0.93333333333333324
40
-0.86666666666666659
40
-0.79999999999999993
40
-0.73333333333333328
40
-0.66666666666666663
40
-0.59999999999999998
40
-0.53333333333333333
40
-0.46666666666666662
40
-0.39999999999999997
40
-0.33333333333333331
40
-0.26666666666666666
40
-0.20000000000000001
40
-0.13333333333333333
40
-0.066666666666666666
40
0
40
0
40
0
40
0
40
0
40
0
10
305.40891917993224
20
-539.55482671548293
30
0
10
303.6551234232802
20
-540.22465869818848
30
0
10
300.16669105171707
20
-541.42471056117506
30
0
10
294.99152036246022
20
-542.80594354161678
30
0
10
288.20708027604962
20
-543.80388176500799
30
0
10
279.92449036586805
20
-543.62042476998568
30
0
10
271.84588211508571
20
-541.99809150542069
30
0
10
263.97635697648116
20
-538.97070063890601
30
0
10
256.31675485417554
20
-534.65538995673808
30
0
10
248.86254420295646
20
-529.25994060302742
30
0
10
241.6064712678226
20
-523.0352820700125
30
0
10
234.53957152365257
20
-516.24489915888125
30
0
10
227.65215784292639
20
-509.13303216500879
30
0
10
220.93394122457147
20
-501.890972155594
30
0
10
214.37440668498454
20
-494.6385324771411
30
0
10
207.96429622205693
20
-487.4455677995935
30
0
10
202.95000786746766
20
-481.76457018225665
30
0
10
199.25129200136465
20
-477.54927905322461
30
0
10
196.81283728477888
20
-474.75913253374841
30
0
10
195.60044895196734
20
-473.3690717172513
30
0
0
ENDSEC
0
SECTION
2
OBJECTS
0
DICTIONARY
5
C
100
AcDbDictionary
3
ACAD_GROUP
350
D
3
ACAD_MLINESTYLE
350
17
0
DICTIONARY
5
D
100
AcDbDictionary
0
DICTIONARY
5
1A
330
C
100
AcDbDictionary
0
DICTIONARY
5
17
100
AcDbDictionary
0
ENDSEC
0
EOF
