0
SECTION
2
HEADER
9
$INSUNITS
70
4
9
$ACADVER
1
AC1014
9
$HANDSEED
5
FFFF
0
ENDSEC
0
SECTION
2
TABLES
0
TABLE
2
VPORT
5
8
100
AcDbSymbolTable
0
ENDTAB
0
TABLE
2
LTYPE
5
5
100
AcDbSymbolTable
0
LTYPE
5
14
100
AcDbSymbolTableRecord
100
AcDbLinetypeTableRecord
2
BYBLOCK
70
0
0
LTYPE
5
15
100
AcDbSymbolTableRecord
100
AcDbLinetypeTableRecord
2
BYLAYER
70
0
0
ENDTAB
0
TABLE
2
LAYER
5
2
100
AcDbSymbolTable
70
2
0
LAYER
5
50
100
AcDbSymbolTableRecord
100
AcDbLayerTableRecord
2
0
70
0
6
CONTINUOUS
0
ENDTAB
0
TABLE
2
STYLE
5
3
100
AcDbSymbolTable
70
1
0
STYLE
5
11
100
AcDbSymbolTableRecord
100
AcDbTextStyleTableRecord
2
STANDARD
70
0
0
ENDTAB
0
TABLE
2
VIEW
5
6
100
AcDbSymbolTable
70
0
0
ENDTAB
0
TABLE
2
UCS
5
7
100
AcDbSymbolTable
70
0
0
ENDTAB
0
TABLE
2
APPID
5
9
100
AcDbSymbolTable
70
2
0
APPID
5
12
100
AcDbSymbolTableRecord
100
AcDbRegAppTableRecord
2
ACAD
70
0
0
ENDTAB
0
TABLE
2
DIMSTYLE
5
A
100
AcDbSymbolTable
70
1
0
ENDTAB
0
TABLE
2
BLOCK_RECORD
5
1
100
AcDbSymbolTable
70
1
0
BLOCK_RECORD
5
1F
100
AcDbSymbolTableRecord
100
AcDbBlockTableRecord
2
*MODEL_SPACE
0
BLOCK_RECORD
5
1B
100
AcDbSymbolTableRecord
100
AcDbBlockTableRecord
2
*PAPER_SPACE
0
ENDTAB
0
ENDSEC
0
SECTION
2
BLOCKS
0
BLOCK
5
20
100
AcDbEntity
100
AcDbBlockBegin
2
*MODEL_SPACE
0
ENDBLK
5
21
100
AcDbEntity
100
AcDbBlockEnd
0
BLOCK
5
1C
100
AcDbEntity
100
AcDbBlockBegin
2
*PAPER_SPACE
0
ENDBLK
5
1D
100
AcDbEntity
100
AcDbBlockEnd
0
ENDSEC
0
SECTION
2
ENTITIES
0
LWPOLYLINE
5
100
100
AcDbEntity
8
0
100
AcDbPolyline
90
21
70
1
43
0.0
10
27.177106401743011
20
-8.4065480250673819
10
27.17710640174306
20
21.581709257593435
10
12.177106401743089
20
47.562471371126769
10
15.19870579273654
20
49.306992592900052
10
17.680950512748893
20
45.003684732621721
10
20.019144234157263
20
46.354279934565596
10
17.536971620526334
20
50.656990998011381
10
20.837360439587506
20
52.562471371126797
10
32.177106401743096
20
32.921455219749106
10
43.516852363898728
20
52.562471371126819
10
46.817241182959918
20
50.656990998011445
10
44.335068569328953
20
46.354279934565639
10
46.673262290737327
20
45.003684732621778
10
49.155507010749673
20
49.306992592900123
10
52.177106401743131
20
47.562471371126861
10
37.177106401743075
20
21.581709257593452
10
37.177106401743018
20
-8.4065480250673605
10
33.527106401743012
20
-8.4065480250673659
10
33.527106401743019
20
-3.4065480250673232
10
30.82710640174302
20
-3.4065480250673321
10
30.827106401743016
20
-8.4065480250673748
0
LWPOLYLINE
5
101
100
AcDbEntity
8
0
100
AcDbPolyline
90
21
70
1
43
0.0
10
-20.582408522125274
20
-9.6595290497762409
10
-20.58240852212522
20
20.328728232884515
10
-35.582408522125078
20
46.30949034641786
10
-32.560809131131656
20
48.054011568191122
10
-30.078564411119324
20
43.750703707912791
10
-27.740370689710957
20
45.101298909856659
10
-30.222543303341872
20
49.404009973302436
10
-26.922154484280721
20
51.309490346417832
10
-15.582408522125224
20
31.668474195040154
10
-4.2426625599696663
20
51.309490346417775
10
-0.9422737409085038
20
49.404009973302394
10
-3.4244463545394428
20
45.101298909856609
10
-1.0862526331310927
20
43.750703707912741
10
1.3959920868812521
20
48.054011568191058
10
4.4175914778746783
20
46.309490346417789
10
-10.582408522125279
20
20.328728232884494
10
-10.582408522125341
20
-9.6595290497762569
10
-14.232408522125318
20
-9.6595290497762498
10
-14.232408522125308
20
-4.6595290497762187
10
-16.932408522125289
20
-4.6595290497762143
10
-16.932408522125296
20
-9.6595290497762463
0
LWPOLYLINE
5
102
100
AcDbEntity
8
0
100
AcDbPolyline
90
21
70
1
43
0.0
10
-63.86906136775287
20
-12.453495002228241
10
-63.86906136775287
20
17.534762280432474
10
-78.86906136775292
20
43.515524393965762
10
-75.847461976759462
20
45.260045615739031
10
-73.365217256747101
20
40.956737755460708
10
-71.027023535338728
20
42.307332957404569
10
-73.509196148969679
20
46.610044020850353
10
-70.208807329908481
20
48.515524393965741
10
-58.869061367752849
20
28.874508242588107
10
-47.529315405597231
20
48.51552439396572
10
-44.228926586536033
20
46.610044020850324
10
-46.711099200166984
20
42.307332957404562
10
-44.372905478758611
20
40.956737755460686
10
-41.89066075874625
20
45.260045615739003
10
-38.869061367752799
20
43.515524393965741
10
-53.869061367752835
20
17.534762280432467
10
-53.869061367752842
20
-12.453495002228248
10
-57.519061367752855
20
-12.453495002228248
10
-57.519061367752855
20
-7.4534950022282196
10
-60.219061367752857
20
-7.453495002228216
10
-60.219061367752857
20
-12.453495002228243
0
LINE
5
103
100
AcDbEntity
8
0
100
AcDbLine
10
-85.205273607552655
20
-37.621129975399093
30
0
11
-85.205273607552655
21
-32.6211299753991
31
0
0
LINE
5
104
100
AcDbEntity
8
0
100
AcDbLine
10
-85.205273607552655
20
-32.6211299753991
30
0
11
-82.505273607552652
21
-32.621129975399093
31
0
0
LINE
5
105
100
AcDbEntity
8
0
100
AcDbLine
10
-82.505273607552652
20
-32.621129975399093
30
0
11
-82.505273607552652
21
-37.621129975399086
31
0
0
LINE
5
106
100
AcDbEntity
8
0
100
AcDbLine
10
-82.505273607552652
20
-37.621129975399086
30
0
11
-80.949070358287386
21
-37.621129975399079
31
0
0
SPLINE
5
107
100
AcDbEntity
8
0
100
AcDbSpline
70
1064
71
5
72
21
73
15
74
0
42
0.000000001
43
0.0000000001
44
0.0000000001
40
0
40
0
40
0
40
0
40
0
40
0
40
0.10000000000000001
40
0.20000000000000001
40
0.30000000000000004
40
0.40000000000000002
40
0.5
40
0.59999999999999998
40
0.69999999999999996
40
0.79999999999999993
40
0.89999999999999991
40
1
40
1
40
1
40
1
40
1
40
1
10
-80.949070358287386
20
-37.621129975399079
30
0
10
-81.069264050301939
20
-38.14172036420927
30
0
10
-81.268979643725487
20
-39.201061271655682
30
0
10
-81.446538626840933
20
-40.844552052864799
30
0
10
-81.435118720598012
20
-43.14555961395736
30
0
10
-80.982616561151843
20
-46.209767025578984
30
0
10
-80.064503918296765
20
-49.467726177428744
30
0
10
-78.666264749694136
20
-52.921357212972573
30
0
10
-76.811570154521206
20
-56.56040834562225
30
0
10
-74.542936835718706
20
-60.369385663512638
30
0
10
-71.905211250287891
20
-64.333227495218651
30
0
10
-69.529631676235098
20
-67.618954357926128
30
0
10
-67.60931995777392
20
-70.14480770925428
30
0
10
-66.268527193283489
20
-71.855848943956261
30
0
10
-65.582984018720538
20
-72.718154578991374
30
0
0
SPLINE
5
108
100
AcDbEntity
8
0
100
AcDbSpline
70
1064
71
5
72
21
73
15
74
0
42
0.000000001
43
0.0000000001
44
0.0000000001
40
-1
40
-1
40
-1
40
-1
40
-1
40
-1
40
-0.89999999999999991
40
-0.79999999999999993
40
-0.69999999999999996
40
-0.59999999999999998
40
-0.5
40
-0.40000000000000002
40
-0.30000000000000004
40
-0.20000000000000001
40
-0.10000000000000001
40
0
40
0
40
0
40
0
40
0
40
0
10
-65.582984018720538
20
-72.718154578991374
30
0
10
-65.570280166498009
20
-71.475243372641543
30
0
10
-65.568957983497612
20
-69.017975356292979
30
0
10
-65.639227187631889
20
-65.417731251503795
30
0
10
-65.878178946186338
20
-60.791400672187436
30
0
10
-66.427922413093626
20
-55.318466505074795
30
0
10
-67.245758615228539
20
-50.186382612793849
30
0
10
-68.354330119158973
20
-45.429861303021738
30
0
10
-69.777855430702459
20
-41.079044394996664
30
0
10
-71.530828689864236
20
-37.139658775295267
30
0
10
-73.614461883948806
20
-33.588322392425709
30
0
10
-75.545441553519282
20
-31.034637738215181
30
0
10
-77.142350466924711
20
-29.270288700048948
30
0
10
-78.273250271385592
20
-28.159879467209812
30
0
10
-78.855273607552633
20
-27.621129975399086
30
0
0
LINE
5
109
100
AcDbEntity
8
0
100
AcDbLine
10
-78.855273607552633
20
-27.621129975399082
30
0
11
-78.855273607552633
21
-25.121129975399089
31
0
0
LINE
5
110
100
AcDbEntity
8
0
100
AcDbLine
10
-78.855273607552633
20
-25.121129975399089
30
0
11
-86.855273607552647
21
-25.121129975399118
31
0
0
LINE
5
111
100
AcDbEntity
8
0
100
AcDbLine
10
-86.855273607552647
20
-25.121129975399118
30
0
11
-86.855273607552647
21
-24.121129975399114
31
0
0
LINE
5
112
100
AcDbEntity
8
0
100
AcDbLine
10
-86.855273607552647
20
-24.121129975399114
30
0
11
-78.855273607552647
21
-24.121129975399093
31
0
0
LINE
5
113
100
AcDbEntity
8
0
100
AcDbLine
10
-78.855273607552647
20
-24.121129975399093
30
0
11
-78.855273607552633
21
-19.1211299753991
31
0
0
LINE
5
114
100
AcDbEntity
8
0
100
AcDbLine
10
-78.855273607552633
20
-19.1211299753991
30
0
11
-86.855273607552618
21
-19.121129975399121
31
0
0
LINE
5
115
100
AcDbEntity
8
0
100
AcDbLine
10
-86.855273607552618
20
-19.121129975399121
30
0
11
-86.855273607552618
21
-18.121129975399125
31
0
0
LINE
5
116
100
AcDbEntity
8
0
100
AcDbLine
10
-86.855273607552618
20
-18.121129975399125
30
0
11
-78.855273607552633
21
-18.1211299753991
31
0
0
LINE
5
117
100
AcDbEntity
8
0
100
AcDbLine
10
-78.855273607552633
20
-18.1211299753991
30
0
11
-78.855273607552633
21
-13.121129975399109
31
0
0
LINE
5
118
100
AcDbEntity
8
0
100
AcDbLine
10
-78.855273607552633
20
-13.121129975399109
30
0
11
-86.855273607552618
21
-13.121129975399132
31
0
0
LINE
5
119
100
AcDbEntity
8
0
100
AcDbLine
10
-86.855273607552618
20
-13.121129975399132
30
0
11
-86.855273607552618
21
-12.121129975399134
31
0
0
LINE
5
120
100
AcDbEntity
8
0
100
AcDbLine
10
-86.855273607552618
20
-12.121129975399134
30
0
11
-78.855273607552633
21
-12.121129975399107
31
0
0
LINE
5
121
100
AcDbEntity
8
0
100
AcDbLine
10
-78.855273607552633
20
-12.121129975399107
30
0
11
-78.855273607552633
21
-7.121129975399116
31
0
0
LINE
5
122
100
AcDbEntity
8
0
100
AcDbLine
10
-78.855273607552633
20
-7.121129975399116
30
0
11
-86.855273607552618
21
-7.1211299753991391
31
0
0
LINE
5
123
100
AcDbEntity
8
0
100
AcDbLine
10
-86.855273607552618
20
-7.1211299753991391
30
0
11
-86.855273607552618
21
-6.1211299753991391
31
0
0
LINE
5
124
100
AcDbEntity
8
0
100
AcDbLine
10
-86.855273607552618
20
-6.1211299753991391
30
0
11
-78.855273607552633
21
-6.1211299753991142
31
0
0
LINE
5
125
100
AcDbEntity
8
0
100
AcDbLine
10
-78.855273607552633
20
-6.1211299753991142
30
0
11
-78.855273607552604
21
7.3788700246008707
31
0
0
LINE
5
126
100
AcDbEntity
8
0
100
AcDbLine
10
-78.855273607552604
20
7.3788700246008707
30
0
11
-82.505273607552624
21
7.3788700246008592
31
0
0
LINE
5
127
100
AcDbEntity
8
0
100
AcDbLine
10
-82.505273607552624
20
7.3788700246008592
30
0
11
-82.505273607552624
21
2.3788700246008649
31
0
0
LINE
5
128
100
AcDbEntity
8
0
100
AcDbLine
10
-82.505273607552624
20
2.3788700246008649
30
0
11
-85.205273607552613
21
2.3788700246008561
31
0
0
LINE
5
129
100
AcDbEntity
8
0
100
AcDbLine
10
-85.205273607552613
20
2.3788700246008561
30
0
11
-85.205273607552613
21
7.3788700246008503
31
0
0
LINE
5
130
100
AcDbEntity
8
0
100
AcDbLine
10
-85.205273607552613
20
7.3788700246008503
30
0
11
-88.855273607552618
21
7.3788700246008414
31
0
0
LINE
5
131
100
AcDbEntity
8
0
100
AcDbLine
10
-88.855273607552618
20
7.3788700246008414
30
0
11
-88.855273607552633
21
-9.1211299753991444
31
0
0
LINE
5
132
100
AcDbEntity
8
0
100
AcDbLine
10
-88.855273607552633
20
-9.1211299753991444
30
0
11
-80.855273607552618
21
-9.1211299753991195
31
0
0
LINE
5
133
100
AcDbEntity
8
0
100
AcDbLine
10
-80.855273607552618
20
-9.1211299753991195
30
0
11
-80.855273607552633
21
-10.12112997539912
31
0
0
LINE
5
134
100
AcDbEntity
8
0
100
AcDbLine
10
-80.855273607552633
20
-10.12112997539912
30
0
11
-88.855273607552633
21
-10.121129975399143
31
0
0
LINE
5
135
100
AcDbEntity
8
0
100
AcDbLine
10
-88.855273607552633
20
-10.121129975399143
30
0
11
-88.855273607552618
21
-15.121129975399137
31
0
0
LINE
5
136
100
AcDbEntity
8
0
100
AcDbLine
10
-88.855273607552618
20
-15.121129975399137
30
0
11
-80.855273607552633
21
-15.121129975399114
31
0
0
LINE
5
137
100
AcDbEntity
8
0
100
AcDbLine
10
-80.855273607552633
20
-15.121129975399114
30
0
11
-80.855273607552647
21
-16.121129975399111
31
0
0
LINE
5
138
100
AcDbEntity
8
0
100
AcDbLine
10
-80.855273607552647
20
-16.121129975399111
30
0
11
-88.855273607552647
21
-16.121129975399139
31
0
0
LINE
5
139
100
AcDbEntity
8
0
100
AcDbLine
10
-88.855273607552647
20
-16.121129975399139
30
0
11
-88.855273607552633
21
-21.121129975399128
31
0
0
LINE
5
140
100
AcDbEntity
8
0
100
AcDbLine
10
-88.855273607552633
20
-21.121129975399128
30
0
11
-80.855273607552647
21
-21.121129975399104
31
0
0
LINE
5
141
100
AcDbEntity
8
0
100
AcDbLine
10
-80.855273607552647
20
-21.121129975399104
30
0
11
-80.855273607552647
21
-22.1211299753991
31
0
0
LINE
5
142
100
AcDbEntity
8
0
100
AcDbLine
10
-80.855273607552647
20
-22.1211299753991
30
0
11
-88.855273607552647
21
-22.121129975399128
31
0
0
LINE
5
143
100
AcDbEntity
8
0
100
AcDbLine
10
-88.855273607552647
20
-22.121129975399128
30
0
11
-88.855273607552647
21
-27.621129975399121
31
0
0
SPLINE
5
144
100
AcDbEntity
8
0
100
AcDbSpline
70
1064
71
5
72
21
73
15
74
0
42
0.000000001
43
0.0000000001
44
0.0000000001
40
0
40
0
40
0
40
0
40
0
40
0
40
0.10000000000000001
40
0.20000000000000001
40
0.30000000000000004
40
0.40000000000000002
40
0.5
40
0.59999999999999998
40
0.69999999999999996
40
0.79999999999999993
40
0.89999999999999991
40
1
40
1
40
1
40
1
40
1
40
1
10
-88.855273607552647
20
-27.621129975399118
30
0
10
-89.437296943719701
20
-28.159879467209848
30
0
10
-90.568196748180583
20
-29.270288700048987
30
0
10
-92.165105661586011
20
-31.034637738215235
30
0
10
-94.096085331156473
20
-33.588322392425766
30
0
10
-96.179718525241071
20
-37.139658775295345
30
0
10
-97.932691784402849
20
-41.079044394996757
30
0
10
-99.356217095946349
20
-45.429861303021831
30
0
10
-100.46478859987678
20
-50.186382612793949
30
0
10
-101.28262480201171
20
-55.318466505074902
30
0
10
-101.83236826891901
20
-60.79140067218755
30
0
10
-102.07132002747346
20
-65.417731251503909
30
0
10
-102.14158923160774
20
-69.017975356293107
30
0
10
-102.14026704860736
20
-71.475243372641657
30
0
10
-102.12756319638484
20
-72.718154578991488
30
0
0
SPLINE
5
145
100
AcDbEntity
8
0
100
AcDbSpline
70
1064
71
5
72
21
73
15
74
0
42
0.000000001
43
0.0000000001
44
0.0000000001
40
-1
40
-1
40
-1
40
-1
40
-1
40
-1
40
-0.89999999999999991
40
-0.79999999999999993
40
-0.69999999999999996
40
-0.59999999999999998
40
-0.5
40
-0.40000000000000002
40
-0.30000000000000004
40
-0.20000000000000001
40
-0.10000000000000001
40
0
40
0
40
0
40
0
40
0
40
0
10
-102.12756319638484
20
-72.718154578991488
30
0
10
-101.44202002182186
20
-71.85584894395636
30
0
10
-100.10122725733143
20
-70.14480770925438
30
0
10
-98.180915538870266
20
-67.618954357926228
30
0
10
-95.805335964817459
20
-64.333227495218736
30
0
10
-93.167610379386645
20
-60.369385663512702
30
0
10
-90.898977060584144
20
-56.560408345622292
30
0
10
-89.044282465411186
20
-52.921357212972602
30
0
10
-87.646043296808571
20
-49.467726177428773
30
0
10
-86.727930653953479
20
-46.209767025579005
30
0
10
-86.275428494507338
20
-43.145559613957374
30
0
10
-86.264008588264403
20
-40.844552052864813
30
0
10
-86.441567571379807
20
-39.201061271655703
30
0
10
-86.641283164803369
20
-38.141720364209291
30
0
10
-86.761476856817922
20
-37.6211299753991
30
0
0
LINE
5
146
100
AcDbEntity
8
0
100
AcDbLine
10
-86.76147685681795
20
-37.6211299753991
30
0
11
-85.205273607552655
21
-37.621129975399093
31
0
0
LINE
5
147
100
AcDbEntity
8
0
100
AcDbLine
10
-41.419469830459946
20
-31.464354947405596
30
0
11
-41.419469830459946
21
-26.464354947405596
31
0
0
LINE
5
148
100
AcDbEntity
8
0
100
AcDbLine
10
-41.419469830459946
20
-26.464354947405596
30
0
11
-38.71946983045995
21
-26.464354947405596
31
0
0
LINE
5
149
100
AcDbEntity
8
0
100
AcDbLine
10
-38.71946983045995
20
-26.464354947405596
30
0
11
-38.71946983045995
21
-31.464354947405596
31
0
0
LINE
5
150
100
AcDbEntity
8
0
100
AcDbLine
10
-38.71946983045995
20
-31.464354947405596
30
0
11
-37.163266581194677
21
-31.464354947405596
31
0
0
SPLINE
5
151
100
AcDbEntity
8
0
100
AcDbSpline
70
1064
71
5
72
21
73
15
74
0
42
0.000000001
43
0.0000000001
44
0.0000000001
40
0
40
0
40
0
40
0
40
0
40
0
40
0.10000000000000001
40
0.20000000000000001
40
0.30000000000000004
40
0.40000000000000002
40
0.5
40
0.59999999999999998
40
0.69999999999999996
40
0.79999999999999993
40
0.89999999999999991
40
1
40
1
40
1
40
1
40
1
40
1
10
-37.163266581194677
20
-31.464354947405596
30
0
10
-37.283460273209229
20
-31.984945336215787
30
0
10
-37.483175866632777
20
-33.044286243662199
30
0
10
-37.660734849748216
20
-34.687777024871316
30
0
10
-37.649314943505281
20
-36.988784585963877
30
0
10
-37.196812784059134
20
-40.052991997585522
30
0
10
-36.278700141204048
20
-43.310951149435283
30
0
10
-34.880460972601419
20
-46.764582184979119
30
0
10
-33.025766377428489
20
-50.403633317628795
30
0
10
-30.757133058625978
20
-54.212610635519205
30
0
10
-28.119407473195164
20
-58.176452467225232
30
0
10
-25.743827899142371
20
-61.462179329932731
30
0
10
-23.823516180681192
20
-63.988032681260876
30
0
10
-22.482723416190762
20
-65.699073915962856
30
0
10
-21.797180241627814
20
-66.56137955099797
30
0
0
SPLINE
5
152
100
AcDbEntity
8
0
100
AcDbSpline
70
1064
71
5
72
21
73
15
74
0
42
0.000000001
43
0.0000000001
44
0.0000000001
40
-1
40
-1
40
-1
40
-1
40
-1
40
-1
40
-0.89999999999999991
40
-0.79999999999999993
40
-0.69999999999999996
40
-0.59999999999999998
40
-0.5
40
-0.40000000000000002
40
-0.30000000000000004
40
-0.20000000000000001
40
-0.10000000000000001
40
0
40
0
40
0
40
0
40
0
40
0
10
-21.797180241627814
20
-66.56137955099797
30
0
10
-21.784476389405274
20
-65.318468344648139
30
0
10
-21.783154206404891
20
-62.861200328299589
30
0
10
-21.853423410539161
20
-59.260956223510391
30
0
10
-22.092375169093614
20
-54.634625644194024
30
0
10
-22.642118636000916
20
-49.161691477081384
30
0
10
-23.459954838135832
20
-44.029607584800416
30
0
10
-24.568526342066264
20
-39.273086275028305
30
0
10
-25.99205165360976
20
-34.922269367003217
30
0
10
-27.745024912771541
20
-30.982883747301813
30
0
10
-29.828658106856114
20
-27.431547364432237
30
0
10
-31.75963777642659
20
-24.877862710221702
30
0
10
-33.35654668983203
20
-23.113513672055465
30
0
10
-34.487446494292904
20
-22.003104439216322
30
0
10
-35.069469830459951
20
-21.464354947405596
30
0
0
LINE
5
153
100
AcDbEntity
8
0
100
AcDbLine
10
-35.069469830459951
20
-21.464354947405589
30
0
11
-35.069469830459951
21
-18.964354947405596
31
0
0
LINE
5
154
100
AcDbEntity
8
0
100
AcDbLine
10
-35.069469830459951
20
-18.964354947405596
30
0
11
-43.069469830459951
21
-18.964354947405596
31
0
0
LINE
5
155
100
AcDbEntity
8
0
100
AcDbLine
10
-43.069469830459951
20
-18.964354947405596
30
0
11
-43.069469830459951
21
-17.964354947405596
31
0
0
LINE
5
156
100
AcDbEntity
8
0
100
AcDbLine
10
-43.069469830459951
20
-17.964354947405596
30
0
11
-35.069469830459951
21
-17.964354947405596
31
0
0
LINE
5
157
100
AcDbEntity
8
0
100
AcDbLine
10
-35.069469830459951
20
-17.964354947405596
30
0
11
-35.069469830459951
21
-12.964354947405596
31
0
0
LINE
5
158
100
AcDbEntity
8
0
100
AcDbLine
10
-35.069469830459951
20
-12.964354947405596
30
0
11
-43.069469830459951
21
-12.964354947405596
31
0
0
LINE
5
159
100
AcDbEntity
8
0
100
AcDbLine
10
-43.069469830459951
20
-12.964354947405596
30
0
11
-43.069469830459951
21
-11.964354947405598
31
0
0
LINE
5
160
100
AcDbEntity
8
0
100
AcDbLine
10
-43.069469830459951
20
-11.964354947405598
30
0
11
-35.069469830459951
21
-11.964354947405598
31
0
0
LINE
5
161
100
AcDbEntity
8
0
100
AcDbLine
10
-35.069469830459951
20
-11.964354947405598
30
0
11
-35.069469830459951
21
-6.9643549474055977
31
0
0
LINE
5
162
100
AcDbEntity
8
0
100
AcDbLine
10
-35.069469830459951
20
-6.9643549474055977
30
0
11
-43.069469830459951
21
-6.9643549474055977
31
0
0
LINE
5
163
100
AcDbEntity
8
0
100
AcDbLine
10
-43.069469830459951
20
-6.9643549474055977
30
0
11
-43.069469830459951
21
-5.9643549474055968
31
0
0
LINE
5
164
100
AcDbEntity
8
0
100
AcDbLine
10
-43.069469830459951
20
-5.9643549474055968
30
0
11
-35.069469830459951
21
-5.9643549474055968
31
0
0
LINE
5
165
100
AcDbEntity
8
0
100
AcDbLine
10
-35.069469830459951
20
-5.9643549474055968
30
0
11
-35.069469830459951
21
-0.9643549474055968
31
0
0
LINE
5
166
100
AcDbEntity
8
0
100
AcDbLine
10
-35.069469830459951
20
-0.9643549474055968
30
0
11
-43.069469830459951
21
-0.96435494740559702
31
0
0
LINE
5
167
100
AcDbEntity
8
0
100
AcDbLine
10
-43.069469830459951
20
-0.96435494740559702
30
0
11
-43.069469830459951
21
0.035645052594403814
31
0
0
LINE
5
168
100
AcDbEntity
8
0
100
AcDbLine
10
-43.069469830459951
20
0.035645052594403814
30
0
11
-35.069469830459951
21
0.035645052594403953
31
0
0
LINE
5
169
100
AcDbEntity
8
0
100
AcDbLine
10
-35.069469830459951
20
0.035645052594403953
30
0
11
-35.069469830459951
21
13.535645052594404
31
0
0
LINE
5
170
100
AcDbEntity
8
0
100
AcDbLine
10
-35.069469830459951
20
13.535645052594404
30
0
11
-38.71946983045995
21
13.535645052594404
31
0
0
LINE
5
171
100
AcDbEntity
8
0
100
AcDbLine
10
-38.71946983045995
20
13.535645052594404
30
0
11
-38.71946983045995
21
8.5356450525944041
31
0
0
LINE
5
172
100
AcDbEntity
8
0
100
AcDbLine
10
-38.71946983045995
20
8.5356450525944041
30
0
11
-41.419469830459946
21
8.5356450525944041
31
0
0
LINE
5
173
100
AcDbEntity
8
0
100
AcDbLine
10
-41.419469830459946
20
8.5356450525944041
30
0
11
-41.419469830459946
21
13.535645052594404
31
0
0
LINE
5
174
100
AcDbEntity
8
0
100
AcDbLine
10
-41.419469830459946
20
13.535645052594404
30
0
11
-45.069469830459951
21
13.535645052594404
31
0
0
LINE
5
175
100
AcDbEntity
8
0
100
AcDbLine
10
-45.069469830459951
20
13.535645052594404
30
0
11
-45.069469830459951
21
-2.9643549474055986
31
0
0
LINE
5
176
100
AcDbEntity
8
0
100
AcDbLine
10
-45.069469830459951
20
-2.9643549474055986
30
0
11
-37.069469830459951
21
-2.9643549474055986
31
0
0
LINE
5
177
100
AcDbEntity
8
0
100
AcDbLine
10
-37.069469830459951
20
-2.9643549474055986
30
0
11
-37.069469830459951
21
-3.9643549474055995
31
0
0
LINE
5
178
100
AcDbEntity
8
0
100
AcDbLine
10
-37.069469830459951
20
-3.9643549474055995
30
0
11
-45.069469830459951
21
-3.9643549474055995
31
0
0
LINE
5
179
100
AcDbEntity
8
0
100
AcDbLine
10
-45.069469830459951
20
-3.9643549474055995
30
0
11
-45.069469830459951
21
-8.9643549474055995
31
0
0
LINE
5
180
100
AcDbEntity
8
0
100
AcDbLine
10
-45.069469830459951
20
-8.9643549474055995
30
0
11
-37.069469830459951
21
-8.9643549474055995
31
0
0
LINE
5
181
100
AcDbEntity
8
0
100
AcDbLine
10
-37.069469830459951
20
-8.9643549474055995
30
0
11
-37.069469830459951
21
-9.9643549474055995
31
0
0
LINE
5
182
100
AcDbEntity
8
0
100
AcDbLine
10
-37.069469830459951
20
-9.9643549474055995
30
0
11
-45.069469830459951
21
-9.9643549474055995
31
0
0
LINE
5
183
100
AcDbEntity
8
0
100
AcDbLine
10
-45.069469830459951
20
-9.9643549474055995
30
0
11
-45.069469830459951
21
-14.964354947405596
31
0
0
LINE
5
184
100
AcDbEntity
8
0
100
AcDbLine
10
-45.069469830459951
20
-14.964354947405596
30
0
11
-37.069469830459951
21
-14.964354947405596
31
0
0
LINE
5
185
100
AcDbEntity
8
0
100
AcDbLine
10
-37.069469830459951
20
-14.964354947405596
30
0
11
-37.069469830459951
21
-15.964354947405596
31
0
0
LINE
5
186
100
AcDbEntity
8
0
100
AcDbLine
10
-37.069469830459951
20
-15.964354947405596
30
0
11
-45.069469830459951
21
-15.964354947405596
31
0
0
LINE
5
187
100
AcDbEntity
8
0
100
AcDbLine
10
-45.069469830459951
20
-15.964354947405596
30
0
11
-45.069469830459951
21
-21.464354947405596
31
0
0
SPLINE
5
188
100
AcDbEntity
8
0
100
AcDbSpline
70
1064
71
5
72
21
73
15
74
0
42
0.000000001
43
0.0000000001
44
0.0000000001
40
0
40
0
40
0
40
0
40
0
40
0
40
0.10000000000000001
40
0.20000000000000001
40
0.30000000000000004
40
0.40000000000000002
40
0.5
40
0.59999999999999998
40
0.69999999999999996
40
0.79999999999999993
40
0.89999999999999991
40
1
40
1
40
1
40
1
40
1
40
1
10
-45.069469830459951
20
-21.464354947405596
30
0
10
-45.651493166626992
20
-22.003104439216322
30
0
10
-46.782392971087873
20
-23.113513672055465
30
0
10
-48.379301884493309
20
-24.877862710221702
30
0
10
-50.310281554063785
20
-27.431547364432237
30
0
10
-52.393914748148362
20
-30.982883747301813
30
0
10
-54.146888007310139
20
-34.922269367003217
30
0
10
-55.570413318853639
20
-39.273086275028305
30
0
10
-56.678984822784066
20
-44.029607584800416
30
0
10
-57.496821024918987
20
-49.161691477081384
30
0
10
-58.046564491826288
20
-54.634625644194024
30
0
10
-58.285516250380738
20
-59.260956223510391
30
0
10
-58.355785454515008
20
-62.861200328299589
30
0
10
-58.354463271514625
20
-65.318468344648139
30
0
10
-58.341759419292089
20
-66.56137955099797
30
0
0
SPLINE
5
189
100
AcDbEntity
8
0
100
AcDbSpline
70
1064
71
5
72
21
73
15
74
0
42
0.000000001
43
0.0000000001
44
0.0000000001
40
-1
40
-1
40
-1
40
-1
40
-1
40
-1
40
-0.89999999999999991
40
-0.79999999999999993
40
-0.69999999999999996
40
-0.59999999999999998
40
-0.5
40
-0.40000000000000002
40
-0.30000000000000004
40
-0.20000000000000001
40
-0.10000000000000001
40
0
40
0
40
0
40
0
40
0
40
0
10
-58.341759419292089
20
-66.56137955099797
30
0
10
-57.656216244729137
20
-65.699073915962856
30
0
10
-56.315423480238707
20
-63.988032681260876
30
0
10
-54.395111761777528
20
-61.462179329932731
30
0
10
-52.019532187724735
20
-58.176452467225232
30
0
10
-49.381806602293921
20
-54.212610635519205
30
0
10
-47.113173283491406
20
-50.403633317628795
30
0
10
-45.258478688318476
20
-46.764582184979119
30
0
10
-43.860239519715847
20
-43.310951149435283
30
0
10
-42.942126876860769
20
-40.052991997585522
30
0
10
-42.489624717414614
20
-36.988784585963877
30
0
10
-42.478204811171679
20
-34.687777024871316
30
0
10
-42.655763794287118
20
-33.044286243662199
30
0
10
-42.855479387710673
20
-31.984945336215787
30
0
10
-42.975673079725219
20
-31.464354947405596
30
0
0
LINE
5
190
100
AcDbEntity
8
0
100
AcDbLine
10
-42.975673079725212
20
-31.464354947405596
30
0
11
-41.419469830459946
21
-31.464354947405596
31
0
0
LINE
5
191
100
AcDbEntity
8
0
100
AcDbLine
10
11.123494702051104
20
-33.561217455404844
30
0
11
11.123494702051097
21
-28.561217455404844
31
0
0
LINE
5
192
100
AcDbEntity
8
0
100
AcDbLine
10
11.123494702051097
20
-28.561217455404844
30
0
11
13.823494702051093
21
-28.561217455404844
31
0
0
LINE
5
193
100
AcDbEntity
8
0
100
AcDbLine
10
13.823494702051093
20
-28.561217455404844
30
0
11
13.823494702051098
21
-33.561217455404844
31
0
0
LINE
5
194
100
AcDbEntity
8
0
100
AcDbLine
10
13.823494702051098
20
-33.561217455404844
30
0
11
15.379697951316373
21
-33.561217455404844
31
0
0
SPLINE
5
195
100
AcDbEntity
8
0
100
AcDbSpline
70
1064
71
5
72
21
73
15
74
0
42
0.000000001
43
0.0000000001
44
0.0000000001
40
0
40
0
40
0
40
0
40
0
40
0
40
0.10000000000000001
40
0.20000000000000001
40
0.30000000000000004
40
0.40000000000000002
40
0.5
40
0.59999999999999998
40
0.69999999999999996
40
0.79999999999999993
40
0.89999999999999991
40
1
40
1
40
1
40
1
40
1
40
1
10
15.379697951316382
20
-33.561217455404844
30
0
10
15.259504259301835
20
-34.081807844215035
30
0
10
15.059788665878289
20
-35.141148751661447
30
0
10
14.882229682762853
20
-36.784639532870557
30
0
10
14.893649589005786
20
-39.085647093963118
30
0
10
15.346151748451948
20
-42.149854505584763
30
0
10
16.26426439130703
20
-45.407813657434524
30
0
10
17.662503559909666
20
-48.86144469297836
30
0
10
19.517198155082596
20
-52.500495825628022
30
0
10
21.785831473885118
20
-56.309473143518431
30
0
10
24.423557059315939
20
-60.273314975224459
30
0
10
26.799136633368732
20
-63.559041837931957
30
0
10
28.719448351829932
20
-66.084895189260095
30
0
10
30.060241116320363
20
-67.795936423962075
30
0
10
30.745784290883307
20
-68.658242058997189
30
0
0
SPLINE
5
196
100
AcDbEntity
8
0
100
AcDbSpline
70
1064
71
5
72
21
73
15
74
0
42
0.000000001
43
0.0000000001
44
0.0000000001
40
-1
40
-1
40
-1
40
-1
40
-1
40
-1
40
-0.89999999999999991
40
-0.79999999999999993
40
-0.69999999999999996
40
-0.59999999999999998
40
-0.5
40
-0.40000000000000002
40
-0.30000000000000004
40
-0.20000000000000001
40
-0.10000000000000001
40
0
40
0
40
0
40
0
40
0
40
0
10
30.745784290883307
20
-68.658242058997189
30
0
10
30.758488143105851
20
-67.415330852647358
30
0
10
30.759810326106223
20
-64.958062836298808
30
0
10
30.689541121971953
20
-61.35781873150961
30
0
10
30.450589363417492
20
-56.731488152193243
30
0
10
29.900845896510184
20
-51.25855398508061
30
0
10
29.083009694375257
20
-46.12647009279965
30
0
10
27.974438190444822
20
-41.369948783027539
30
0
10
26.550912878901308
20
-37.019131875002451
30
0
10
24.79793961973952
20
-33.079746255301053
30
0
10
22.714306425654947
20
-29.528409872431478
30
0
10
20.783326756084463
20
-26.974725218220946
30
0
10
19.18641784267902
20
-25.210376180054716
30
0
10
18.055518038218146
20
-24.09996694721557
30
0
10
17.473494702051102
20
-23.561217455404844
30
0
0
LINE
5
197
100
AcDbEntity
8
0
100
AcDbLine
10
17.473494702051106
20
-23.56121745540484
30
0
11
17.473494702051099
21
-21.061217455404847
31
0
0
LINE
5
198
100
AcDbEntity
8
0
100
AcDbLine
10
17.473494702051099
20
-21.061217455404847
30
0
11
9.4734947020510898
21
-21.061217455404847
31
0
0
LINE
5
199
100
AcDbEntity
8
0
100
AcDbLine
10
9.4734947020510898
20
-21.061217455404847
30
0
11
9.4734947020510845
21
-20.061217455404851
31
0
0
LINE
5
200
100
AcDbEntity
8
0
100
AcDbLine
10
9.4734947020510845
20
-20.061217455404851
30
0
11
17.473494702051088
21
-20.061217455404847
31
0
0
LINE
5
201
100
AcDbEntity
8
0
100
AcDbLine
10
17.473494702051088
20
-20.061217455404847
30
0
11
17.473494702051088
21
-15.061217455404849
31
0
0
LINE
5
202
100
AcDbEntity
8
0
100
AcDbLine
10
17.473494702051088
20
-15.061217455404849
30
0
11
9.4734947020510809
21
-15.061217455404854
31
0
0
LINE
5
203
100
AcDbEntity
8
0
100
AcDbLine
10
9.4734947020510809
20
-15.061217455404854
30
0
11
9.4734947020510756
21
-14.061217455404854
31
0
0
LINE
5
204
100
AcDbEntity
8
0
100
AcDbLine
10
9.4734947020510756
20
-14.061217455404854
30
0
11
17.473494702051081
21
-14.061217455404849
31
0
0
LINE
5
205
100
AcDbEntity
8
0
100
AcDbLine
10
17.473494702051081
20
-14.061217455404849
30
0
11
17.473494702051077
21
-9.0612174554048508
31
0
0
LINE
5
206
100
AcDbEntity
8
0
100
AcDbLine
10
17.473494702051077
20
-9.0612174554048508
30
0
11
9.473494702051072
21
-9.0612174554048597
31
0
0
LINE
5
207
100
AcDbEntity
8
0
100
AcDbLine
10
9.473494702051072
20
-9.0612174554048597
30
0
11
9.4734947020510667
21
-8.0612174554048579
31
0
0
LINE
5
208
100
AcDbEntity
8
0
100
AcDbLine
10
9.4734947020510667
20
-8.0612174554048579
30
0
11
17.47349470205107
21
-8.0612174554048508
31
0
0
LINE
5
209
100
AcDbEntity
8
0
100
AcDbLine
10
17.47349470205107
20
-8.0612174554048508
30
0
11
17.47349470205107
21
-3.0612174554048543
31
0
0
LINE
5
210
100
AcDbEntity
8
0
100
AcDbLine
10
17.47349470205107
20
-3.0612174554048543
30
0
11
9.4734947020510631
21
-3.0612174554048606
31
0
0
LINE
5
211
100
AcDbEntity
8
0
100
AcDbLine
10
9.4734947020510631
20
-3.0612174554048606
30
0
11
9.4734947020510578
21
-2.0612174554048606
31
0
0
LINE
5
212
100
AcDbEntity
8
0
100
AcDbLine
10
9.4734947020510578
20
-2.0612174554048606
30
0
11
17.473494702051063
21
-2.0612174554048543
31
0
0
LINE
5
213
100
AcDbEntity
8
0
100
AcDbLine
10
17.473494702051063
20
-2.0612174554048543
30
0
11
17.473494702051045
21
11.43878254459514
31
0
0
LINE
5
214
100
AcDbEntity
8
0
100
AcDbLine
10
17.473494702051045
20
11.43878254459514
30
0
11
13.823494702051045
21
11.438782544595139
31
0
0
LINE
5
215
100
AcDbEntity
8
0
100
AcDbLine
10
13.823494702051045
20
11.438782544595139
30
0
11
13.823494702051045
21
6.4387825445951385
31
0
0
LINE
5
216
100
AcDbEntity
8
0
100
AcDbLine
10
13.823494702051045
20
6.4387825445951385
30
0
11
11.123494702051049
21
6.4387825445951385
31
0
0
LINE
5
217
100
AcDbEntity
8
0
100
AcDbLine
10
11.123494702051049
20
6.4387825445951385
30
0
11
11.123494702051044
21
11.438782544595137
31
0
0
LINE
5
218
100
AcDbEntity
8
0
100
AcDbLine
10
11.123494702051044
20
11.438782544595137
30
0
11
7.4734947020510383
21
11.438782544595131
31
0
0
LINE
5
219
100
AcDbEntity
8
0
100
AcDbLine
10
7.4734947020510383
20
11.438782544595131
30
0
11
7.4734947020510631
21
-5.061217455404865
31
0
0
LINE
5
220
100
AcDbEntity
8
0
100
AcDbLine
10
7.4734947020510631
20
-5.061217455404865
30
0
11
15.47349470205107
21
-5.061217455404857
31
0
0
LINE
5
221
100
AcDbEntity
8
0
100
AcDbLine
10
15.47349470205107
20
-5.061217455404857
30
0
11
15.473494702051076
21
-6.0612174554048579
31
0
0
LINE
5
222
100
AcDbEntity
8
0
100
AcDbLine
10
15.473494702051076
20
-6.0612174554048579
30
0
11
7.4734947020510702
21
-6.0612174554048632
31
0
0
LINE
5
223
100
AcDbEntity
8
0
100
AcDbLine
10
7.4734947020510702
20
-6.0612174554048632
30
0
11
7.4734947020510747
21
-11.061217455404861
31
0
0
LINE
5
224
100
AcDbEntity
8
0
100
AcDbLine
10
7.4734947020510747
20
-11.061217455404861
30
0
11
15.473494702051077
21
-11.061217455404854
31
0
0
LINE
5
225
100
AcDbEntity
8
0
100
AcDbLine
10
15.473494702051077
20
-11.061217455404854
30
0
11
15.473494702051084
21
-12.061217455404856
31
0
0
LINE
5
226
100
AcDbEntity
8
0
100
AcDbLine
10
15.473494702051084
20
-12.061217455404856
30
0
11
7.4734947020510791
21
-12.061217455404861
31
0
0
LINE
5
227
100
AcDbEntity
8
0
100
AcDbLine
10
7.4734947020510791
20
-12.061217455404861
30
0
11
7.4734947020510827
21
-17.061217455404854
31
0
0
LINE
5
228
100
AcDbEntity
8
0
100
AcDbLine
10
7.4734947020510827
20
-17.061217455404854
30
0
11
15.473494702051088
21
-17.061217455404851
31
0
0
LINE
5
229
100
AcDbEntity
8
0
100
AcDbLine
10
15.473494702051088
20
-17.061217455404851
30
0
11
15.473494702051093
21
-18.061217455404851
31
0
0
LINE
5
230
100
AcDbEntity
8
0
100
AcDbLine
10
15.473494702051093
20
-18.061217455404851
30
0
11
7.473494702051088
21
-18.061217455404858
31
0
0
LINE
5
231
100
AcDbEntity
8
0
100
AcDbLine
10
7.473494702051088
20
-18.061217455404858
30
0
11
7.4734947020510925
21
-23.561217455404851
31
0
0
SPLINE
5
232
100
AcDbEntity
8
0
100
AcDbSpline
70
1064
71
5
72
21
73
15
74
0
42
0.000000001
43
0.0000000001
44
0.0000000001
40
0
40
0
40
0
40
0
40
0
40
0
40
0.10000000000000001
40
0.20000000000000001
40
0.30000000000000004
40
0.40000000000000002
40
0.5
40
0.59999999999999998
40
0.69999999999999996
40
0.79999999999999993
40
0.89999999999999991
40
1
40
1
40
1
40
1
40
1
40
1
10
7.4734947020510933
20
-23.561217455404851
30
0
10
6.8914713658840387
20
-24.099966947215581
30
0
10
5.760571561423169
20
-25.210376180054723
30
0
10
4.1636626480177386
20
-26.974725218220961
30
0
10
2.2326829784472579
20
-29.528409872431496
30
0
10
0.14904978436269367
20
-33.079746255301067
30
0
10
-1.6039234747990871
20
-37.019131875002472
30
0
10
-3.0274487863425792
20
-41.369948783027553
30
0
10
-4.136020290272997
20
-46.126470092799671
30
0
10
-4.9538564924079154
20
-51.258553985080638
30
0
10
-5.5035999593152019
20
-56.731488152193279
30
0
10
-5.7425517178696506
20
-61.357818731509646
30
0
10
-5.8128209220039162
20
-64.958062836298836
30
0
10
-5.8114987390035289
20
-67.415330852647401
30
0
10
-5.7987948867809846
20
-68.658242058997232
30
0
0
SPLINE
5
233
100
AcDbEntity
8
0
100
AcDbSpline
70
1064
71
5
72
21
73
15
74
0
42
0.000000001
43
0.0000000001
44
0.0000000001
40
-1
40
-1
40
-1
40
-1
40
-1
40
-1
40
-0.89999999999999991
40
-0.79999999999999993
40
-0.69999999999999996
40
-0.59999999999999998
40
-0.5
40
-0.40000000000000002
40
-0.30000000000000004
40
-0.20000000000000001
40
-0.10000000000000001
40
0
40
0
40
0
40
0
40
0
40
0
10
-5.7987948867809846
20
-68.658242058997232
30
0
10
-5.113251712218041
20
-67.795936423962104
30
0
10
-3.7724589477276149
20
-66.084895189260124
30
0
10
-1.8521472292664365
20
-63.559041837931971
30
0
10
0.52343234478634759
20
-60.273314975224473
30
0
10
3.1611579302171622
20
-56.309473143518446
30
0
10
5.4297912490196687
20
-52.500495825628036
30
0
10
7.2844858441925986
20
-48.86144469297836
30
0
10
8.6827250127952205
20
-45.407813657434524
30
0
10
9.6008376556503006
20
-42.149854505584763
30
0
10
10.053339815096445
20
-39.085647093963118
30
0
10
10.064759721339378
20
-36.784639532870557
30
0
10
9.8872007382239424
20
-35.141148751661447
30
0
10
9.6874851448003785
20
-34.081807844215042
30
0
10
9.567291452785831
20
-33.561217455404851
30
0
0
LINE
5
234
100
AcDbEntity
8
0
100
AcDbLine
10
9.5672914527858328
20
-33.561217455404851
30
0
11
11.123494702051104
21
-33.561217455404844
31
0
0
ENDSEC
0
SECTION
2
OBJECTS
0
DICTIONARY
5
C
100
AcDbDictionary
3
ACAD_GROUP
350
D
3
ACAD_MLINESTYLE
350
17
0
DICTIONARY
5
D
100
AcDbDictionary
0
DICTIONARY
5
1A
330
C
100
AcDbDictionary
0
DICTIONARY
5
17
100
AcDbDictionary
0
ENDSEC
0
EOF
