0
SECTION
2
HEADER
9
$INSUNITS
70
4
9
$ACADVER
1
AC1014
9
$HANDSEED
5
FFFF
0
ENDSEC
0
SECTION
2
TABLES
0
TABLE
2
VPORT
5
8
100
AcDbSymbolTable
0
ENDTAB
0
TABLE
2
LTYPE
5
5
100
AcDbSymbolTable
0
LTYPE
5
14
100
AcDbSymbolTableRecord
100
AcDbLinetypeTableRecord
2
BYBLOCK
70
0
0
LTYPE
5
15
100
AcDbSymbolTableRecord
100
AcDbLinetypeTableRecord
2
BYLAYER
70
0
0
ENDTAB
0
TABLE
2
LAYER
5
2
100
AcDbSymbolTable
70
2
0
LAYER
5
50
100
AcDbSymbolTableRecord
100
AcDbLayerTableRecord
2
0
70
0
6
CONTINUOUS
0
ENDTAB
0
TABLE
2
STYLE
5
3
100
AcDbSymbolTable
70
1
0
STYLE
5
11
100
AcDbSymbolTableRecord
100
AcDbTextStyleTableRecord
2
STANDARD
70
0
0
ENDTAB
0
TABLE
2
VIEW
5
6
100
AcDbSymbolTable
70
0
0
ENDTAB
0
TABLE
2
UCS
5
7
100
AcDbSymbolTable
70
0
0
ENDTAB
0
TABLE
2
APPID
5
9
100
AcDbSymbolTable
70
2
0
APPID
5
12
100
AcDbSymbolTableRecord
100
AcDbRegAppTableRecord
2
ACAD
70
0
0
ENDTAB
0
TABLE
2
DIMSTYLE
5
A
100
AcDbSymbolTable
70
1
0
ENDTAB
0
TABLE
2
BLOCK_RECORD
5
1
100
AcDbSymbolTable
70
1
0
BLOCK_RECORD
5
1F
100
AcDbSymbolTableRecord
100
AcDbBlockTableRecord
2
*MODEL_SPACE
0
BLOCK_RECORD
5
1B
100
AcDbSymbolTableRecord
100
AcDbBlockTableRecord
2
*PAPER_SPACE
0
ENDTAB
0
ENDSEC
0
SECTION
2
BLOCKS
0
BLOCK
5
20
100
AcDbEntity
100
AcDbBlockBegin
2
*MODEL_SPACE
0
ENDBLK
5
21
100
AcDbEntity
100
AcDbBlockEnd
0
BLOCK
5
1C
100
AcDbEntity
100
AcDbBlockBegin
2
*PAPER_SPACE
0
ENDBLK
5
1D
100
AcDbEntity
100
AcDbBlockEnd
0
ENDSEC
0
SECTION
2
ENTITIES
0
LWPOLYLINE
5
100
100
AcDbEntity
8
0
100
AcDbPolyline
90
6
70
1
43
0.0
10
275
20
92.707045735475901
42
-0.4142135623730947
10
207.2929542645241
20
25.000000000000007
10
25
20
25
10
25.000000000000053
20
407.2929542645241
42
-0.41421356237309515
10
92.707045735475972
20
475
10
275
20
475
0
LWPOLYLINE
5
101
100
AcDbEntity
8
0
100
AcDbPolyline
90
66
70
1
43
0.0
10
5.2000000000000242
20
325
10
5.2000000000000846
20
407.2929542645241
42
-0.41421356237309515
10
92.707045735475972
20
494.79999999999995
10
107.70704573547596
20
494.79999999999995
10
107.70704573547596
20
500
10
122.70704573547596
20
500
10
122.70704573547596
20
494.79999999999995
10
137.70704573547596
20
494.79999999999995
10
137.70704573547596
20
500
10
152.70704573547596
20
500
10
152.70704573547596
20
494.79999999999995
10
167.70704573547596
20
494.79999999999995
10
167.70704573547596
20
500
10
182.70704573547596
20
500
10
182.70704573547596
20
494.79999999999995
10
197.70704573547596
20
494.79999999999995
10
197.70704573547596
20
500
10
212.70704573547596
20
500
10
212.70704573547596
20
494.79999999999995
10
227.70704573547596
20
494.79999999999995
10
227.70704573547596
20
500
10
242.70704573547596
20
500
10
242.70704573547596
20
494.79999999999995
10
294.80000000000001
20
494.79999999999995
10
294.80000000000001
20
92.707045735475901
42
-0.41421356237309476
10
207.2929542645241
20
5.1999999999999957
10
192.2929542645241
20
5.2000000000000002
10
192.2929542645241
20
0
10
177.2929542645241
20
0
10
177.2929542645241
20
5.2000000000000002
10
162.2929542645241
20
5.2000000000000002
10
162.2929542645241
20
0
10
147.2929542645241
20
0
10
147.2929542645241
20
5.2000000000000002
10
132.2929542645241
20
5.2000000000000002
10
132.2929542645241
20
0
10
117.2929542645241
20
0
10
117.2929542645241
20
5.2000000000000002
10
102.2929542645241
20
5.2000000000000002
10
102.2929542645241
20
0
10
87.292954264524099
20
0
10
87.292954264524099
20
5.2000000000000002
10
72.292954264524099
20
5.2000000000000002
10
72.292954264524099
20
0
10
57.292954264524099
20
0
10
57.292954264524099
20
5.2000000000000002
10
5.1999999999999957
20
5.2000000000000313
10
5.2000000000000144
20
190
10
1.4432899320127035e-14
20
190
10
1.5543122344752192e-14
20
205
10
5.2000000000000153
20
205
10
5.2000000000000171
20
220
10
1.6653345369377348e-14
20
220
10
1.7763568394002505e-14
20
235
10
5.2000000000000179
20
235
10
5.2000000000000188
20
250
10
1.8873791418627661e-14
20
250
10
1.9984014443252818e-14
20
265
10
5.2000000000000206
20
265
10
5.2000000000000215
20
280
10
2.1094237467877974e-14
20
280
10
2.2204460492503131e-14
20
295
10
5.2000000000000224
20
295
10
5.2000000000000233
20
310
10
2.3314683517128287e-14
20
310
10
2.4424906541753444e-14
20
325
0
LWPOLYLINE
5
102
100
AcDbEntity
8
0
100
AcDbPolyline
90
66
70
1
43
0.0
10
2.4424906541753444e-14
20
325
10
5.2000000000000242
20
325
10
5.2000000000000846
20
407.2929542645241
42
-0.41421356237309553
10
92.707045735475972
20
494.79999999999995
10
107.70704573547597
20
494.79999999999995
10
107.70704573547597
20
500
10
122.70704573547597
20
500
10
122.70704573547597
20
494.79999999999995
10
137.70704573547596
20
494.79999999999995
10
137.70704573547596
20
500
10
152.70704573547596
20
500
10
152.70704573547596
20
494.79999999999995
10
167.70704573547596
20
494.79999999999995
10
167.70704573547596
20
500
10
182.70704573547596
20
500
10
182.70704573547596
20
494.79999999999995
10
197.70704573547596
20
494.79999999999995
10
197.70704573547596
20
500
10
212.70704573547596
20
500
10
212.70704573547596
20
494.79999999999995
10
227.70704573547596
20
494.79999999999995
10
227.70704573547596
20
500
10
242.70704573547596
20
500
10
242.70704573547596
20
494.79999999999995
10
294.80000000000001
20
494.79999999999995
10
294.79999999999995
20
92.707045735475901
42
-0.41421356237309481
10
207.2929542645241
20
5.2000000000000002
10
192.2929542645241
20
5.2000000000000002
10
192.2929542645241
20
0
10
177.2929542645241
20
0
10
177.2929542645241
20
5.2000000000000002
10
162.2929542645241
20
5.2000000000000002
10
162.2929542645241
20
0
10
147.2929542645241
20
0
10
147.2929542645241
20
5.2000000000000002
10
132.2929542645241
20
5.2000000000000002
10
132.2929542645241
20
0
10
117.2929542645241
20
0
10
117.2929542645241
20
5.2000000000000002
10
102.2929542645241
20
5.2000000000000002
10
102.2929542645241
20
0
10
87.292954264524099
20
0
10
87.292954264524099
20
5.2000000000000002
10
72.292954264524099
20
5.2000000000000002
10
72.292954264524099
20
0
10
57.292954264524099
20
0
10
57.292954264524099
20
5.2000000000000002
10
5.2000000000000011
20
5.2000000000000313
10
5.2000000000000144
20
190
10
1.4432899320127035e-14
20
190
10
1.5543122344752192e-14
20
205
10
5.2000000000000153
20
205
10
5.2000000000000171
20
220
10
1.6653345369377348e-14
20
220
10
1.7763568394002505e-14
20
235
10
5.2000000000000179
20
235
10
5.2000000000000188
20
250
10
1.8873791418627661e-14
20
250
10
1.9984014443252818e-14
20
265
10
5.2000000000000206
20
265
10
5.2000000000000215
20
280
10
2.1094237467877974e-14
20
280
10
2.2204460492503131e-14
20
295
10
5.2000000000000224
20
295
10
5.2000000000000233
20
310
10
2.3314683517128287e-14
20
310
0
LWPOLYLINE
5
103
100
AcDbEntity
8
0
100
AcDbPolyline
90
6
70
1
43
0.0
10
275
20
92.707045735475901
10
275
20
475
10
92.707045735475972
20
475
42
0.41421356237309576
10
25.000000000000053
20
407.2929542645241
10
25
20
25
10
207.2929542645241
20
25
42
0.41421356237309476
0
LINE
5
104
100
AcDbEntity
8
0
100
AcDbLine
10
294.80000000000001
20
309.99999999999994
30
0
11
300
21
309.99999999999994
31
0
0
LINE
5
105
100
AcDbEntity
8
0
100
AcDbLine
10
300
20
309.99999999999994
30
0
11
300
21
295.00000000000006
31
0
0
LINE
5
106
100
AcDbEntity
8
0
100
AcDbLine
10
300
20
295.00000000000006
30
0
11
294.80000000000001
21
295.00000000000006
31
0
0
LINE
5
107
100
AcDbEntity
8
0
100
AcDbLine
10
294.80000000000001
20
295.00000000000006
30
0
11
294.80000000000001
21
280.00000000000006
31
0
0
LINE
5
108
100
AcDbEntity
8
0
100
AcDbLine
10
294.80000000000001
20
279.99999999999994
30
0
11
300
21
279.99999999999994
31
0
0
LINE
5
109
100
AcDbEntity
8
0
100
AcDbLine
10
300
20
279.99999999999994
30
0
11
300
21
265.00000000000006
31
0
0
LINE
5
110
100
AcDbEntity
8
0
100
AcDbLine
10
300
20
265.00000000000006
30
0
11
294.80000000000001
21
265.00000000000006
31
0
0
LINE
5
111
100
AcDbEntity
8
0
100
AcDbLine
10
294.80000000000001
20
265.00000000000006
30
0
11
294.80000000000001
21
250.00000000000003
31
0
0
LINE
5
112
100
AcDbEntity
8
0
100
AcDbLine
10
294.80000000000001
20
249.99999999999997
30
0
11
300
21
249.99999999999997
31
0
0
LINE
5
113
100
AcDbEntity
8
0
100
AcDbLine
10
300
20
249.99999999999997
30
0
11
300
21
235.00000000000003
31
0
0
LINE
5
114
100
AcDbEntity
8
0
100
AcDbLine
10
300
20
235.00000000000003
30
0
11
294.80000000000001
21
235.00000000000003
31
0
0
LINE
5
115
100
AcDbEntity
8
0
100
AcDbLine
10
294.80000000000001
20
235.00000000000003
30
0
11
294.80000000000001
21
220.00000000000003
31
0
0
LINE
5
116
100
AcDbEntity
8
0
100
AcDbLine
10
294.80000000000001
20
219.99999999999997
30
0
11
300
21
219.99999999999997
31
0
0
LINE
5
117
100
AcDbEntity
8
0
100
AcDbLine
10
300
20
219.99999999999997
30
0
11
300
21
205.00000000000003
31
0
0
LINE
5
118
100
AcDbEntity
8
0
100
AcDbLine
10
300
20
205.00000000000003
30
0
11
294.80000000000001
21
205.00000000000003
31
0
0
LINE
5
119
100
AcDbEntity
8
0
100
AcDbLine
10
294.80000000000001
20
205.00000000000003
30
0
11
294.80000000000001
21
190.00000000000003
31
0
0
LINE
5
120
100
AcDbEntity
8
0
100
AcDbLine
10
294.80000000000001
20
189.99999999999997
30
0
11
300
21
189.99999999999997
31
0
0
LINE
5
121
100
AcDbEntity
8
0
100
AcDbLine
10
300
20
189.99999999999997
30
0
11
300
21
175.00000000000003
31
0
0
LINE
5
122
100
AcDbEntity
8
0
100
AcDbLine
10
300
20
175.00000000000003
30
0
11
294.80000000000001
21
175.00000000000003
31
0
0
LINE
5
123
100
AcDbEntity
8
0
100
AcDbLine
10
294.80000000000001
20
175.00000000000003
30
0
11
294.80000000000001
21
160.00000000000003
31
0
0
ENDSEC
0
SECTION
2
OBJECTS
0
DICTIONARY
5
C
100
AcDbDictionary
3
ACAD_GROUP
350
D
3
ACAD_MLINESTYLE
350
17
0
DICTIONARY
5
D
100
AcDbDictionary
0
DICTIONARY
5
1A
330
C
100
AcDbDictionary
0
DICTIONARY
5
17
100
AcDbDictionary
0
ENDSEC
0
EOF
