0
SECTION
2
HEADER
9
$INSUNITS
70
4
9
$ACADVER
1
AC1014
9
$HANDSEED
5
FFFF
0
ENDSEC
0
SECTION
2
TABLES
0
TABLE
2
VPORT
5
8
100
AcDbSymbolTable
0
ENDTAB
0
TABLE
2
LTYPE
5
5
100
AcDbSymbolTable
0
LTYPE
5
14
100
AcDbSymbolTableRecord
100
AcDbLinetypeTableRecord
2
BYBLOCK
70
0
0
LTYPE
5
15
100
AcDbSymbolTableRecord
100
AcDbLinetypeTableRecord
2
BYLAYER
70
0
0
ENDTAB
0
TABLE
2
LAYER
5
2
100
AcDbSymbolTable
70
2
0
LAYER
5
50
100
AcDbSymbolTableRecord
100
AcDbLayerTableRecord
2
0
70
0
6
CONTINUOUS
0
ENDTAB
0
TABLE
2
STYLE
5
3
100
AcDbSymbolTable
70
1
0
STYLE
5
11
100
AcDbSymbolTableRecord
100
AcDbTextStyleTableRecord
2
STANDARD
70
0
0
ENDTAB
0
TABLE
2
VIEW
5
6
100
AcDbSymbolTable
70
0
0
ENDTAB
0
TABLE
2
UCS
5
7
100
AcDbSymbolTable
70
0
0
ENDTAB
0
TABLE
2
APPID
5
9
100
AcDbSymbolTable
70
2
0
APPID
5
12
100
AcDbSymbolTableRecord
100
AcDbRegAppTableRecord
2
ACAD
70
0
0
ENDTAB
0
TABLE
2
DIMSTYLE
5
A
100
AcDbSymbolTable
70
1
0
ENDTAB
0
TABLE
2
BLOCK_RECORD
5
1
100
AcDbSymbolTable
70
1
0
BLOCK_RECORD
5
1F
100
AcDbSymbolTableRecord
100
AcDbBlockTableRecord
2
*MODEL_SPACE
0
BLOCK_RECORD
5
1B
100
AcDbSymbolTableRecord
100
AcDbBlockTableRecord
2
*PAPER_SPACE
0
ENDTAB
0
ENDSEC
0
SECTION
2
BLOCKS
0
BLOCK
5
20
100
AcDbEntity
100
AcDbBlockBegin
2
*MODEL_SPACE
0
ENDBLK
5
21
100
AcDbEntity
100
AcDbBlockEnd
0
BLOCK
5
1C
100
AcDbEntity
100
AcDbBlockBegin
2
*PAPER_SPACE
0
ENDBLK
5
1D
100
AcDbEntity
100
AcDbBlockEnd
0
ENDSEC
0
SECTION
2
ENTITIES
0
LWPOLYLINE
5
100
100
AcDbEntity
8
0
100
AcDbPolyline
90
112
70
1
43
0.0
10
-4348.5999992489824
20
-1303.3647625836493
42
-2.414213562373289
10
-4353.5999992489815
20
-1298.3647625836493
10
-4353.5999992489815
20
-1158.36476258365
42
-2.414213562373289
10
-4348.5999992489815
20
-1153.3647625836493
10
-4335.5999992489815
20
-1153.3647625836493
10
-4335.5999992489815
20
-1053.3647625836493
10
-4348.5999992489824
20
-1053.3647625836493
42
-2.414213562373289
10
-4353.5999992489815
20
-1048.3647625836493
10
-4353.5999992489815
20
-908.1999462842947
42
-2.414213562373289
10
-4348.5999992489815
20
-903.19994628429413
10
-4335.5999992489815
20
-903.19994628429413
10
-4335.5999992489815
20
-803.19994628429413
10
-4348.5999992489824
20
-803.19994628429413
42
-2.414213562373289
10
-4353.5999992489815
20
-798.19994628429413
10
-4353.5999992489815
20
-753.19994628429413
10
-4553.5999992489815
20
-753.19994628429413
10
-4553.5999992489815
20
-798.19994628429356
42
-2.414213562373289
10
-4558.5999992489815
20
-803.19994628429413
10
-4571.5999992489815
20
-803.19994628429413
10
-4571.5999992489815
20
-903.19994628429413
10
-4558.5999992489806
20
-903.19994628429413
42
-2.414213562373289
10
-4553.5999992489815
20
-908.19994628429413
10
-4553.5999992489815
20
-1048.3647625836488
42
-2.414213562373289
10
-4558.5999992489815
20
-1053.3647625836493
10
-4571.5999992489815
20
-1053.3647625836493
10
-4571.5999992489815
20
-1153.3647625836493
10
-4558.5999992489806
20
-1153.3647625836493
42
-2.414213562373289
10
-4553.5999992489815
20
-1158.3647625836493
10
-4553.5999992489815
20
-1298.3647625836488
42
-2.414213562373289
10
-4558.5999992489815
20
-1303.3647625836493
10
-4571.5999992489815
20
-1303.3647625836493
10
-4571.5999992489815
20
-1403.3647625836493
10
-4558.5999992489806
20
-1403.3647625836493
42
-2.414213562373289
10
-4553.5999992489815
20
-1408.3647625836493
10
-4553.5999992489815
20
-1482.3928620694085
10
-4508.5999992489815
20
-1482.3928620694085
10
-4508.5999992489815
20
-1483.3928620694082
10
-4553.5999992489815
20
-1483.3928620694082
10
-4553.5999992489815
20
-1522.3928620694085
10
-4508.5999992489815
20
-1522.3928620694085
10
-4508.5999992489815
20
-1523.3928620694082
10
-4553.5999992489815
20
-1523.3928620694082
10
-4553.5999992489815
20
-1562.3928620694085
10
-4508.5999992489815
20
-1562.3928620694085
10
-4508.5999992489815
20
-1563.3928620694082
10
-4553.5999992489815
20
-1563.3928620694082
10
-4553.5999992489815
20
-1602.3928620694085
10
-4508.5999992489815
20
-1602.3928620694085
10
-4508.5999992489815
20
-1603.3928620694082
10
-4553.5999992489815
20
-1603.3928620694082
10
-4553.5999992489815
20
-1642.3928620694085
10
-4508.5999992489815
20
-1642.3928620694085
10
-4508.5999992489815
20
-1643.3928620694082
10
-4553.5999992489815
20
-1643.3928620694082
10
-4553.5999992489815
20
-1682.3928620694085
10
-4508.5999992489815
20
-1682.3928620694085
10
-4508.5999992489815
20
-1683.3928620694082
10
-4553.5999992489815
20
-1683.3928620694082
10
-4553.5999992489815
20
-1895.8997572812575
42
-2.414213562373289
10
-4558.5999992489815
20
-1900.8997572812582
10
-4571.5999992489815
20
-1900.8997572812582
10
-4571.5999992489815
20
-2000.8997572812582
10
-4558.5999992489806
20
-2000.8997572812582
42
-2.414213562373289
10
-4553.5999992489815
20
-2005.8997572812582
10
-4553.5999992489815
20
-2145.8997572812577
42
-2.414213562373289
10
-4558.5999992489815
20
-2150.8997572812582
10
-4571.5999992489815
20
-2150.8997572812582
10
-4571.5999992489815
20
-2250.8997572812582
10
-4558.5999992489806
20
-2250.8997572812582
42
-2.414213562373289
10
-4553.5999992489815
20
-2255.8997572812582
10
-4553.5999992489815
20
-2303.1999462842941
10
-4353.5999992489815
20
-2303.1999462842941
10
-4353.5999992489815
20
-2255.8997572812586
42
-2.414213562373289
10
-4348.5999992489815
20
-2250.8997572812582
10
-4335.5999992489815
20
-2250.8997572812582
10
-4335.5999992489815
20
-2150.8997572812582
10
-4348.5999992489824
20
-2150.8997572812582
42
-2.414213562373289
10
-4353.5999992489815
20
-2145.8997572812582
10
-4353.5999992489815
20
-2005.8997572812586
42
-2.414213562373289
10
-4348.5999992489815
20
-2000.8997572812582
10
-4335.5999992489815
20
-2000.8997572812582
10
-4335.5999992489815
20
-1900.8997572812582
10
-4348.5999992489824
20
-1900.8997572812582
42
-2.414213562373289
10
-4353.5999992489815
20
-1895.8997572812582
10
-4353.5999992489815
20
-1684.3928620694078
10
-4398.5999992489815
20
-1684.3928620694078
10
-4398.5999992489815
20
-1683.3928620694082
10
-4353.5999992489815
20
-1683.3928620694082
10
-4353.5999992489815
20
-1644.3928620694078
10
-4398.5999992489815
20
-1644.3928620694078
10
-4398.5999992489815
20
-1643.3928620694082
10
-4353.5999992489815
20
-1643.3928620694082
10
-4353.5999992489815
20
-1604.3928620694078
10
-4398.5999992489815
20
-1604.3928620694078
10
-4398.5999992489815
20
-1603.3928620694082
10
-4353.5999992489815
20
-1603.3928620694082
10
-4353.5999992489815
20
-1564.3928620694078
10
-4398.5999992489815
20
-1564.3928620694078
10
-4398.5999992489815
20
-1563.3928620694082
10
-4353.5999992489815
20
-1563.3928620694082
10
-4353.5999992489815
20
-1524.3928620694078
10
-4398.5999992489815
20
-1524.3928620694078
10
-4398.5999992489815
20
-1523.3928620694082
10
-4353.5999992489815
20
-1523.3928620694082
10
-4353.5999992489815
20
-1484.3928620694078
10
-4398.5999992489815
20
-1484.3928620694078
10
-4398.5999992489815
20
-1483.3928620694082
10
-4353.5999992489815
20
-1483.3928620694082
10
-4353.5999992489815
20
-1408.36476258365
42
-2.414213562373289
10
-4348.5999992489815
20
-1403.3647625836493
10
-4335.5999992489815
20
-1403.3647625836493
10
-4335.5999992489815
20
-1303.3647625836493
0
CIRCLE
5
101
100
AcDbEntity
8
0
100
AcDbCircle
10
-4453.5999992489815
20
-878.19994628429413
30
0
40
60
0
LWPOLYLINE
5
102
100
AcDbEntity
8
0
100
AcDbPolyline
90
4
70
1
43
0.0
10
-4373.5999992489815
20
-1623.3928620694082
10
-4443.5999992489815
20
-1623.3928620694082
10
-4443.5999992489815
20
-1624.3928620694078
10
-4373.5999992489815
20
-1624.3928620694078
0
LWPOLYLINE
5
103
100
AcDbEntity
8
0
100
AcDbPolyline
90
4
70
1
43
0.0
10
-4418.5999992489815
20
-1643.3928620694082
10
-4488.5999992489815
20
-1643.3928620694082
10
-4488.5999992489815
20
-1644.3928620694078
10
-4418.5999992489815
20
-1644.3928620694078
0
LWPOLYLINE
5
104
100
AcDbEntity
8
0
100
AcDbPolyline
90
4
70
1
43
0.0
10
-4373.5999992489815
20
-1703.1999462842941
10
-4443.5999992489815
20
-1703.1999462842941
10
-4443.5999992489815
20
-1704.1999462842944
10
-4373.5999992489815
20
-1704.1999462842944
0
LWPOLYLINE
5
105
100
AcDbEntity
8
0
100
AcDbPolyline
90
4
70
1
43
0.0
10
-4463.5999992489815
20
-1623.3928620694082
10
-4533.5999992489815
20
-1623.3928620694082
10
-4533.5999992489815
20
-1624.3928620694078
10
-4463.5999992489815
20
-1624.3928620694078
0
LWPOLYLINE
5
106
100
AcDbEntity
8
0
100
AcDbPolyline
90
4
70
1
43
0.0
10
-4463.5999992489815
20
-1583.3928620694082
10
-4533.5999992489815
20
-1583.3928620694082
10
-4533.5999992489815
20
-1584.3928620694078
10
-4463.5999992489815
20
-1584.3928620694078
0
LWPOLYLINE
5
107
100
AcDbEntity
8
0
100
AcDbPolyline
90
4
70
1
43
0.0
10
-4418.5999992489815
20
-1523.3928620694082
10
-4488.5999992489815
20
-1523.3928620694082
10
-4488.5999992489815
20
-1524.3928620694078
10
-4418.5999992489815
20
-1524.3928620694078
0
LWPOLYLINE
5
108
100
AcDbEntity
8
0
100
AcDbPolyline
90
4
70
1
43
0.0
10
-4418.5999992489815
20
-1563.3928620694082
10
-4488.5999992489815
20
-1563.3928620694082
10
-4488.5999992489815
20
-1564.3928620694078
10
-4418.5999992489815
20
-1564.3928620694078
0
LWPOLYLINE
5
109
100
AcDbEntity
8
0
100
AcDbPolyline
90
4
70
1
43
0.0
10
-4373.5999992489815
20
-1503.3928620694082
10
-4443.5999992489815
20
-1503.3928620694082
10
-4443.5999992489815
20
-1504.3928620694078
10
-4373.5999992489815
20
-1504.3928620694078
0
LWPOLYLINE
5
110
100
AcDbEntity
8
0
100
AcDbPolyline
90
4
70
1
43
0.0
10
-4418.5999992489815
20
-1603.3928620694082
10
-4488.5999992489815
20
-1603.3928620694082
10
-4488.5999992489815
20
-1604.3928620694078
10
-4418.5999992489815
20
-1604.3928620694078
0
LWPOLYLINE
5
111
100
AcDbEntity
8
0
100
AcDbPolyline
90
4
70
1
43
0.0
10
-4373.5999992489815
20
-1583.3928620694082
10
-4443.5999992489815
20
-1583.3928620694082
10
-4443.5999992489815
20
-1584.3928620694078
10
-4373.5999992489815
20
-1584.3928620694078
0
LWPOLYLINE
5
112
100
AcDbEntity
8
0
100
AcDbPolyline
90
4
70
1
43
0.0
10
-4418.5999992489815
20
-1683.3928620694082
10
-4488.5999992489815
20
-1683.3928620694082
10
-4488.5999992489815
20
-1684.3928620694078
10
-4418.5999992489815
20
-1684.3928620694078
0
LWPOLYLINE
5
113
100
AcDbEntity
8
0
100
AcDbPolyline
90
4
70
1
43
0.0
10
-4418.5999992489815
20
-1483.3928620694082
10
-4488.5999992489815
20
-1483.3928620694082
10
-4488.5999992489815
20
-1484.3928620694078
10
-4418.5999992489815
20
-1484.3928620694078
0
LWPOLYLINE
5
114
100
AcDbEntity
8
0
100
AcDbPolyline
90
4
70
1
43
0.0
10
-4463.5999992489815
20
-1543.3928620694082
10
-4533.5999992489815
20
-1543.3928620694082
10
-4533.5999992489815
20
-1544.3928620694078
10
-4463.5999992489815
20
-1544.3928620694078
0
LWPOLYLINE
5
115
100
AcDbEntity
8
0
100
AcDbPolyline
90
4
70
1
43
0.0
10
-4463.5999992489815
20
-1503.3928620694082
10
-4533.5999992489815
20
-1503.3928620694082
10
-4533.5999992489815
20
-1504.3928620694078
10
-4463.5999992489815
20
-1504.3928620694078
0
LWPOLYLINE
5
116
100
AcDbEntity
8
0
100
AcDbPolyline
90
4
70
1
43
0.0
10
-4463.5999992489815
20
-1703.3928620694082
10
-4533.5999992489815
20
-1703.3928620694082
10
-4533.5999992489815
20
-1704.3928620694078
10
-4463.5999992489815
20
-1704.3928620694078
0
LWPOLYLINE
5
117
100
AcDbEntity
8
0
100
AcDbPolyline
90
4
70
1
43
0.0
10
-4463.5999992489815
20
-1663.3928620694082
10
-4533.5999992489815
20
-1663.3928620694082
10
-4533.5999992489815
20
-1664.3928620694078
10
-4463.5999992489815
20
-1664.3928620694078
0
LWPOLYLINE
5
118
100
AcDbEntity
8
0
100
AcDbPolyline
90
4
70
1
43
0.0
10
-4373.5999992489815
20
-1543.3928620694082
10
-4443.5999992489815
20
-1543.3928620694082
10
-4443.5999992489815
20
-1544.3928620694078
10
-4373.5999992489815
20
-1544.3928620694078
0
LWPOLYLINE
5
119
100
AcDbEntity
8
0
100
AcDbPolyline
90
4
70
1
43
0.0
10
-4373.5999992489815
20
-1663.3928620694082
10
-4443.5999992489815
20
-1663.3928620694082
10
-4443.5999992489815
20
-1664.3928620694078
10
-4373.5999992489815
20
-1664.3928620694078
0
LINE
5
120
100
AcDbEntity
8
0
100
AcDbLine
10
-4138.5999992489815
20
-1683.3928620694082
30
0
11
-4138.5999992489815
21
-1684.3928620694078
31
0
0
LINE
5
121
100
AcDbEntity
8
0
100
AcDbLine
10
-4093.5999992489815
20
-1683.884603146596
30
0
11
-4138.5999992489815
21
-1683.892862069408
31
0
0
LINE
5
122
100
AcDbEntity
8
0
100
AcDbLine
10
-4248.5999992489815
20
-1683.3928620694082
30
0
11
-4248.5999992489815
21
-1682.3928620694085
31
0
0
LINE
5
123
100
AcDbEntity
8
0
100
AcDbLine
10
-4248.5999992489815
20
-1682.8928620694082
30
0
11
-4293.5999992489815
21
-1682.8928620694082
31
0
0
LINE
5
124
100
AcDbEntity
8
0
100
AcDbLine
10
-4248.5999992489815
20
-1642.8928620694082
30
0
11
-4293.5999992489815
21
-1642.8928620694082
31
0
0
LINE
5
125
100
AcDbEntity
8
0
100
AcDbLine
10
-4093.5999992489815
20
-1643.884603146596
30
0
11
-4138.5999992489815
21
-1643.892862069408
31
0
0
LINE
5
126
100
AcDbEntity
8
0
100
AcDbLine
10
-4248.5999992489815
20
-1602.8928620694082
30
0
11
-4293.5999992489815
21
-1602.8928620694082
31
0
0
LINE
5
127
100
AcDbEntity
8
0
100
AcDbLine
10
-4093.5999992489815
20
-1603.884603146596
30
0
11
-4138.5999992489815
21
-1603.892862069408
31
0
0
LINE
5
128
100
AcDbEntity
8
0
100
AcDbLine
10
-4248.5999992489815
20
-1562.8928620694082
30
0
11
-4293.5999992489815
21
-1562.8928620694082
31
0
0
LINE
5
129
100
AcDbEntity
8
0
100
AcDbLine
10
-4093.5999992489815
20
-1563.884603146596
30
0
11
-4138.5999992489815
21
-1563.892862069408
31
0
0
LINE
5
130
100
AcDbEntity
8
0
100
AcDbLine
10
-4248.5999992489815
20
-1522.8928620694082
30
0
11
-4293.5999992489815
21
-1522.8928620694082
31
0
0
LINE
5
131
100
AcDbEntity
8
0
100
AcDbLine
10
-4093.5999992489815
20
-1523.884603146596
30
0
11
-4138.5999992489815
21
-1523.892862069408
31
0
0
LINE
5
132
100
AcDbEntity
8
0
100
AcDbLine
10
-4248.5999992489815
20
-1482.8928620694082
30
0
11
-4293.5999992489815
21
-1482.8928620694082
31
0
0
LINE
5
133
100
AcDbEntity
8
0
100
AcDbLine
10
-4093.5999992489815
20
-1483.884603146596
30
0
11
-4138.5999992489815
21
-1483.892862069408
31
0
0
LINE
5
134
100
AcDbEntity
8
0
100
AcDbLine
10
-4353.5999992489815
20
-1683.884603146596
30
0
11
-4398.5999992489815
21
-1683.892862069408
31
0
0
LINE
5
135
100
AcDbEntity
8
0
100
AcDbLine
10
-4353.5999992489815
20
-1603.884603146596
30
0
11
-4398.5999992489815
21
-1603.892862069408
31
0
0
LINE
5
136
100
AcDbEntity
8
0
100
AcDbLine
10
-4508.5999992489815
20
-1602.8928620694082
30
0
11
-4553.5999992489815
21
-1602.8928620694082
31
0
0
LINE
5
137
100
AcDbEntity
8
0
100
AcDbLine
10
-4508.5999992489815
20
-1642.8928620694082
30
0
11
-4553.5999992489815
21
-1642.8928620694082
31
0
0
LINE
5
138
100
AcDbEntity
8
0
100
AcDbLine
10
-4508.5999992489815
20
-1682.8928620694082
30
0
11
-4553.5999992489815
21
-1682.8928620694082
31
0
0
LINE
5
139
100
AcDbEntity
8
0
100
AcDbLine
10
-4353.5999992489815
20
-1643.884603146596
30
0
11
-4398.5999992489815
21
-1643.892862069408
31
0
0
LINE
5
140
100
AcDbEntity
8
0
100
AcDbLine
10
-4508.5999992489815
20
-1562.8928620694082
30
0
11
-4553.5999992489815
21
-1562.8928620694082
31
0
0
LINE
5
141
100
AcDbEntity
8
0
100
AcDbLine
10
-4353.5999992489815
20
-1563.884603146596
30
0
11
-4398.5999992489815
21
-1563.892862069408
31
0
0
LINE
5
142
100
AcDbEntity
8
0
100
AcDbLine
10
-4353.5999992489815
20
-1483.884603146596
30
0
11
-4398.5999992489815
21
-1483.892862069408
31
0
0
LINE
5
143
100
AcDbEntity
8
0
100
AcDbLine
10
-4508.5999992489815
20
-1482.8928620694082
30
0
11
-4553.5999992489815
21
-1482.8928620694082
31
0
0
LINE
5
144
100
AcDbEntity
8
0
100
AcDbLine
10
-4508.5999992489815
20
-1522.8928620694082
30
0
11
-4553.5999992489815
21
-1522.8928620694082
31
0
0
LINE
5
145
100
AcDbEntity
8
0
100
AcDbLine
10
-4353.5999992489815
20
-1523.884603146596
30
0
11
-4398.5999992489815
21
-1523.892862069408
31
0
0
LINE
5
146
100
AcDbEntity
8
0
100
AcDbLine
10
-4613.5999992489815
20
-1663.884603146596
30
0
11
-4658.5999992489815
21
-1663.892862069408
31
0
0
LINE
5
147
100
AcDbEntity
8
0
100
AcDbLine
10
-4768.5999992489815
20
-1662.8928620694082
30
0
11
-4813.5999992489815
21
-1662.8928620694082
31
0
0
LINE
5
148
100
AcDbEntity
8
0
100
AcDbLine
10
-4613.5999992489815
20
-1703.884603146596
30
0
11
-4658.5999992489815
21
-1703.892862069408
31
0
0
LINE
5
149
100
AcDbEntity
8
0
100
AcDbLine
10
-4613.5999992489815
20
-1743.884603146596
30
0
11
-4658.5999992489815
21
-1743.892862069408
31
0
0
LINE
5
150
100
AcDbEntity
8
0
100
AcDbLine
10
-4768.5999992489815
20
-1742.8928620694082
30
0
11
-4813.5999992489815
21
-1742.8928620694082
31
0
0
LINE
5
151
100
AcDbEntity
8
0
100
AcDbLine
10
-4613.5999992489815
20
-1783.884603146596
30
0
11
-4658.5999992489815
21
-1783.892862069408
31
0
0
LINE
5
152
100
AcDbEntity
8
0
100
AcDbLine
10
-4613.5999992489815
20
-1583.884603146596
30
0
11
-4658.5999992489815
21
-1583.892862069408
31
0
0
LINE
5
153
100
AcDbEntity
8
0
100
AcDbLine
10
-4768.5999992489815
20
-1582.8928620694082
30
0
11
-4813.5999992489815
21
-1582.8928620694082
31
0
0
LINE
5
154
100
AcDbEntity
8
0
100
AcDbLine
10
-4768.5999992489815
20
-1782.8928620694082
30
0
11
-4813.5999992489815
21
-1782.8928620694082
31
0
0
LINE
5
155
100
AcDbEntity
8
0
100
AcDbLine
10
-4768.5999992489815
20
-1622.8928620694082
30
0
11
-4813.5999992489815
21
-1622.8928620694082
31
0
0
LINE
5
156
100
AcDbEntity
8
0
100
AcDbLine
10
-4768.5999992489815
20
-1702.8928620694082
30
0
11
-4813.5999992489815
21
-1702.8928620694082
31
0
0
LINE
5
157
100
AcDbEntity
8
0
100
AcDbLine
10
-4613.5999992489815
20
-1623.884603146596
30
0
11
-4658.5999992489815
21
-1623.892862069408
31
0
0
LINE
5
158
100
AcDbEntity
8
0
100
AcDbLine
10
-4502.5999992489797
20
-434.39286206940892
30
0
11
-4503.5999992489806
21
-434.39286206940892
31
0
0
LINE
5
159
100
AcDbEntity
8
0
100
AcDbLine
10
-4503.5999992489806
20
-479.39286206940892
30
0
11
-4503.5999992489806
21
-434.39286206940892
31
0
0
LINE
5
160
100
AcDbEntity
8
0
100
AcDbLine
10
-4503.0999992489806
20
-434.39286206940892
30
0
11
-4503.0999992489806
21
-479.39286206940892
31
0
0
LINE
5
161
100
AcDbEntity
8
0
100
AcDbLine
10
-4501.5999992489797
20
-324.39286206940892
30
0
11
-4502.5999992489797
21
-324.39286206940892
31
0
0
LINE
5
162
100
AcDbEntity
8
0
100
AcDbLine
10
-4502.0999992489797
20
-324.39286206940892
30
0
11
-4502.0999992489797
21
-279.39286206940892
31
0
0
LINE
5
163
100
AcDbEntity
8
0
100
AcDbLine
10
-4542.0999992489797
20
-324.39286206940892
30
0
11
-4542.0999992489797
21
-279.39286206940892
31
0
0
LINE
5
164
100
AcDbEntity
8
0
100
AcDbLine
10
-4543.0999992489806
20
-434.39286206940892
30
0
11
-4543.0999992489806
21
-479.39286206940892
31
0
0
LINE
5
165
100
AcDbEntity
8
0
100
AcDbLine
10
-4582.0999992489797
20
-324.39286206940892
30
0
11
-4582.0999992489797
21
-279.39286206940892
31
0
0
LINE
5
166
100
AcDbEntity
8
0
100
AcDbLine
10
-4583.0999992489806
20
-434.39286206940892
30
0
11
-4583.0999992489806
21
-479.39286206940892
31
0
0
LINE
5
167
100
AcDbEntity
8
0
100
AcDbLine
10
-4622.0999992489797
20
-324.39286206940892
30
0
11
-4622.0999992489797
21
-279.39286206940892
31
0
0
LINE
5
168
100
AcDbEntity
8
0
100
AcDbLine
10
-4623.0999992489806
20
-434.39286206940892
30
0
11
-4623.0999992489806
21
-479.39286206940892
31
0
0
LINE
5
169
100
AcDbEntity
8
0
100
AcDbLine
10
-4662.0999992489797
20
-324.39286206940892
30
0
11
-4662.0999992489797
21
-279.39286206940892
31
0
0
LINE
5
170
100
AcDbEntity
8
0
100
AcDbLine
10
-4663.0999992489806
20
-434.39286206940892
30
0
11
-4663.0999992489806
21
-479.39286206940892
31
0
0
LINE
5
171
100
AcDbEntity
8
0
100
AcDbLine
10
-4702.0999992489797
20
-324.39286206940892
30
0
11
-4702.0999992489797
21
-279.39286206940892
31
0
0
LINE
5
172
100
AcDbEntity
8
0
100
AcDbLine
10
-4703.0999992489806
20
-434.39286206940892
30
0
11
-4703.0999992489806
21
-479.39286206940892
31
0
0
LINE
5
173
100
AcDbEntity
8
0
100
AcDbLine
10
-4728.5999992489806
20
-183.39286206940892
30
0
11
-4728.5999992489806
21
-228.39286206940892
31
0
0
LINE
5
174
100
AcDbEntity
8
0
100
AcDbLine
10
-4768.5999992489806
20
-183.39286206940892
30
0
11
-4768.5999992489806
21
-228.39286206940892
31
0
0
LINE
5
175
100
AcDbEntity
8
0
100
AcDbLine
10
-4727.5999992489797
20
-73.392862069408906
30
0
11
-4727.5999992489797
21
-28.392862069408906
31
0
0
LINE
5
176
100
AcDbEntity
8
0
100
AcDbLine
10
-4767.5999992489797
20
-73.392862069408906
30
0
11
-4767.5999992489797
21
-28.392862069408906
31
0
0
LINE
5
177
100
AcDbEntity
8
0
100
AcDbLine
10
-4808.5999992489806
20
-183.39286206940892
30
0
11
-4808.5999992489806
21
-228.39286206940892
31
0
0
LINE
5
178
100
AcDbEntity
8
0
100
AcDbLine
10
-4688.5999992489806
20
-183.39286206940892
30
0
11
-4688.5999992489806
21
-228.39286206940892
31
0
0
LINE
5
179
100
AcDbEntity
8
0
100
AcDbLine
10
-4807.5999992489797
20
-73.392862069408906
30
0
11
-4807.5999992489797
21
-28.392862069408906
31
0
0
LINE
5
180
100
AcDbEntity
8
0
100
AcDbLine
10
-4607.5999992489797
20
-73.392862069408906
30
0
11
-4607.5999992489797
21
-28.392862069408906
31
0
0
LINE
5
181
100
AcDbEntity
8
0
100
AcDbLine
10
-4648.5999992489806
20
-183.39286206940892
30
0
11
-4648.5999992489806
21
-228.39286206940892
31
0
0
LINE
5
182
100
AcDbEntity
8
0
100
AcDbLine
10
-4608.5999992489806
20
-183.39286206940892
30
0
11
-4608.5999992489806
21
-228.39286206940892
31
0
0
LINE
5
183
100
AcDbEntity
8
0
100
AcDbLine
10
-4647.5999992489797
20
-73.392862069408906
30
0
11
-4647.5999992489797
21
-28.392862069408906
31
0
0
LINE
5
184
100
AcDbEntity
8
0
100
AcDbLine
10
-4687.5999992489797
20
-73.392862069408906
30
0
11
-4687.5999992489797
21
-28.392862069408906
31
0
0
CIRCLE
5
185
100
AcDbEntity
8
0
100
AcDbCircle
10
-4202.9070834638696
20
-128.52707192129643
30
0
40
60
0
LWPOLYLINE
5
186
100
AcDbEntity
8
0
100
AcDbPolyline
90
4
70
1
43
0.0
10
-4808.0999992489833
20
-93.527071921296283
10
-4808.0999992489833
20
-163.52707192129631
10
-4809.0999992489833
20
-163.52707192129631
10
-4809.0999992489833
20
-93.527071921296283
0
LWPOLYLINE
5
187
100
AcDbEntity
8
0
100
AcDbPolyline
90
4
70
1
43
0.0
10
-4668.0999992489833
20
-138.52707192129634
10
-4668.0999992489833
20
-208.52707192129634
10
-4669.0999992489833
20
-208.52707192129634
10
-4669.0999992489833
20
-138.52707192129634
0
LWPOLYLINE
5
188
100
AcDbEntity
8
0
100
AcDbPolyline
90
4
70
1
43
0.0
10
-4788.0999992489833
20
-48.527071921296283
10
-4788.0999992489833
20
-118.52707192129628
10
-4789.0999992489833
20
-118.52707192129628
10
-4789.0999992489833
20
-48.527071921296283
0
LWPOLYLINE
5
189
100
AcDbEntity
8
0
100
AcDbPolyline
90
4
70
1
43
0.0
10
-4628.0999992489833
20
-48.527071921296354
10
-4628.0999992489833
20
-118.52707192129635
10
-4629.0999992489833
20
-118.52707192129635
10
-4629.0999992489833
20
-48.527071921296354
0
LWPOLYLINE
5
190
100
AcDbEntity
8
0
100
AcDbPolyline
90
4
70
1
43
0.0
10
-4728.0999992489833
20
-93.527071921296354
10
-4728.0999992489833
20
-163.52707192129631
10
-4729.0999992489833
20
-163.52707192129631
10
-4729.0999992489833
20
-93.527071921296354
0
LWPOLYLINE
5
191
100
AcDbEntity
8
0
100
AcDbPolyline
90
4
70
1
43
0.0
10
-4648.0999992489833
20
-93.527071921296354
10
-4648.0999992489833
20
-163.52707192129634
10
-4649.0999992489833
20
-163.52707192129634
10
-4649.0999992489833
20
-93.527071921296354
0
LWPOLYLINE
5
192
100
AcDbEntity
8
0
100
AcDbPolyline
90
4
70
1
43
0.0
10
-4748.0999992489833
20
-138.52707192129634
10
-4748.0999992489833
20
-208.52707192129631
10
-4749.0999992489833
20
-208.52707192129631
10
-4749.0999992489833
20
-138.52707192129634
0
LWPOLYLINE
5
193
100
AcDbEntity
8
0
100
AcDbPolyline
90
4
70
1
43
0.0
10
-4827.9070834638696
20
-138.52707192129628
10
-4827.9070834638696
20
-208.52707192129631
10
-4828.9070834638696
20
-208.52707192129631
10
-4828.9070834638696
20
-138.52707192129628
0
LWPOLYLINE
5
194
100
AcDbEntity
8
0
100
AcDbPolyline
90
4
70
1
43
0.0
10
-4708.0999992489833
20
-138.52707192129634
10
-4708.0999992489833
20
-208.52707192129631
10
-4709.0999992489833
20
-208.52707192129631
10
-4709.0999992489833
20
-138.52707192129634
0
LWPOLYLINE
5
195
100
AcDbEntity
8
0
100
AcDbPolyline
90
4
70
1
43
0.0
10
-4608.0999992489833
20
-93.527071921296354
10
-4608.0999992489833
20
-163.52707192129634
10
-4609.0999992489833
20
-163.52707192129634
10
-4609.0999992489833
20
-93.527071921296354
0
LWPOLYLINE
5
196
100
AcDbEntity
8
0
100
AcDbPolyline
90
4
70
1
43
0.0
10
-4788.0999992489833
20
-138.52707192129628
10
-4788.0999992489833
20
-208.52707192129631
10
-4789.0999992489833
20
-208.52707192129631
10
-4789.0999992489833
20
-138.52707192129628
0
LWPOLYLINE
5
197
100
AcDbEntity
8
0
100
AcDbPolyline
90
4
70
1
43
0.0
10
-4828.0999992489833
20
-48.527071921296283
10
-4828.0999992489833
20
-118.52707192129628
10
-4829.0999992489833
20
-118.52707192129628
10
-4829.0999992489833
20
-48.527071921296283
0
LWPOLYLINE
5
198
100
AcDbEntity
8
0
100
AcDbPolyline
90
4
70
1
43
0.0
10
-4668.0999992489833
20
-48.527071921296354
10
-4668.0999992489833
20
-118.52707192129635
10
-4669.0999992489833
20
-118.52707192129635
10
-4669.0999992489833
20
-48.527071921296354
0
LWPOLYLINE
5
199
100
AcDbEntity
8
0
100
AcDbPolyline
90
4
70
1
43
0.0
10
-4628.0999992489833
20
-138.52707192129634
10
-4628.0999992489833
20
-208.52707192129634
10
-4629.0999992489833
20
-208.52707192129634
10
-4629.0999992489833
20
-138.52707192129634
0
LWPOLYLINE
5
200
100
AcDbEntity
8
0
100
AcDbPolyline
90
4
70
1
43
0.0
10
-4748.0999992489833
20
-48.527071921296354
10
-4748.0999992489833
20
-118.52707192129635
10
-4749.0999992489833
20
-118.52707192129635
10
-4749.0999992489833
20
-48.527071921296354
0
LWPOLYLINE
5
201
100
AcDbEntity
8
0
100
AcDbPolyline
90
4
70
1
43
0.0
10
-4688.0999992489833
20
-93.527071921296354
10
-4688.0999992489833
20
-163.52707192129634
10
-4689.0999992489833
20
-163.52707192129634
10
-4689.0999992489833
20
-93.527071921296354
0
LWPOLYLINE
5
202
100
AcDbEntity
8
0
100
AcDbPolyline
90
4
70
1
43
0.0
10
-4708.0999992489833
20
-48.527071921296354
10
-4708.0999992489833
20
-118.52707192129635
10
-4709.0999992489833
20
-118.52707192129635
10
-4709.0999992489833
20
-48.527071921296354
0
LWPOLYLINE
5
203
100
AcDbEntity
8
0
100
AcDbPolyline
90
4
70
1
43
0.0
10
-4768.0999992489833
20
-93.527071921296354
10
-4768.0999992489833
20
-163.52707192129631
10
-4769.0999992489833
20
-163.52707192129631
10
-4769.0999992489833
20
-93.527071921296354
0
LWPOLYLINE
5
204
100
AcDbEntity
8
0
100
AcDbPolyline
90
99
70
1
43
0.0
10
-4232.9070834638696
20
-228.52707192129643
42
-2.4142135623730949
10
-4227.9070834638696
20
-233.52707192129643
10
-4227.9070834638696
20
-246.5270719212964
10
-4127.9070834638696
20
-246.52707192129643
10
-4127.9070834638696
20
-233.52707192129645
42
-2.4142135623730949
10
-4122.9070834638696
20
-228.52707192129645
10
-4077.9070834638696
20
-228.52707192129645
10
-4077.9070834638696
20
-28.527071921296496
10
-4127.9070834638696
20
-28.527071921296496
10
-4127.9070834638696
20
-10.527071921296525
10
-4227.9070834638696
20
-10.527071921296454
10
-4227.9070834638696
20
-23.527071921296425
42
-2.4142135623730949
10
-4232.9070834638696
20
-28.527071921296425
10
-4372.9070834638696
20
-28.527071921296425
42
-2.4142135623730949
10
-4377.9070834638696
20
-23.527071921296425
10
-4377.9070834638696
20
-10.527071921296454
10
-4477.9070834638696
20
-10.527071921296383
10
-4477.9070834638696
20
-23.527071921296354
42
-2.4142135623730949
10
-4482.9070834638696
20
-28.527071921296354
10
-4607.0999992489842
20
-28.527071921296354
10
-4607.0999992489842
20
-73.527071921296354
10
-4608.0999992489833
20
-73.527071921296354
10
-4608.0999992489833
20
-28.527071921296354
10
-4647.0999992489842
20
-28.527071921296354
10
-4647.0999992489842
20
-73.527071921296354
10
-4648.0999992489833
20
-73.527071921296354
10
-4648.0999992489833
20
-28.527071921296354
10
-4687.0999992489842
20
-28.527071921296354
10
-4687.0999992489842
20
-73.527071921296354
10
-4688.0999992489833
20
-73.527071921296354
10
-4688.0999992489833
20
-28.527071921296354
10
-4727.0999992489842
20
-28.527071921296354
10
-4727.0999992489842
20
-73.527071921296354
10
-4728.0999992489833
20
-73.527071921296354
10
-4728.0999992489833
20
-28.527071921296354
10
-4767.0999992489842
20
-28.527071921296354
10
-4767.0999992489842
20
-73.527071921296354
10
-4768.0999992489833
20
-73.527071921296354
10
-4768.0999992489833
20
-28.527071921296354
10
-4807.0999992489842
20
-28.527071921296283
10
-4807.0999992489842
20
-73.527071921296283
10
-4808.0999992489833
20
-73.527071921296283
10
-4808.0999992489833
20
-28.527071921296283
10
-4872.9070834638696
20
-28.527071921296283
42
-2.4142135623730949
10
-4877.9070834638696
20
-23.527071921296283
10
-4877.9070834638696
20
-10.527071921296312
10
-4977.9070834638696
20
-10.527071921296312
10
-4977.9070834638696
20
-23.527071921296283
42
-2.4142135623730949
10
-4982.9070834638696
20
-28.527071921296283
10
-5072.9070834638696
20
-28.527071921296283
42
-2.4142135623730949
10
-5077.9070834638696
20
-23.527071921296283
10
-5077.9070834638696
20
-10.527071921296312
10
-5177.9070834638696
20
-10.52707192129624
10
-5177.9070834638696
20
-23.527071921296212
42
-2.4142135623730949
10
-5182.9070834638696
20
-28.527071921296212
10
-5227.9070834638696
20
-28.527071921296212
10
-5227.9070834638696
20
-228.52707192129623
10
-5182.9070834638696
20
-228.52707192129625
42
-2.4142135623730949
10
-5177.9070834638696
20
-233.52707192129625
10
-5177.9070834638696
20
-246.52707192129623
10
-5077.9070834638696
20
-246.52707192129623
10
-5077.9070834638696
20
-233.52707192129625
42
-2.4142135623730949
10
-5072.9070834638696
20
-228.52707192129625
10
-4982.9070834638696
20
-228.52707192129628
42
-2.4142135623730949
10
-4977.9070834638696
20
-233.52707192129628
10
-4977.9070834638696
20
-246.52707192129625
10
-4877.9070834638696
20
-246.52707192129625
10
-4877.9070834638696
20
-233.52707192129628
42
-2.4142135623730949
10
-4872.9070834638696
20
-228.52707192129628
10
-4809.0999992489833
20
-228.52707192129631
10
-4809.0999992489833
20
-183.52707192129631
10
-4808.0999992489833
20
-183.52707192129631
10
-4808.0999992489833
20
-228.52707192129631
10
-4769.0999992489833
20
-228.52707192129631
10
-4769.0999992489833
20
-183.52707192129631
10
-4768.0999992489833
20
-183.52707192129631
10
-4768.0999992489833
20
-228.52707192129631
10
-4729.0999992489833
20
-228.52707192129631
10
-4729.0999992489833
20
-183.52707192129631
10
-4728.0999992489833
20
-183.52707192129631
10
-4728.0999992489833
20
-228.52707192129631
10
-4689.0999992489833
20
-228.52707192129634
10
-4689.0999992489833
20
-183.52707192129634
10
-4688.0999992489833
20
-183.52707192129634
10
-4688.0999992489833
20
-228.52707192129634
10
-4649.0999992489833
20
-228.52707192129634
10
-4649.0999992489833
20
-183.52707192129634
10
-4648.0999992489833
20
-183.52707192129634
10
-4648.0999992489833
20
-228.52707192129634
10
-4609.0999992489833
20
-228.52707192129634
10
-4609.0999992489833
20
-183.52707192129634
10
-4608.0999992489833
20
-183.52707192129634
10
-4608.0999992489833
20
-228.52707192129634
10
-4482.9070834638696
20
-228.5270719212964
42
-2.4142135623730949
10
-4477.9070834638696
20
-233.5270719212964
10
-4477.9070834638696
20
-246.52707192129637
10
-4377.9070834638696
20
-246.5270719212964
10
-4377.9070834638696
20
-233.52707192129643
42
-2.4142135623730949
10
-4372.9070834638696
20
-228.52707192129643
0
LWPOLYLINE
5
205
100
AcDbEntity
8
0
100
AcDbPolyline
90
100
70
1
43
0.0
10
-4922.407083463866
20
-484.39286206940892
42
-2.4142135623730949
10
-4917.407083463866
20
-479.39286206940892
10
-4877.407083463866
20
-479.39286206940892
42
-2.4142135623730949
10
-4872.407083463866
20
-484.39286206940892
10
-4872.407083463866
20
-497.39286206940903
10
-4772.407083463866
20
-497.39286206940903
10
-4772.407083463866
20
-484.39286206940892
42
-2.4142135623730949
10
-4767.407083463866
20
-479.39286206940892
10
-4703.5999992489806
20
-479.39286206940892
10
-4703.5999992489806
20
-434.39286206940892
10
-4702.5999992489797
20
-434.39286206940892
10
-4702.5999992489797
20
-479.39286206940892
10
-4663.5999992489806
20
-479.39286206940892
10
-4663.5999992489806
20
-434.39286206940892
10
-4662.5999992489797
20
-434.39286206940892
10
-4662.5999992489797
20
-479.39286206940892
10
-4623.5999992489806
20
-479.39286206940892
10
-4623.5999992489806
20
-434.39286206940892
10
-4622.5999992489797
20
-434.39286206940892
10
-4622.5999992489797
20
-479.39286206940892
10
-4583.5999992489806
20
-479.39286206940892
10
-4583.5999992489806
20
-434.39286206940892
10
-4582.5999992489797
20
-434.39286206940892
10
-4582.5999992489797
20
-479.39286206940892
10
-4543.5999992489806
20
-479.39286206940892
10
-4543.5999992489806
20
-434.39286206940892
10
-4542.5999992489797
20
-434.39286206940892
10
-4542.5999992489797
20
-479.39286206940892
10
-4503.5999992489806
20
-479.39286206940892
10
-4503.5999992489806
20
-434.39286206940892
10
-4502.5999992489797
20
-434.39286206940892
10
-4502.5999992489797
20
-479.39286206940892
10
-4477.407083463866
20
-479.39286206940892
42
-2.4142135623730949
10
-4472.407083463866
20
-484.39286206940892
10
-4472.407083463866
20
-497.39286206940903
10
-4372.407083463866
20
-497.39286206940903
10
-4372.407083463866
20
-484.39286206940892
42
-2.4142135623730949
10
-4367.407083463866
20
-479.39286206940892
10
-4227.407083463866
20
-479.39286206940892
42
-2.4142135623730949
10
-4222.407083463866
20
-484.39286206940892
10
-4222.407083463866
20
-497.39286206940903
10
-4122.407083463866
20
-497.39286206940903
10
-4122.407083463866
20
-484.39286206940892
42
-2.4142135623730949
10
-4117.407083463866
20
-479.39286206940892
10
-4072.407083463866
20
-479.39286206940892
10
-4072.407083463866
20
-279.39286206940892
10
-4117.407083463866
20
-279.39286206940892
42
-2.4142135623730949
10
-4122.407083463866
20
-274.39286206940892
10
-4122.407083463866
20
-261.39286206940881
10
-4222.407083463866
20
-261.39286206940881
10
-4222.407083463866
20
-274.39286206940892
42
-2.4142135623730949
10
-4227.407083463866
20
-279.39286206940892
10
-4367.407083463866
20
-279.39286206940892
42
-2.4142135623730949
10
-4372.407083463866
20
-274.39286206940892
10
-4372.407083463866
20
-261.39286206940881
10
-4472.407083463866
20
-261.39286206940881
10
-4472.407083463866
20
-274.39286206940892
42
-2.4142135623730949
10
-4477.407083463866
20
-279.39286206940892
10
-4501.5999992489797
20
-279.39286206940892
10
-4501.5999992489797
20
-324.39286206940892
10
-4502.5999992489797
20
-324.39286206940892
10
-4502.5999992489797
20
-279.39286206940892
10
-4541.5999992489797
20
-279.39286206940892
10
-4541.5999992489797
20
-324.39286206940892
10
-4542.5999992489797
20
-324.39286206940892
10
-4542.5999992489797
20
-279.39286206940892
10
-4581.5999992489797
20
-279.39286206940892
10
-4581.5999992489797
20
-324.39286206940892
10
-4582.5999992489797
20
-324.39286206940892
10
-4582.5999992489797
20
-279.39286206940892
10
-4621.5999992489797
20
-279.39286206940892
10
-4621.5999992489797
20
-324.39286206940892
10
-4622.5999992489797
20
-324.39286206940892
10
-4622.5999992489797
20
-279.39286206940892
10
-4661.5999992489797
20
-279.39286206940892
10
-4661.5999992489797
20
-324.39286206940892
10
-4662.5999992489797
20
-324.39286206940892
10
-4662.5999992489797
20
-279.39286206940892
10
-4701.5999992489797
20
-279.39286206940892
10
-4701.5999992489797
20
-324.39286206940892
10
-4702.5999992489797
20
-324.39286206940892
10
-4702.5999992489797
20
-279.39286206940892
10
-4767.407083463866
20
-279.39286206940892
42
-2.4142135623730949
10
-4772.407083463866
20
-274.39286206940892
10
-4772.407083463866
20
-261.39286206940881
10
-4872.407083463866
20
-261.39286206940881
10
-4872.407083463866
20
-274.39286206940892
42
-2.4142135623730949
10
-4877.407083463866
20
-279.39286206940892
10
-4917.407083463866
20
-279.39286206940892
42
-2.4142135623730949
10
-4922.407083463866
20
-274.39286206940892
10
-4922.407083463866
20
-261.39286206940881
10
-4972.407083463866
20
-261.39286206940881
10
-4972.407083463866
20
-274.39286206940892
42
-2.4142135623730949
10
-4977.407083463866
20
-279.39286206940892
10
-5022.407083463866
20
-279.39286206940892
10
-5022.407083463866
20
-479.39286206940892
10
-4977.407083463866
20
-479.39286206940892
42
-2.4142135623730949
10
-4972.407083463866
20
-484.39286206940892
10
-4972.407083463866
20
-497.39286206940903
10
-4922.407083463866
20
-497.39286206940903
0
LWPOLYLINE
5
206
100
AcDbEntity
8
0
100
AcDbPolyline
90
4
70
1
43
0.0
10
-4642.5999992489797
20
-389.39286206940892
10
-4642.5999992489797
20
-459.39286206940892
10
-4643.5999992489806
20
-459.39286206940892
10
-4643.5999992489806
20
-389.39286206940892
0
LWPOLYLINE
5
207
100
AcDbEntity
8
0
100
AcDbPolyline
90
4
70
1
43
0.0
10
-4562.5999992489797
20
-299.39286206940892
10
-4562.5999992489797
20
-369.39286206940892
10
-4563.5999992489806
20
-369.39286206940892
10
-4563.5999992489806
20
-299.39286206940892
0
LWPOLYLINE
5
208
100
AcDbEntity
8
0
100
AcDbPolyline
90
4
70
1
43
0.0
10
-4522.5999992489797
20
-389.39286206940892
10
-4522.5999992489797
20
-459.39286206940892
10
-4523.5999992489806
20
-459.39286206940892
10
-4523.5999992489806
20
-389.39286206940892
0
LWPOLYLINE
5
209
100
AcDbEntity
8
0
100
AcDbPolyline
90
4
70
1
43
0.0
10
-4702.5999992489797
20
-344.39286206940892
10
-4702.5999992489797
20
-414.39286206940892
10
-4703.5999992489806
20
-414.39286206940892
10
-4703.5999992489806
20
-344.39286206940892
0
LWPOLYLINE
5
210
100
AcDbEntity
8
0
100
AcDbPolyline
90
4
70
1
43
0.0
10
-4502.5999992489797
20
-344.39286206940892
10
-4502.5999992489797
20
-414.39286206940892
10
-4503.5999992489806
20
-414.39286206940892
10
-4503.5999992489806
20
-344.39286206940892
0
LWPOLYLINE
5
211
100
AcDbEntity
8
0
100
AcDbPolyline
90
4
70
1
43
0.0
10
-4522.5999992489797
20
-299.39286206940892
10
-4522.5999992489797
20
-369.39286206940892
10
-4523.5999992489806
20
-369.39286206940892
10
-4523.5999992489806
20
-299.39286206940892
0
LWPOLYLINE
5
212
100
AcDbEntity
8
0
100
AcDbPolyline
90
4
70
1
43
0.0
10
-4602.5999992489797
20
-299.39286206940892
10
-4602.5999992489797
20
-369.39286206940892
10
-4603.5999992489806
20
-369.39286206940892
10
-4603.5999992489806
20
-299.39286206940892
0
LWPOLYLINE
5
213
100
AcDbEntity
8
0
100
AcDbPolyline
90
4
70
1
43
0.0
10
-4682.5999992489797
20
-299.39286206940892
10
-4682.5999992489797
20
-369.39286206940892
10
-4683.5999992489806
20
-369.39286206940892
10
-4683.5999992489806
20
-299.39286206940892
0
LWPOLYLINE
5
214
100
AcDbEntity
8
0
100
AcDbPolyline
90
4
70
1
43
0.0
10
-4622.5999992489797
20
-344.39286206940892
10
-4622.5999992489797
20
-414.39286206940892
10
-4623.5999992489806
20
-414.39286206940892
10
-4623.5999992489806
20
-344.39286206940892
0
LWPOLYLINE
5
215
100
AcDbEntity
8
0
100
AcDbPolyline
90
4
70
1
43
0.0
10
-4542.5999992489797
20
-344.39286206940892
10
-4542.5999992489797
20
-414.39286206940892
10
-4543.5999992489806
20
-414.39286206940892
10
-4543.5999992489806
20
-344.39286206940892
0
LWPOLYLINE
5
216
100
AcDbEntity
8
0
100
AcDbPolyline
90
4
70
1
43
0.0
10
-4582.5999992489797
20
-344.39286206940892
10
-4582.5999992489797
20
-414.39286206940892
10
-4583.5999992489806
20
-414.39286206940892
10
-4583.5999992489806
20
-344.39286206940892
0
LWPOLYLINE
5
217
100
AcDbEntity
8
0
100
AcDbPolyline
90
4
70
1
43
0.0
10
-4682.5999992489797
20
-389.39286206940892
10
-4682.5999992489797
20
-459.39286206940892
10
-4683.5999992489806
20
-459.39286206940892
10
-4683.5999992489806
20
-389.39286206940892
0
LWPOLYLINE
5
218
100
AcDbEntity
8
0
100
AcDbPolyline
90
4
70
1
43
0.0
10
-4602.5999992489797
20
-389.39286206940892
10
-4602.5999992489797
20
-459.39286206940892
10
-4603.5999992489806
20
-459.39286206940892
10
-4603.5999992489806
20
-389.39286206940892
0
LWPOLYLINE
5
219
100
AcDbEntity
8
0
100
AcDbPolyline
90
4
70
1
43
0.0
10
-4562.5999992489797
20
-389.39286206940892
10
-4562.5999992489797
20
-459.39286206940892
10
-4563.5999992489806
20
-459.39286206940892
10
-4563.5999992489806
20
-389.39286206940892
0
LWPOLYLINE
5
220
100
AcDbEntity
8
0
100
AcDbPolyline
90
4
70
1
43
0.0
10
-4722.407083463866
20
-389.39286206940892
10
-4722.407083463866
20
-459.39286206940892
10
-4723.407083463866
20
-459.39286206940892
10
-4723.407083463866
20
-389.39286206940892
0
LWPOLYLINE
5
221
100
AcDbEntity
8
0
100
AcDbPolyline
90
4
70
1
43
0.0
10
-4662.5999992489797
20
-344.39286206940892
10
-4662.5999992489797
20
-414.39286206940892
10
-4663.5999992489806
20
-414.39286206940892
10
-4663.5999992489806
20
-344.39286206940892
0
LWPOLYLINE
5
222
100
AcDbEntity
8
0
100
AcDbPolyline
90
4
70
1
43
0.0
10
-4722.5999992489797
20
-299.39286206940892
10
-4722.5999992489797
20
-369.39286206940892
10
-4723.5999992489806
20
-369.39286206940892
10
-4723.5999992489806
20
-299.39286206940892
0
LWPOLYLINE
5
223
100
AcDbEntity
8
0
100
AcDbPolyline
90
4
70
1
43
0.0
10
-4642.5999992489797
20
-299.39286206940892
10
-4642.5999992489797
20
-369.39286206940892
10
-4643.5999992489806
20
-369.39286206940892
10
-4643.5999992489806
20
-299.39286206940892
0
CIRCLE
5
224
100
AcDbEntity
8
0
100
AcDbCircle
10
-4197.407083463866
20
-379.39286206940892
30
0
40
59.999999999999922
0
LWPOLYLINE
5
225
100
AcDbEntity
8
0
100
AcDbPolyline
90
124
70
1
43
0.0
10
-4298.5999992489815
20
-2353.0439729229693
42
-2.4142135623730949
10
-4293.5999992489815
20
-2358.0439729229693
10
-4293.5999992489815
20
-2403.1999462842941
10
-4093.5999992489815
20
-2403.1999462842941
10
-4093.5999992489815
20
-2358.0439729229693
42
-2.4142135623730949
10
-4088.5999992489815
20
-2353.0439729229693
10
-4075.5999992489815
20
-2353.0439729229693
10
-4075.5999992489815
20
-2253.0439729229693
10
-4088.5999992489815
20
-2253.0439729229688
42
-2.4142135623731917
10
-4093.5999992489815
20
-2248.0439729229693
10
-4093.5999992489815
20
-2108.0439729229693
42
-2.4142135623730949
10
-4088.5999992489815
20
-2103.0439729229693
10
-4075.5999992489815
20
-2103.0439729229693
10
-4075.5999992489815
20
-2003.0439729229693
10
-4088.5999992489815
20
-2003.043972922969
42
-2.4142135623731917
10
-4093.5999992489815
20
-1998.0439729229693
10
-4093.5999992489815
20
-1858.0439729229693
42
-2.4142135623730949
10
-4088.5999992489815
20
-1853.0439729229693
10
-4075.5999992489815
20
-1853.0439729229693
10
-4075.5999992489815
20
-1753.0439729229693
10
-4088.5999992489815
20
-1753.0439729229693
42
-2.4142135623730949
10
-4093.5999992489815
20
-1748.0439729229693
10
-4093.5999992489815
20
-1684.3928620694078
10
-4138.5999992489815
20
-1684.3928620694078
10
-4138.5999992489815
20
-1683.3928620694082
10
-4093.5999992489815
20
-1683.3928620694082
10
-4093.5999992489815
20
-1644.3928620694078
10
-4138.5999992489815
20
-1644.3928620694078
10
-4138.5999992489815
20
-1643.3928620694082
10
-4093.5999992489815
20
-1643.3928620694082
10
-4093.5999992489815
20
-1604.3928620694078
10
-4138.5999992489815
20
-1604.3928620694078
10
-4138.5999992489815
20
-1603.3928620694082
10
-4093.5999992489815
20
-1603.3928620694082
10
-4093.5999992489815
20
-1564.3928620694078
10
-4138.5999992489815
20
-1564.3928620694078
10
-4138.5999992489815
20
-1563.3928620694082
10
-4093.5999992489815
20
-1563.3928620694082
10
-4093.5999992489815
20
-1524.3928620694078
10
-4138.5999992489815
20
-1524.3928620694078
10
-4138.5999992489815
20
-1523.3928620694082
10
-4093.5999992489815
20
-1523.3928620694082
10
-4093.5999992489815
20
-1484.3928620694078
10
-4138.5999992489815
20
-1484.3928620694078
10
-4138.5999992489815
20
-1483.3928620694082
10
-4093.5999992489815
20
-1483.3928620694082
10
-4093.5999992489815
20
-1304.0439729229695
42
-2.4142135623730949
10
-4088.5999992489815
20
-1299.0439729229695
10
-4075.5999992489815
20
-1299.0439729229695
10
-4075.5999992489815
20
-1199.0439729229695
10
-4088.5999992489815
20
-1199.0439729229695
42
-2.4142135623730949
10
-4093.5999992489815
20
-1194.0439729229695
10
-4093.5999992489815
20
-1054.0439729229695
42
-2.4142135623730949
10
-4088.5999992489815
20
-1049.0439729229695
10
-4075.5999992489815
20
-1049.0439729229695
10
-4075.5999992489815
20
-949.04397292296949
10
-4088.5999992489815
20
-949.04397292296949
42
-2.4142135623730949
10
-4093.5999992489815
20
-944.04397292296949
10
-4093.5999992489815
20
-804.04397292296949
42
-2.4142135623730949
10
-4088.5999992489815
20
-799.04397292296949
10
-4075.5999992489815
20
-799.04397292296949
10
-4075.5999992489815
20
-699.04397292296949
10
-4088.5999992489815
20
-699.04397292296949
42
-2.4142135623730949
10
-4093.5999992489815
20
-694.04397292296949
10
-4093.5999992489815
20
-653.19994628429413
10
-4293.5999992489815
20
-653.19994628429413
10
-4293.5999992489815
20
-694.04397292296949
42
-2.4142135623730949
10
-4298.5999992489815
20
-699.04397292296949
10
-4311.5999992489815
20
-699.04397292296949
10
-4311.5999992489815
20
-799.04397292296949
10
-4298.5999992489815
20
-799.04397292296949
42
-2.4142135623730949
10
-4293.5999992489815
20
-804.04397292296949
10
-4293.5999992489815
20
-944.04397292296949
42
-2.4142135623730949
10
-4298.5999992489815
20
-949.04397292296949
10
-4311.5999992489815
20
-949.04397292296949
10
-4311.5999992489815
20
-1049.0439729229695
10
-4298.5999992489815
20
-1049.0439729229695
42
-2.4142135623730949
10
-4293.5999992489815
20
-1054.0439729229695
10
-4293.5999992489815
20
-1194.0439729229695
42
-2.4142135623730949
10
-4298.5999992489815
20
-1199.0439729229695
10
-4311.5999992489815
20
-1199.0439729229695
10
-4311.5999992489815
20
-1299.0439729229695
10
-4298.5999992489815
20
-1299.0439729229695
42
-2.4142135623730949
10
-4293.5999992489815
20
-1304.0439729229695
10
-4293.5999992489815
20
-1482.3928620694085
10
-4248.5999992489815
20
-1482.3928620694085
10
-4248.5999992489815
20
-1483.3928620694082
10
-4293.5999992489815
20
-1483.3928620694082
10
-4293.5999992489815
20
-1522.3928620694085
10
-4248.5999992489815
20
-1522.3928620694085
10
-4248.5999992489815
20
-1523.3928620694082
10
-4293.5999992489815
20
-1523.3928620694082
10
-4293.5999992489815
20
-1562.3928620694085
10
-4248.5999992489815
20
-1562.3928620694085
10
-4248.5999992489815
20
-1563.3928620694082
10
-4293.5999992489815
20
-1563.3928620694082
10
-4293.5999992489815
20
-1602.3928620694085
10
-4248.5999992489815
20
-1602.3928620694085
10
-4248.5999992489815
20
-1603.3928620694082
10
-4293.5999992489815
20
-1603.3928620694082
10
-4293.5999992489815
20
-1642.3928620694085
10
-4248.5999992489815
20
-1642.3928620694085
10
-4248.5999992489815
20
-1643.3928620694082
10
-4293.5999992489815
20
-1643.3928620694082
10
-4293.5999992489815
20
-1682.3928620694085
10
-4248.5999992489815
20
-1682.3928620694085
10
-4248.5999992489815
20
-1683.3928620694082
10
-4293.5999992489815
20
-1683.3928620694082
10
-4293.5999992489815
20
-1748.0439729229693
42
-2.4142135623730949
10
-4298.5999992489815
20
-1753.0439729229693
10
-4311.5999992489815
20
-1753.0439729229693
10
-4311.5999992489815
20
-1853.0439729229693
10
-4298.5999992489815
20
-1853.0439729229693
42
-2.4142135623730949
10
-4293.5999992489815
20
-1858.0439729229693
10
-4293.5999992489815
20
-1998.0439729229693
42
-2.4142135623730949
10
-4298.5999992489815
20
-2003.0439729229693
10
-4311.5999992489815
20
-2003.0439729229693
10
-4311.5999992489815
20
-2103.0439729229693
10
-4298.5999992489815
20
-2103.0439729229693
42
-2.4142135623730949
10
-4293.5999992489815
20
-2108.0439729229693
10
-4293.5999992489815
20
-2248.0439729229693
42
-2.4142135623730949
10
-4298.5999992489815
20
-2253.0439729229693
10
-4311.5999992489815
20
-2253.0439729229693
10
-4311.5999992489815
20
-2353.0439729229693
0
LWPOLYLINE
5
226
100
AcDbEntity
8
0
100
AcDbPolyline
90
4
70
1
43
0.0
10
-4228.5999992489815
20
-1643.3928620694082
10
-4158.5999992489815
20
-1643.3928620694082
10
-4158.5999992489815
20
-1644.3928620694078
10
-4228.5999992489815
20
-1644.3928620694078
0
LWPOLYLINE
5
227
100
AcDbEntity
8
0
100
AcDbPolyline
90
4
70
1
43
0.0
10
-4273.5999992489815
20
-1543.3928620694082
10
-4203.5999992489815
20
-1543.3928620694082
10
-4203.5999992489815
20
-1544.3928620694078
10
-4273.5999992489815
20
-1544.3928620694078
0
LWPOLYLINE
5
228
100
AcDbEntity
8
0
100
AcDbPolyline
90
4
70
1
43
0.0
10
-4273.5999992489815
20
-1623.3928620694082
10
-4203.5999992489815
20
-1623.3928620694082
10
-4203.5999992489815
20
-1624.3928620694078
10
-4273.5999992489815
20
-1624.3928620694078
0
LWPOLYLINE
5
229
100
AcDbEntity
8
0
100
AcDbPolyline
90
4
70
1
43
0.0
10
-4183.5999992489815
20
-1663.3928620694082
10
-4113.5999992489815
20
-1663.3928620694082
10
-4113.5999992489815
20
-1664.3928620694078
10
-4183.5999992489815
20
-1664.3928620694078
0
LWPOLYLINE
5
230
100
AcDbEntity
8
0
100
AcDbPolyline
90
4
70
1
43
0.0
10
-4183.5999992489815
20
-1543.3928620694082
10
-4113.5999992489815
20
-1543.3928620694082
10
-4113.5999992489815
20
-1544.3928620694078
10
-4183.5999992489815
20
-1544.3928620694078
0
LWPOLYLINE
5
231
100
AcDbEntity
8
0
100
AcDbPolyline
90
4
70
1
43
0.0
10
-4228.5999992489815
20
-1683.3928620694082
10
-4158.5999992489815
20
-1683.3928620694082
10
-4158.5999992489815
20
-1684.3928620694078
10
-4228.5999992489815
20
-1684.3928620694078
0
LWPOLYLINE
5
232
100
AcDbEntity
8
0
100
AcDbPolyline
90
4
70
1
43
0.0
10
-4273.5999992489815
20
-1703.3928620694082
10
-4203.5999992489815
20
-1703.3928620694082
10
-4203.5999992489815
20
-1704.3928620694078
10
-4273.5999992489815
20
-1704.3928620694078
0
LWPOLYLINE
5
233
100
AcDbEntity
8
0
100
AcDbPolyline
90
4
70
1
43
0.0
10
-4183.5999992489815
20
-1623.3928620694082
10
-4113.5999992489815
20
-1623.3928620694082
10
-4113.5999992489815
20
-1624.3928620694078
10
-4183.5999992489815
20
-1624.3928620694078
0
LWPOLYLINE
5
234
100
AcDbEntity
8
0
100
AcDbPolyline
90
4
70
1
43
0.0
10
-4183.5999992489815
20
-1503.3928620694082
10
-4113.5999992489815
20
-1503.3928620694082
10
-4113.5999992489815
20
-1504.3928620694078
10
-4183.5999992489815
20
-1504.3928620694078
0
LWPOLYLINE
5
235
100
AcDbEntity
8
0
100
AcDbPolyline
90
4
70
1
43
0.0
10
-4183.5999992489815
20
-1703.1999462842941
10
-4113.5999992489815
20
-1703.1999462842941
10
-4113.5999992489815
20
-1704.1999462842944
10
-4183.5999992489815
20
-1704.1999462842944
0
LWPOLYLINE
5
236
100
AcDbEntity
8
0
100
AcDbPolyline
90
4
70
1
43
0.0
10
-4228.5999992489815
20
-1563.3928620694082
10
-4158.5999992489815
20
-1563.3928620694082
10
-4158.5999992489815
20
-1564.3928620694078
10
-4228.5999992489815
20
-1564.3928620694078
0
LWPOLYLINE
5
237
100
AcDbEntity
8
0
100
AcDbPolyline
90
4
70
1
43
0.0
10
-4228.5999992489815
20
-1603.3928620694082
10
-4158.5999992489815
20
-1603.3928620694082
10
-4158.5999992489815
20
-1604.3928620694078
10
-4228.5999992489815
20
-1604.3928620694078
0
LWPOLYLINE
5
238
100
AcDbEntity
8
0
100
AcDbPolyline
90
4
70
1
43
0.0
10
-4183.5999992489815
20
-1583.3928620694082
10
-4113.5999992489815
20
-1583.3928620694082
10
-4113.5999992489815
20
-1584.3928620694078
10
-4183.5999992489815
20
-1584.3928620694078
0
LWPOLYLINE
5
239
100
AcDbEntity
8
0
100
AcDbPolyline
90
4
70
1
43
0.0
10
-4273.5999992489815
20
-1583.3928620694082
10
-4203.5999992489815
20
-1583.3928620694082
10
-4203.5999992489815
20
-1584.3928620694078
10
-4273.5999992489815
20
-1584.3928620694078
0
LWPOLYLINE
5
240
100
AcDbEntity
8
0
100
AcDbPolyline
90
4
70
1
43
0.0
10
-4228.5999992489815
20
-1523.3928620694082
10
-4158.5999992489815
20
-1523.3928620694082
10
-4158.5999992489815
20
-1524.3928620694078
10
-4228.5999992489815
20
-1524.3928620694078
0
LWPOLYLINE
5
241
100
AcDbEntity
8
0
100
AcDbPolyline
90
4
70
1
43
0.0
10
-4273.5999992489815
20
-1663.3928620694082
10
-4203.5999992489815
20
-1663.3928620694082
10
-4203.5999992489815
20
-1664.3928620694078
10
-4273.5999992489815
20
-1664.3928620694078
0
LWPOLYLINE
5
242
100
AcDbEntity
8
0
100
AcDbPolyline
90
4
70
1
43
0.0
10
-4228.5999992489815
20
-1483.3928620694082
10
-4158.5999992489815
20
-1483.3928620694082
10
-4158.5999992489815
20
-1484.3928620694078
10
-4228.5999992489815
20
-1484.3928620694078
0
LWPOLYLINE
5
243
100
AcDbEntity
8
0
100
AcDbPolyline
90
4
70
1
43
0.0
10
-4273.5999992489815
20
-1503.3928620694082
10
-4203.5999992489815
20
-1503.3928620694082
10
-4203.5999992489815
20
-1504.3928620694078
10
-4273.5999992489815
20
-1504.3928620694078
0
CIRCLE
5
244
100
AcDbEntity
8
0
100
AcDbCircle
10
-4193.5999992489815
20
-778.19994628429413
30
0
40
60
0
LWPOLYLINE
5
245
100
AcDbEntity
8
0
100
AcDbPolyline
90
112
70
1
43
0.0
10
-4348.5999992489815
20
-1303.3647625836493
42
-2.4142135623730949
10
-4353.5999992489815
20
-1298.3647625836493
10
-4353.5999992489815
20
-1158.3647625836493
42
-2.4142135623730949
10
-4348.5999992489815
20
-1153.3647625836493
10
-4335.5999992489815
20
-1153.3647625836493
10
-4335.5999992489815
20
-1053.3647625836493
10
-4348.5999992489815
20
-1053.3647625836493
42
-2.4142135623730949
10
-4353.5999992489815
20
-1048.3647625836493
10
-4353.5999992489815
20
-908.19994628429413
42
-2.4142135623730949
10
-4348.5999992489815
20
-903.19994628429413
10
-4335.5999992489815
20
-903.19994628429413
10
-4335.5999992489815
20
-803.19994628429413
10
-4348.5999992489815
20
-803.19994628429413
42
-2.4142135623730949
10
-4353.5999992489815
20
-798.19994628429413
10
-4353.5999992489815
20
-753.19994628429413
10
-4553.5999992489815
20
-753.19994628429413
10
-4553.5999992489815
20
-798.19994628429413
42
-2.4142135623730949
10
-4558.5999992489815
20
-803.19994628429413
10
-4571.5999992489815
20
-803.19994628429413
10
-4571.5999992489815
20
-903.19994628429413
10
-4558.5999992489815
20
-903.19994628429413
42
-2.4142135623730949
10
-4553.5999992489815
20
-908.19994628429413
10
-4553.5999992489815
20
-1048.3647625836493
42
-2.4142135623730949
10
-4558.5999992489815
20
-1053.3647625836493
10
-4571.5999992489815
20
-1053.3647625836493
10
-4571.5999992489815
20
-1153.3647625836493
10
-4558.5999992489815
20
-1153.3647625836493
42
-2.4142135623730949
10
-4553.5999992489815
20
-1158.3647625836493
10
-4553.5999992489815
20
-1298.3647625836493
42
-2.4142135623730949
10
-4558.5999992489815
20
-1303.3647625836493
10
-4571.5999992489815
20
-1303.3647625836493
10
-4571.5999992489815
20
-1403.3647625836493
10
-4558.5999992489815
20
-1403.3647625836493
42
-2.4142135623730949
10
-4553.5999992489815
20
-1408.3647625836493
10
-4553.5999992489815
20
-1482.3928620694085
10
-4508.5999992489815
20
-1482.3928620694085
10
-4508.5999992489815
20
-1483.3928620694082
10
-4553.5999992489815
20
-1483.3928620694082
10
-4553.5999992489815
20
-1522.3928620694085
10
-4508.5999992489815
20
-1522.3928620694085
10
-4508.5999992489815
20
-1523.3928620694082
10
-4553.5999992489815
20
-1523.3928620694082
10
-4553.5999992489815
20
-1562.3928620694085
10
-4508.5999992489815
20
-1562.3928620694085
10
-4508.5999992489815
20
-1563.3928620694082
10
-4553.5999992489815
20
-1563.3928620694082
10
-4553.5999992489815
20
-1602.3928620694085
10
-4508.5999992489815
20
-1602.3928620694085
10
-4508.5999992489815
20
-1603.3928620694082
10
-4553.5999992489815
20
-1603.3928620694082
10
-4553.5999992489815
20
-1642.3928620694085
10
-4508.5999992489815
20
-1642.3928620694085
10
-4508.5999992489815
20
-1643.3928620694082
10
-4553.5999992489815
20
-1643.3928620694082
10
-4553.5999992489815
20
-1682.3928620694085
10
-4508.5999992489815
20
-1682.3928620694085
10
-4508.5999992489815
20
-1683.3928620694082
10
-4553.5999992489815
20
-1683.3928620694082
10
-4553.5999992489815
20
-1895.8997572812582
42
-2.4142135623730949
10
-4558.5999992489815
20
-1900.8997572812582
10
-4571.5999992489815
20
-1900.8997572812582
10
-4571.5999992489815
20
-2000.8997572812582
10
-4558.5999992489815
20
-2000.8997572812582
42
-2.4142135623730949
10
-4553.5999992489815
20
-2005.8997572812582
10
-4553.5999992489815
20
-2145.8997572812582
42
-2.4142135623730949
10
-4558.5999992489815
20
-2150.8997572812582
10
-4571.5999992489815
20
-2150.8997572812582
10
-4571.5999992489815
20
-2250.8997572812582
10
-4558.5999992489815
20
-2250.8997572812582
42
-2.4142135623730949
10
-4553.5999992489815
20
-2255.8997572812582
10
-4553.5999992489815
20
-2303.1999462842941
10
-4353.5999992489815
20
-2303.1999462842941
10
-4353.5999992489815
20
-2255.8997572812582
42
-2.4142135623730949
10
-4348.5999992489815
20
-2250.8997572812582
10
-4335.5999992489815
20
-2250.8997572812582
10
-4335.5999992489815
20
-2150.8997572812582
10
-4348.5999992489815
20
-2150.8997572812582
42
-2.4142135623730949
10
-4353.5999992489815
20
-2145.8997572812582
10
-4353.5999992489815
20
-2005.8997572812582
42
-2.4142135623730949
10
-4348.5999992489815
20
-2000.8997572812582
10
-4335.5999992489815
20
-2000.8997572812582
10
-4335.5999992489815
20
-1900.8997572812582
10
-4348.5999992489815
20
-1900.8997572812582
42
-2.4142135623730949
10
-4353.5999992489815
20
-1895.8997572812582
10
-4353.5999992489815
20
-1684.3928620694078
10
-4398.5999992489815
20
-1684.3928620694078
10
-4398.5999992489815
20
-1683.3928620694082
10
-4353.5999992489815
20
-1683.3928620694082
10
-4353.5999992489815
20
-1644.3928620694078
10
-4398.5999992489815
20
-1644.3928620694078
10
-4398.5999992489815
20
-1643.3928620694082
10
-4353.5999992489815
20
-1643.3928620694082
10
-4353.5999992489815
20
-1604.3928620694078
10
-4398.5999992489815
20
-1604.3928620694078
10
-4398.5999992489815
20
-1603.3928620694082
10
-4353.5999992489815
20
-1603.3928620694082
10
-4353.5999992489815
20
-1564.3928620694078
10
-4398.5999992489815
20
-1564.3928620694078
10
-4398.5999992489815
20
-1563.3928620694082
10
-4353.5999992489815
20
-1563.3928620694082
10
-4353.5999992489815
20
-1524.3928620694078
10
-4398.5999992489815
20
-1524.3928620694078
10
-4398.5999992489815
20
-1523.3928620694082
10
-4353.5999992489815
20
-1523.3928620694082
10
-4353.5999992489815
20
-1484.3928620694078
10
-4398.5999992489815
20
-1484.3928620694078
10
-4398.5999992489815
20
-1483.3928620694082
10
-4353.5999992489815
20
-1483.3928620694082
10
-4353.5999992489815
20
-1408.3647625836493
42
-2.4142135623730949
10
-4348.5999992489815
20
-1403.3647625836493
10
-4335.5999992489815
20
-1403.3647625836493
10
-4335.5999992489815
20
-1303.3647625836493
0
LWPOLYLINE
5
246
100
AcDbEntity
8
0
100
AcDbPolyline
90
4
70
1
43
0.0
10
-4443.5999992489815
20
-1663.3928620694082
10
-4373.5999992489815
20
-1663.3928620694082
10
-4373.5999992489815
20
-1664.3928620694078
10
-4443.5999992489815
20
-1664.3928620694078
0
LWPOLYLINE
5
247
100
AcDbEntity
8
0
100
AcDbPolyline
90
4
70
1
43
0.0
10
-4443.5999992489815
20
-1543.3928620694082
10
-4373.5999992489815
20
-1543.3928620694082
10
-4373.5999992489815
20
-1544.3928620694078
10
-4443.5999992489815
20
-1544.3928620694078
0
LWPOLYLINE
5
248
100
AcDbEntity
8
0
100
AcDbPolyline
90
4
70
1
43
0.0
10
-4533.5999992489815
20
-1663.3928620694082
10
-4463.5999992489815
20
-1663.3928620694082
10
-4463.5999992489815
20
-1664.3928620694078
10
-4533.5999992489815
20
-1664.3928620694078
0
LWPOLYLINE
5
249
100
AcDbEntity
8
0
100
AcDbPolyline
90
4
70
1
43
0.0
10
-4533.5999992489815
20
-1703.3928620694082
10
-4463.5999992489815
20
-1703.3928620694082
10
-4463.5999992489815
20
-1704.3928620694078
10
-4533.5999992489815
20
-1704.3928620694078
0
LWPOLYLINE
5
250
100
AcDbEntity
8
0
100
AcDbPolyline
90
4
70
1
43
0.0
10
-4533.5999992489815
20
-1503.3928620694082
10
-4463.5999992489815
20
-1503.3928620694082
10
-4463.5999992489815
20
-1504.3928620694078
10
-4533.5999992489815
20
-1504.3928620694078
0
LWPOLYLINE
5
251
100
AcDbEntity
8
0
100
AcDbPolyline
90
4
70
1
43
0.0
10
-4533.5999992489815
20
-1543.3928620694082
10
-4463.5999992489815
20
-1543.3928620694082
10
-4463.5999992489815
20
-1544.3928620694078
10
-4533.5999992489815
20
-1544.3928620694078
0
LWPOLYLINE
5
252
100
AcDbEntity
8
0
100
AcDbPolyline
90
4
70
1
43
0.0
10
-4488.5999992489815
20
-1483.3928620694082
10
-4418.5999992489815
20
-1483.3928620694082
10
-4418.5999992489815
20
-1484.3928620694078
10
-4488.5999992489815
20
-1484.3928620694078
0
LWPOLYLINE
5
253
100
AcDbEntity
8
0
100
AcDbPolyline
90
4
70
1
43
0.0
10
-4488.5999992489815
20
-1683.3928620694082
10
-4418.5999992489815
20
-1683.3928620694082
10
-4418.5999992489815
20
-1684.3928620694078
10
-4488.5999992489815
20
-1684.3928620694078
0
LWPOLYLINE
5
254
100
AcDbEntity
8
0
100
AcDbPolyline
90
4
70
1
43
0.0
10
-4443.5999992489815
20
-1583.3928620694082
10
-4373.5999992489815
20
-1583.3928620694082
10
-4373.5999992489815
20
-1584.3928620694078
10
-4443.5999992489815
20
-1584.3928620694078
0
LWPOLYLINE
5
255
100
AcDbEntity
8
0
100
AcDbPolyline
90
4
70
1
43
0.0
10
-4488.5999992489815
20
-1603.3928620694082
10
-4418.5999992489815
20
-1603.3928620694082
10
-4418.5999992489815
20
-1604.3928620694078
10
-4488.5999992489815
20
-1604.3928620694078
0
LWPOLYLINE
5
256
100
AcDbEntity
8
0
100
AcDbPolyline
90
4
70
1
43
0.0
10
-4443.5999992489815
20
-1503.3928620694082
10
-4373.5999992489815
20
-1503.3928620694082
10
-4373.5999992489815
20
-1504.3928620694078
10
-4443.5999992489815
20
-1504.3928620694078
0
LWPOLYLINE
5
257
100
AcDbEntity
8
0
100
AcDbPolyline
90
4
70
1
43
0.0
10
-4488.5999992489815
20
-1563.3928620694082
10
-4418.5999992489815
20
-1563.3928620694082
10
-4418.5999992489815
20
-1564.3928620694078
10
-4488.5999992489815
20
-1564.3928620694078
0
LWPOLYLINE
5
258
100
AcDbEntity
8
0
100
AcDbPolyline
90
4
70
1
43
0.0
10
-4488.5999992489815
20
-1523.3928620694082
10
-4418.5999992489815
20
-1523.3928620694082
10
-4418.5999992489815
20
-1524.3928620694078
10
-4488.5999992489815
20
-1524.3928620694078
0
LWPOLYLINE
5
259
100
AcDbEntity
8
0
100
AcDbPolyline
90
4
70
1
43
0.0
10
-4533.5999992489815
20
-1583.3928620694082
10
-4463.5999992489815
20
-1583.3928620694082
10
-4463.5999992489815
20
-1584.3928620694078
10
-4533.5999992489815
20
-1584.3928620694078
0
LWPOLYLINE
5
260
100
AcDbEntity
8
0
100
AcDbPolyline
90
4
70
1
43
0.0
10
-4533.5999992489815
20
-1623.3928620694082
10
-4463.5999992489815
20
-1623.3928620694082
10
-4463.5999992489815
20
-1624.3928620694078
10
-4533.5999992489815
20
-1624.3928620694078
0
LWPOLYLINE
5
261
100
AcDbEntity
8
0
100
AcDbPolyline
90
4
70
1
43
0.0
10
-4443.5999992489815
20
-1703.1999462842941
10
-4373.5999992489815
20
-1703.1999462842941
10
-4373.5999992489815
20
-1704.1999462842944
10
-4443.5999992489815
20
-1704.1999462842944
0
LWPOLYLINE
5
262
100
AcDbEntity
8
0
100
AcDbPolyline
90
4
70
1
43
0.0
10
-4488.5999992489815
20
-1643.3928620694082
10
-4418.5999992489815
20
-1643.3928620694082
10
-4418.5999992489815
20
-1644.3928620694078
10
-4488.5999992489815
20
-1644.3928620694078
0
LWPOLYLINE
5
263
100
AcDbEntity
8
0
100
AcDbPolyline
90
4
70
1
43
0.0
10
-4443.5999992489815
20
-1623.3928620694082
10
-4373.5999992489815
20
-1623.3928620694082
10
-4373.5999992489815
20
-1624.3928620694078
10
-4443.5999992489815
20
-1624.3928620694078
0
CIRCLE
5
264
100
AcDbEntity
8
0
100
AcDbCircle
10
-4453.5999992489815
20
-878.19994628429413
30
0
40
60
0
LWPOLYLINE
5
265
100
AcDbEntity
8
0
100
AcDbPolyline
90
100
70
1
43
0.0
10
-4813.5999992489815
20
-2148.1999462842941
42
-2.4142135623730949
10
-4818.5999992489815
20
-2153.1999462842941
10
-4831.5999992489815
20
-2153.1999462842941
10
-4831.5999992489815
20
-2253.1999462842941
10
-4818.5999992489815
20
-2253.1999462842941
42
-2.4142135623730949
10
-4813.5999992489815
20
-2258.1999462842941
10
-4813.5999992489815
20
-2303.1999462842941
10
-4613.5999992489815
20
-2303.1999462842941
10
-4613.5999992489815
20
-2258.1999462842941
42
-2.4142135623730949
10
-4608.5999992489815
20
-2253.1999462842941
10
-4595.5999992489815
20
-2253.1999462842941
10
-4595.5999992489815
20
-2153.1999462842941
10
-4608.5999992489815
20
-2153.1999462842941
42
-2.4142135623730949
10
-4613.5999992489815
20
-2148.1999462842941
10
-4613.5999992489815
20
-2008.1999462842941
42
-2.4142135623730949
10
-4608.5999992489815
20
-2003.1999462842941
10
-4595.5999992489815
20
-2003.1999462842941
10
-4595.5999992489815
20
-1903.1999462842941
10
-4608.5999992489815
20
-1903.1999462842941
42
-2.4142135623730949
10
-4613.5999992489815
20
-1898.1999462842941
10
-4613.5999992489815
20
-1784.392862069408
10
-4658.5999992489815
20
-1784.392862069408
10
-4658.5999992489815
20
-1783.3928620694082
10
-4613.5999992489815
20
-1783.3928620694082
10
-4613.5999992489815
20
-1744.392862069408
10
-4658.5999992489815
20
-1744.392862069408
10
-4658.5999992489815
20
-1743.3928620694082
10
-4613.5999992489815
20
-1743.3928620694082
10
-4613.5999992489815
20
-1704.392862069408
10
-4658.5999992489815
20
-1704.392862069408
10
-4658.5999992489815
20
-1703.3928620694082
10
-4613.5999992489815
20
-1703.3928620694082
10
-4613.5999992489815
20
-1664.392862069408
10
-4658.5999992489815
20
-1664.392862069408
10
-4658.5999992489815
20
-1663.3928620694082
10
-4613.5999992489815
20
-1663.3928620694082
10
-4613.5999992489815
20
-1624.392862069408
10
-4658.5999992489815
20
-1624.392862069408
10
-4658.5999992489815
20
-1623.3928620694082
10
-4613.5999992489815
20
-1623.3928620694082
10
-4613.5999992489815
20
-1584.392862069408
10
-4658.5999992489815
20
-1584.392862069408
10
-4658.5999992489815
20
-1583.3928620694082
10
-4613.5999992489815
20
-1583.3928620694082
10
-4613.5999992489815
20
-1358.1999462842941
42
-2.4142135623730949
10
-4608.5999992489815
20
-1353.1999462842941
10
-4595.5999992489815
20
-1353.1999462842941
10
-4595.5999992489815
20
-1253.1999462842941
10
-4608.5999992489815
20
-1253.1999462842941
42
-2.4142135623730949
10
-4613.5999992489815
20
-1248.1999462842941
10
-4613.5999992489815
20
-1108.1999462842941
42
-2.4142135623730949
10
-4608.5999992489815
20
-1103.1999462842941
10
-4595.5999992489815
20
-1103.1999462842941
10
-4595.5999992489815
20
-1003.1999462842941
10
-4608.5999992489815
20
-1003.1999462842941
42
-2.4142135623730949
10
-4613.5999992489815
20
-998.19994628429413
10
-4613.5999992489815
20
-953.19994628429413
10
-4813.5999992489815
20
-953.19994628429413
10
-4813.5999992489815
20
-998.19994628429413
42
-2.4142135623730949
10
-4818.5999992489815
20
-1003.1999462842941
10
-4831.5999992489815
20
-1003.1999462842941
10
-4831.5999992489815
20
-1103.1999462842941
10
-4818.5999992489815
20
-1103.1999462842941
42
-2.4142135623730949
10
-4813.5999992489815
20
-1108.1999462842941
10
-4813.5999992489815
20
-1248.1999462842941
42
-2.4142135623730949
10
-4818.5999992489815
20
-1253.1999462842941
10
-4831.5999992489815
20
-1253.1999462842941
10
-4831.5999992489815
20
-1353.1999462842941
10
-4818.5999992489815
20
-1353.1999462842941
42
-2.4142135623730949
10
-4813.5999992489815
20
-1358.1999462842941
10
-4813.5999992489815
20
-1582.3928620694082
10
-4768.5999992489815
20
-1582.3928620694082
10
-4768.5999992489815
20
-1583.3928620694082
10
-4813.5999992489815
20
-1583.3928620694082
10
-4813.5999992489815
20
-1622.3928620694082
10
-4768.5999992489815
20
-1622.3928620694082
10
-4768.5999992489815
20
-1623.3928620694082
10
-4813.5999992489815
20
-1623.3928620694082
10
-4813.5999992489815
20
-1662.3928620694082
10
-4768.5999992489815
20
-1662.3928620694082
10
-4768.5999992489815
20
-1663.3928620694082
10
-4813.5999992489815
20
-1663.3928620694082
10
-4813.5999992489815
20
-1702.3928620694082
10
-4768.5999992489815
20
-1702.3928620694082
10
-4768.5999992489815
20
-1703.3928620694082
10
-4813.5999992489815
20
-1703.3928620694082
10
-4813.5999992489815
20
-1742.3928620694082
10
-4768.5999992489815
20
-1742.3928620694082
10
-4768.5999992489815
20
-1743.3928620694082
10
-4813.5999992489815
20
-1743.3928620694082
10
-4813.5999992489815
20
-1782.3928620694082
10
-4768.5999992489815
20
-1782.3928620694082
10
-4768.5999992489815
20
-1783.3928620694082
10
-4813.5999992489815
20
-1783.3928620694082
10
-4813.5999992489815
20
-1898.1999462842941
42
-2.4142135623730949
10
-4818.5999992489815
20
-1903.1999462842941
10
-4831.5999992489815
20
-1903.1999462842941
10
-4831.5999992489815
20
-2003.1999462842941
10
-4818.5999992489815
20
-2003.1999462842941
42
-2.4142135623730949
10
-4813.5999992489815
20
-2008.1999462842941
0
LWPOLYLINE
5
266
100
AcDbEntity
8
0
100
AcDbPolyline
90
4
70
1
43
0.0
10
-4748.5999992489815
20
-1583.3928620694082
10
-4678.5999992489815
20
-1583.3928620694082
10
-4678.5999992489815
20
-1584.392862069408
10
-4748.5999992489815
20
-1584.392862069408
0
LWPOLYLINE
5
267
100
AcDbEntity
8
0
100
AcDbPolyline
90
4
70
1
43
0.0
10
-4703.5999992489815
20
-1803.1999462842941
10
-4633.5999992489815
20
-1803.1999462842941
10
-4633.5999992489815
20
-1804.1999462842941
10
-4703.5999992489815
20
-1804.1999462842941
0
LWPOLYLINE
5
268
100
AcDbEntity
8
0
100
AcDbPolyline
90
4
70
1
43
0.0
10
-4793.5999992489815
20
-1683.3928620694082
10
-4723.5999992489815
20
-1683.3928620694082
10
-4723.5999992489815
20
-1684.392862069408
10
-4793.5999992489815
20
-1684.392862069408
0
LWPOLYLINE
5
269
100
AcDbEntity
8
0
100
AcDbPolyline
90
4
70
1
43
0.0
10
-4793.5999992489815
20
-1803.3928620694082
10
-4723.5999992489815
20
-1803.3928620694082
10
-4723.5999992489815
20
-1804.392862069408
10
-4793.5999992489815
20
-1804.392862069408
0
LWPOLYLINE
5
270
100
AcDbEntity
8
0
100
AcDbPolyline
90
4
70
1
43
0.0
10
-4703.5999992489815
20
-1603.3928620694082
10
-4633.5999992489815
20
-1603.3928620694082
10
-4633.5999992489815
20
-1604.392862069408
10
-4703.5999992489815
20
-1604.392862069408
0
LWPOLYLINE
5
271
100
AcDbEntity
8
0
100
AcDbPolyline
90
4
70
1
43
0.0
10
-4703.5999992489815
20
-1723.3928620694082
10
-4633.5999992489815
20
-1723.3928620694082
10
-4633.5999992489815
20
-1724.392862069408
10
-4703.5999992489815
20
-1724.392862069408
0
LWPOLYLINE
5
272
100
AcDbEntity
8
0
100
AcDbPolyline
90
4
70
1
43
0.0
10
-4748.5999992489815
20
-1783.3928620694082
10
-4678.5999992489815
20
-1783.3928620694082
10
-4678.5999992489815
20
-1784.392862069408
10
-4748.5999992489815
20
-1784.392862069408
0
LWPOLYLINE
5
273
100
AcDbEntity
8
0
100
AcDbPolyline
90
4
70
1
43
0.0
10
-4748.5999992489815
20
-1663.3928620694082
10
-4678.5999992489815
20
-1663.3928620694082
10
-4678.5999992489815
20
-1664.392862069408
10
-4748.5999992489815
20
-1664.392862069408
0
LWPOLYLINE
5
274
100
AcDbEntity
8
0
100
AcDbPolyline
90
4
70
1
43
0.0
10
-4703.5999992489815
20
-1683.3928620694082
10
-4633.5999992489815
20
-1683.3928620694082
10
-4633.5999992489815
20
-1684.392862069408
10
-4703.5999992489815
20
-1684.392862069408
0
LWPOLYLINE
5
275
100
AcDbEntity
8
0
100
AcDbPolyline
90
4
70
1
43
0.0
10
-4703.5999992489815
20
-1763.3928620694082
10
-4633.5999992489815
20
-1763.3928620694082
10
-4633.5999992489815
20
-1764.392862069408
10
-4703.5999992489815
20
-1764.392862069408
0
LWPOLYLINE
5
276
100
AcDbEntity
8
0
100
AcDbPolyline
90
4
70
1
43
0.0
10
-4793.5999992489815
20
-1643.3928620694082
10
-4723.5999992489815
20
-1643.3928620694082
10
-4723.5999992489815
20
-1644.392862069408
10
-4793.5999992489815
20
-1644.392862069408
0
LWPOLYLINE
5
277
100
AcDbEntity
8
0
100
AcDbPolyline
90
4
70
1
43
0.0
10
-4748.5999992489815
20
-1703.3928620694082
10
-4678.5999992489815
20
-1703.3928620694082
10
-4678.5999992489815
20
-1704.392862069408
10
-4748.5999992489815
20
-1704.392862069408
0
LWPOLYLINE
5
278
100
AcDbEntity
8
0
100
AcDbPolyline
90
4
70
1
43
0.0
10
-4748.5999992489815
20
-1623.3928620694082
10
-4678.5999992489815
20
-1623.3928620694082
10
-4678.5999992489815
20
-1624.392862069408
10
-4748.5999992489815
20
-1624.392862069408
0
LWPOLYLINE
5
279
100
AcDbEntity
8
0
100
AcDbPolyline
90
4
70
1
43
0.0
10
-4703.5999992489815
20
-1643.3928620694082
10
-4633.5999992489815
20
-1643.3928620694082
10
-4633.5999992489815
20
-1644.392862069408
10
-4703.5999992489815
20
-1644.392862069408
0
LWPOLYLINE
5
280
100
AcDbEntity
8
0
100
AcDbPolyline
90
4
70
1
43
0.0
10
-4793.5999992489815
20
-1603.3928620694082
10
-4723.5999992489815
20
-1603.3928620694082
10
-4723.5999992489815
20
-1604.392862069408
10
-4793.5999992489815
20
-1604.392862069408
0
LWPOLYLINE
5
281
100
AcDbEntity
8
0
100
AcDbPolyline
90
4
70
1
43
0.0
10
-4793.5999992489815
20
-1763.3928620694082
10
-4723.5999992489815
20
-1763.3928620694082
10
-4723.5999992489815
20
-1764.392862069408
10
-4793.5999992489815
20
-1764.392862069408
0
LWPOLYLINE
5
282
100
AcDbEntity
8
0
100
AcDbPolyline
90
4
70
1
43
0.0
10
-4793.5999992489815
20
-1723.3928620694082
10
-4723.5999992489815
20
-1723.3928620694082
10
-4723.5999992489815
20
-1724.392862069408
10
-4793.5999992489815
20
-1724.392862069408
0
LWPOLYLINE
5
283
100
AcDbEntity
8
0
100
AcDbPolyline
90
4
70
1
43
0.0
10
-4748.5999992489815
20
-1743.3928620694082
10
-4678.5999992489815
20
-1743.3928620694082
10
-4678.5999992489815
20
-1744.392862069408
10
-4748.5999992489815
20
-1744.392862069408
0
CIRCLE
5
284
100
AcDbEntity
8
0
100
AcDbCircle
10
-4713.5999992489815
20
-1078.1999462842941
30
0
40
60
0
LWPOLYLINE
5
285
100
AcDbEntity
8
0
100
AcDbPolyline
90
10
70
1
43
0.0
10
-4912.7999520599842
20
-1808.0000440776348
42
-2.4142135623730949
10
-4907.7999520599842
20
-1803.0000440776348
10
-4899.7999520599842
20
-1803.0000440776348
42
-2.4142135623730949
10
-4894.7999520599842
20
-1808.0000440776348
10
-4894.7999520599842
20
-2303.0000440776348
10
-4844.7999520599842
20
-2303.0000440776348
10
-4844.7999520599842
20
-1303.0000440776348
10
-4962.7999520599842
20
-1303.0000440776348
10
-4962.7999520599842
20
-2303.0000440776348
10
-4912.7999520599842
20
-2303.0000440776348
0
LWPOLYLINE
5
286
100
AcDbEntity
8
0
100
AcDbPolyline
90
10
70
1
43
0.0
10
-5044.7999520599842
20
-1678.0000440776346
42
-2.4142135623729009
10
-5049.7999520599851
20
-1673.0000440776346
10
-5049.7999520599842
20
-1178.0000440776346
10
-5099.7999520599842
20
-1178.0000440776346
10
-5099.7999520599842
20
-2178.0000440776344
10
-4981.7999520599842
20
-2178.0000440776344
10
-4981.7999520599842
20
-1178.0000440776346
10
-5031.7999520599842
20
-1178.0000440776346
10
-5031.7999520599833
20
-1673.0000440776346
42
-2.4142135623730949
10
-5036.7999520599833
20
-1678.0000440776346
0
LWPOLYLINE
5
287
100
AcDbEntity
8
0
100
AcDbPolyline
90
8
70
1
43
0.0
10
-4478.1999413669118
20
-662.5999753773209
42
-2.4142135623730949
10
-4473.1999413669118
20
-667.5999753773209
10
-4473.1999413669118
20
-675.59997537732102
42
-2.4142135623730949
10
-4478.1999413669118
20
-680.59997537732102
10
-4518.1999413669118
20
-680.59997537732102
42
-2.4142135623730949
10
-4523.1999413669118
20
-675.59997537732102
10
-4523.1999413669118
20
-667.5999753773209
42
-2.4142135623730949
10
-4518.1999413669118
20
-662.5999753773209
0
LWPOLYLINE
5
288
100
AcDbEntity
8
0
100
AcDbPolyline
90
8
70
1
43
0.0
10
-4873.7999377548695
20
-898.19996103644348
42
-2.4142135623730949
10
-4868.7999377548695
20
-893.19996103644348
10
-4860.7999377548695
20
-893.19996103644348
42
-2.4142135623730949
10
-4855.7999377548695
20
-898.19996103644348
10
-4855.7999377548695
20
-988.19996103644348
42
-2.4142135623730949
10
-4860.7999377548695
20
-993.19996103644348
10
-4868.7999377548695
20
-993.19996103644348
42
-2.4142135623730949
10
-4873.7999377548695
20
-988.19996103644348
0
LWPOLYLINE
5
289
100
AcDbEntity
8
0
100
AcDbPolyline
90
8
70
1
43
0.0
10
-4573.1999413669118
20
-675.59997537732102
42
-2.4142135623730949
10
-4578.1999413669118
20
-680.59997537732102
10
-4668.1999413669118
20
-680.59997537732102
42
-2.4142135623730949
10
-4673.1999413669118
20
-675.59997537732102
10
-4673.1999413669118
20
-667.5999753773209
42
-2.4142135623730949
10
-4668.1999413669118
20
-662.5999753773209
10
-4578.1999413669118
20
-662.5999753773209
42
-2.4142135623730949
10
-4573.1999413669118
20
-667.5999753773209
0
LWPOLYLINE
5
290
100
AcDbEntity
8
0
100
AcDbPolyline
90
8
70
1
43
0.0
10
-4860.7999377548695
20
-1143.1999610364435
42
-2.4142135623730949
10
-4855.7999377548695
20
-1148.1999610364435
10
-4855.7999377548695
20
-1238.1999610364435
42
-2.4142135623730949
10
-4860.7999377548695
20
-1243.1999610364435
10
-4868.7999377548695
20
-1243.1999610364435
42
-2.4142135623730949
10
-4873.7999377548695
20
-1238.1999610364435
10
-4873.7999377548695
20
-1148.1999610364435
42
-2.4142135623730949
10
-4868.7999377548695
20
-1143.1999610364435
0
LWPOLYLINE
5
291
100
AcDbEntity
8
0
100
AcDbPolyline
90
8
70
1
43
0.0
10
-4884.7999377548686
20
-863.19996103644348
42
-0.33818137347765959
10
-4723.1999413669109
20
-651.59997537732102
10
-4423.1999413669118
20
-651.59997537732102
10
-4423.1999413669118
20
-691.59997537732102
10
-4723.1999413669118
20
-691.59997537732102
42
0.31839403992818738
10
-4844.7999377548704
20
-863.19996103644348
10
-4844.7999377548695
20
-1293.1999610364435
10
-4884.7999377548695
20
-1293.1999610364435
0
LWPOLYLINE
5
292
100
AcDbEntity
8
0
100
AcDbPolyline
90
8
70
1
43
0.0
10
-4539.7999377548676
20
-600.99997898936863
42
-2.4142135623730949
10
-4534.7999377548676
20
-605.99997898936863
10
-4534.7999377548676
20
-613.99997898936817
42
-2.4142135623730949
10
-4539.7999377548676
20
-618.99997898936817
10
-4579.7999377548676
20
-618.99997898936817
42
-2.4142135623730949
10
-4584.7999377548676
20
-613.99997898936817
10
-4584.7999377548676
20
-605.99997898936863
42
-2.4142135623730949
10
-4579.7999377548676
20
-600.99997898936863
0
LWPOLYLINE
5
293
100
AcDbEntity
8
0
100
AcDbPolyline
90
8
70
1
43
0.0
10
-4935.3999341428253
20
-836.59996464849087
42
-2.4142135623730949
10
-4930.3999341428253
20
-831.59996464849087
10
-4922.3999341428243
20
-831.59996464849087
42
-2.4142135623730949
10
-4917.3999341428243
20
-836.59996464849087
10
-4917.3999341428243
20
-926.59996464849087
42
-2.4142135623730949
10
-4922.3999341428243
20
-931.59996464849087
10
-4930.3999341428253
20
-931.59996464849087
42
-2.4142135623730949
10
-4935.3999341428253
20
-926.59996464849087
0
LWPOLYLINE
5
294
100
AcDbEntity
8
0
100
AcDbPolyline
90
8
70
1
43
0.0
10
-4634.7999377548676
20
-613.99997898936817
42
-2.4142135623730949
10
-4639.7999377548676
20
-618.99997898936817
10
-4729.7999377548676
20
-618.99997898936817
42
-2.4142135623730949
10
-4734.7999377548676
20
-613.99997898936817
10
-4734.7999377548676
20
-605.99997898936806
42
-2.4142135623730949
10
-4729.7999377548676
20
-600.99997898936806
10
-4639.7999377548676
20
-600.99997898936806
42
-2.4142135623730949
10
-4634.7999377548676
20
-605.99997898936806
0
LWPOLYLINE
5
295
100
AcDbEntity
8
0
100
AcDbPolyline
90
8
70
1
43
0.0
10
-4922.3999341428243
20
-1081.5999646484909
42
-2.4142135623730949
10
-4917.3999341428243
20
-1086.5999646484909
10
-4917.3999341428243
20
-1176.5999646484909
42
-2.4142135623730949
10
-4922.3999341428243
20
-1181.5999646484909
10
-4930.3999341428253
20
-1181.5999646484909
42
-2.4142135623730949
10
-4935.3999341428253
20
-1176.5999646484909
10
-4935.3999341428253
20
-1086.5999646484909
42
-2.4142135623730949
10
-4930.3999341428253
20
-1081.5999646484909
0
LWPOLYLINE
5
296
100
AcDbEntity
8
0
100
AcDbPolyline
90
8
70
1
43
0.0
10
-4946.3999341428243
20
-801.59996464849075
42
-0.33818137347765942
10
-4784.7999377548667
20
-589.9999789893684
10
-4484.7999377548676
20
-589.9999789893684
10
-4484.7999377548676
20
-629.9999789893684
10
-4784.7999377548676
20
-629.9999789893684
42
0.31839403992818816
10
-4906.3999341428262
20
-801.59996464849075
10
-4906.3999341428262
20
-1231.5999646484909
10
-4946.3999341428262
20
-1231.5999646484909
0
LWPOLYLINE
5
297
100
AcDbEntity
8
0
100
AcDbPolyline
90
20
70
1
43
0.0
10
-5080.9999186396599
20
-707.8040303803175
42
-2.3475193493095348
10
-5086.1999188363552
20
-712.80002877116203
10
-5093.9999186396599
20
-712.80003011226654
42
-2.4142135623730949
10
-5098.9999186396599
20
-707.80003011226654
10
-5098.9999186396599
20
-661.80003011226654
10
-5144.9999186396599
20
-661.80003011226654
42
-2.4142135623730949
10
-5149.9999186396599
20
-656.80003011226654
10
-5149.9999186396599
20
-648.80003011226654
42
-2.4142135623730949
10
-5144.9999186396599
20
-643.80003011226654
10
-5098.9999186396599
20
-643.80003011226654
10
-5098.9999186396599
20
-597.80003011226654
42
-2.4142135623730949
10
-5093.9999186396599
20
-592.80003011226654
10
-5085.9999186396599
20
-592.80003011226654
42
-2.4142135623730949
10
-5080.9999186396599
20
-597.80003011226654
10
-5080.9999186396599
20
-643.80003011226654
10
-5034.9999186396599
20
-643.80003011226654
42
-2.4142135623730949
10
-5029.9999186396599
20
-648.80003011226654
10
-5029.9999186396599
20
-656.80003011226654
42
-2.4142135623730949
10
-5034.9999186396599
20
-661.80003011226654
10
-5080.9999186396599
20
-661.80003011226654
0
CIRCLE
5
298
100
AcDbEntity
8
0
100
AcDbCircle
10
-5089.9999186396599
20
-652.80003011226654
30
0
40
150
0
LWPOLYLINE
5
299
100
AcDbEntity
8
0
100
AcDbPolyline
90
8
70
1
43
0.0
10
-4990.4000493884087
20
-2366.1999510228634
42
-0.37812178754467862
10
-5184.0000450611115
20
-2146.7999700307846
10
-5184.0000450611115
20
-1515.7999700307846
10
-5144.0000450611115
20
-1515.7999700307846
10
-5144.0000450611115
20
-2146.7999700307846
42
0.36961086359113743
10
-4990.4000493884078
20
-2326.1999510228634
10
-4490.4000493884087
20
-2326.1999510228634
10
-4490.4000493884087
20
-2366.1999510228634
0
LWPOLYLINE
5
300
100
AcDbEntity
8
0
100
AcDbPolyline
90
8
70
1
43
0.0
10
-4790.4000493884087
20
-2350.1999510228634
42
-2.4142135623730949
10
-4795.4000493884087
20
-2355.1999510228634
10
-4885.4000493884087
20
-2355.1999510228634
42
-2.4142135623731917
10
-4890.4000493884087
20
-2350.1999510228634
10
-4890.4000493884096
20
-2342.1999510228634
42
-2.4142135623729009
10
-4885.4000493884087
20
-2337.1999510228634
10
-4795.4000493884087
20
-2337.1999510228634
42
-2.4142135623731917
10
-4790.4000493884087
20
-2342.1999510228634
0
LWPOLYLINE
5
301
100
AcDbEntity
8
0
100
AcDbPolyline
90
8
70
1
43
0.0
10
-5173.0000450611115
20
-1570.7999700307846
42
-2.4142135623730949
10
-5168.0000450611115
20
-1565.7999700307846
10
-5160.0000450611115
20
-1565.7999700307846
42
-2.4142135623730949
10
-5155.0000450611115
20
-1570.7999700307846
10
-5155.0000450611115
20
-1660.7999700307846
42
-2.4142135623730949
10
-5160.0000450611115
20
-1665.7999700307846
10
-5168.0000450611115
20
-1665.7999700307846
42
-2.4142135623730949
10
-5173.0000450611115
20
-1660.7999700307846
0
LWPOLYLINE
5
302
100
AcDbEntity
8
0
100
AcDbPolyline
90
8
70
1
43
0.0
10
-5160.0000450611115
20
-1815.7999700307846
42
-2.4142135623730949
10
-5155.0000450611115
20
-1820.7999700307846
10
-5155.0000450611115
20
-1910.7999700307846
42
-2.4142135623730949
10
-5160.0000450611115
20
-1915.7999700307846
10
-5168.0000450611115
20
-1915.7999700307846
42
-2.4142135623730949
10
-5173.0000450611115
20
-1910.7999700307846
10
-5173.0000450611115
20
-1820.7999700307846
42
-2.4142135623730949
10
-5168.0000450611115
20
-1815.7999700307846
0
LWPOLYLINE
5
303
100
AcDbEntity
8
0
100
AcDbPolyline
90
8
70
1
43
0.0
10
-4635.4000493884087
20
-2355.1999510228634
42
-2.414213562373289
10
-4640.4000493884078
20
-2350.1999510228634
10
-4640.4000493884078
20
-2342.1999510228634
42
-2.414213562373289
10
-4635.4000493884087
20
-2337.1999510228634
10
-4545.4000493884087
20
-2337.1999510228634
42
-2.4142135623730949
10
-4540.4000493884087
20
-2342.1999510228634
10
-4540.4000493884078
20
-2350.1999510228634
42
-2.4142135623729009
10
-4545.4000493884087
20
-2355.1999510228634
0
LWPOLYLINE
5
304
100
AcDbEntity
8
0
100
AcDbPolyline
90
8
70
1
43
0.0
10
-4750.7284639477739
20
-2395.8715069592008
42
-2.4142135623730949
10
-4745.7284639477739
20
-2390.8715069592008
10
-4655.7284639477739
20
-2390.8715069592008
42
-2.4142135623730949
10
-4650.7284639477739
20
-2395.8715069592008
10
-4650.7284639477739
20
-2403.8715095520024
42
-2.4142135623730949
10
-4655.7284639477739
20
-2408.8715095520024
10
-4745.7284639477739
20
-2408.8715095520024
42
-2.4142135623730949
10
-4750.7284639477739
20
-2403.8715095520024
0
LWPOLYLINE
5
305
100
AcDbEntity
8
0
100
AcDbPolyline
90
8
70
1
43
0.0
10
-4400.7284639477739
20
-2403.8715095520029
42
-2.4142135623730949
10
-4405.7284639477739
20
-2408.8715095520029
10
-4495.7284639477739
20
-2408.8715095520029
42
-2.4142135623730949
10
-4500.7284639477739
20
-2403.8715095520029
10
-4500.7284639477739
20
-2395.8715069592008
42
-2.4142135623730949
10
-4495.7284639477739
20
-2390.8715069592008
10
-4405.7284639477739
20
-2390.8715069592008
42
-2.4142135623730949
10
-4400.7284639477739
20
-2395.8715069592008
0
LWPOLYLINE
5
306
100
AcDbEntity
8
0
100
AcDbPolyline
90
8
70
1
43
0.0
10
-5224.1999770402908
20
-2014.3999896645555
42
-2.4142135623730949
10
-5229.1999770402908
20
-2019.3999896645555
10
-5237.1999770402908
20
-2019.3999896645555
42
-2.4142135623730949
10
-5242.1999770402908
20
-2014.3999896645555
10
-5242.1999770402908
20
-1924.3999896645555
42
-2.4142135623730949
10
-5237.1999770402908
20
-1919.3999896645555
10
-5229.1999770402908
20
-1919.3999896645555
42
-2.4142135623730949
10
-5224.1999770402908
20
-1924.3999896645555
0
LWPOLYLINE
5
307
100
AcDbEntity
8
0
100
AcDbPolyline
90
8
70
1
43
0.0
10
-5229.1999770402908
20
-1419.3999896645555
42
-2.4142135623730949
10
-5224.1999770402908
20
-1424.3999896645555
10
-5224.1999770402908
20
-1514.3999896645555
42
-2.4142135623730949
10
-5229.1999770402908
20
-1519.3999896645555
10
-5237.1999796330947
20
-1519.3999896645555
42
-2.4142135623730949
10
-5242.1999796330947
20
-1514.3999896645555
10
-5242.1999796330947
20
-1424.3999896645555
42
-2.4142135623730949
10
-5237.1999796330947
20
-1419.3999896645555
0
LWPOLYLINE
5
308
100
AcDbEntity
8
0
100
AcDbPolyline
90
8
70
1
43
0.0
10
-5224.1999770402908
20
-1764.3999896645555
42
-2.4142135623730949
10
-5229.1999770402908
20
-1769.3999896645555
10
-5237.1999796330947
20
-1769.3999896645555
42
-2.4142135623730949
10
-5242.1999796330947
20
-1764.3999896645555
10
-5242.1999796330947
20
-1674.3999896645555
42
-2.4142135623730949
10
-5237.1999796330947
20
-1669.3999896645555
10
-5229.1999770402908
20
-1669.3999896645555
42
-2.4142135623730949
10
-5224.1999770402908
20
-1674.3999896645555
0
LWPOLYLINE
5
309
100
AcDbEntity
8
0
100
AcDbPolyline
90
8
70
1
43
0.0
10
-5000.7284639477739
20
-2395.8715095520024
42
-2.4142135623730949
10
-4995.7284639477739
20
-2390.8715095520024
10
-4905.7284639477739
20
-2390.8715095520024
42
-2.4142135623730949
10
-4900.7284639477739
20
-2395.8715095520024
10
-4900.7284639477739
20
-2403.8715095520024
42
-2.4142135623730949
10
-4905.7284639477739
20
-2408.8715095520024
10
-4995.7284639477739
20
-2408.8715095520024
42
-2.4142135623730949
10
-5000.7284639477739
20
-2403.8715095520024
0
LWPOLYLINE
5
310
100
AcDbEntity
8
0
100
AcDbPolyline
90
8
70
1
43
0.0
10
-5213.1999796330929
20
-1369.3999896645555
10
-5253.1999796330929
20
-1369.3999896645555
10
-5253.1999796330947
20
-2199.3999896645555
42
0.39165983500223939
10
-5050.1999672949323
20
-2418.7999862134466
10
-4350.1999672949323
20
-2418.7999862134466
10
-4350.1999672949323
20
-2378.7999862134466
10
-5050.1999672949332
20
-2378.7999862134457
42
-0.38644741317978959
10
-5213.1999796330929
20
-2199.3999896645555
0
ENDSEC
0
SECTION
2
OBJECTS
0
DICTIONARY
5
C
100
AcDbDictionary
3
ACAD_GROUP
350
D
3
ACAD_MLINESTYLE
350
17
0
DICTIONARY
5
D
100
AcDbDictionary
0
DICTIONARY
5
1A
330
C
100
AcDbDictionary
0
DICTIONARY
5
17
100
AcDbDictionary
0
ENDSEC
0
EOF
