0
SECTION
2
HEADER
9
$INSUNITS
70
4
9
$ACADVER
1
AC1014
9
$HANDSEED
5
FFFF
0
ENDSEC
0
SECTION
2
TABLES
0
TABLE
2
VPORT
5
8
100
AcDbSymbolTable
0
ENDTAB
0
TABLE
2
LTYPE
5
5
100
AcDbSymbolTable
0
LTYPE
5
14
100
AcDbSymbolTableRecord
100
AcDbLinetypeTableRecord
2
BYBLOCK
70
0
0
LTYPE
5
15
100
AcDbSymbolTableRecord
100
AcDbLinetypeTableRecord
2
BYLAYER
70
0
0
ENDTAB
0
TABLE
2
LAYER
5
2
100
AcDbSymbolTable
70
2
0
LAYER
5
50
100
AcDbSymbolTableRecord
100
AcDbLayerTableRecord
2
0
70
0
6
CONTINUOUS
0
ENDTAB
0
TABLE
2
STYLE
5
3
100
AcDbSymbolTable
70
1
0
STYLE
5
11
100
AcDbSymbolTableRecord
100
AcDbTextStyleTableRecord
2
STANDARD
70
0
0
ENDTAB
0
TABLE
2
VIEW
5
6
100
AcDbSymbolTable
70
0
0
ENDTAB
0
TABLE
2
UCS
5
7
100
AcDbSymbolTable
70
0
0
ENDTAB
0
TABLE
2
APPID
5
9
100
AcDbSymbolTable
70
2
0
APPID
5
12
100
AcDbSymbolTableRecord
100
AcDbRegAppTableRecord
2
ACAD
70
0
0
ENDTAB
0
TABLE
2
DIMSTYLE
5
A
100
AcDbSymbolTable
70
1
0
ENDTAB
0
TABLE
2
BLOCK_RECORD
5
1
100
AcDbSymbolTable
70
1
0
BLOCK_RECORD
5
1F
100
AcDbSymbolTableRecord
100
AcDbBlockTableRecord
2
*MODEL_SPACE
0
BLOCK_RECORD
5
1B
100
AcDbSymbolTableRecord
100
AcDbBlockTableRecord
2
*PAPER_SPACE
0
ENDTAB
0
ENDSEC
0
SECTION
2
BLOCKS
0
BLOCK
5
20
100
AcDbEntity
100
AcDbBlockBegin
2
*MODEL_SPACE
0
ENDBLK
5
21
100
AcDbEntity
100
AcDbBlockEnd
0
BLOCK
5
1C
100
AcDbEntity
100
AcDbBlockBegin
2
*PAPER_SPACE
0
ENDBLK
5
1D
100
AcDbEntity
100
AcDbBlockEnd
0
ENDSEC
0
SECTION
2
ENTITIES
0
SPLINE
5
100
100
AcDbEntity
8
0
100
AcDbSpline
70
1064
71
5
72
41
73
35
74
0
42
0.000000001
43
0.0000000001
44
0.0000000001
40
0
40
0
40
0
40
0
40
0
40
0
40
0.033333333333333333
40
0.066666666666666666
40
0.10000000000000001
40
0.13333333333333333
40
0.16666666666666666
40
0.19999999999999998
40
0.23333333333333331
40
0.26666666666666666
40
0.29999999999999999
40
0.33333333333333331
40
0.36666666666666664
40
0.39999999999999997
40
0.43333333333333329
40
0.46666666666666662
40
0.49999999999999994
40
0.53333333333333333
40
0.56666666666666665
40
0.59999999999999998
40
0.6333333333333333
40
0.66666666666666663
40
0.69999999999999996
40
0.73333333333333328
40
0.76666666666666661
40
0.79999999999999993
40
0.83333333333333326
40
0.86666666666666659
40
0.89999999999999991
40
0.93333333333333324
40
0.96666666666666656
40
1
40
1
40
1
40
1
40
1
40
1
10
-38.960516361435452
20
-20.203719186666511
30
8.8817841970012523e-15
10
-39.016308673971395
20
-19.769189572480084
30
0
10
-39.091516610402472
20
-18.897754860674787
30
-8.8817841970012523e-15
10
-39.095095236344029
20
-17.598036891494306
30
0
10
-38.883879763975322
20
-15.945248741888463
30
0
10
-38.278176896326663
20
-14.184264294374287
30
0
10
-37.358889033548472
20
-12.880097530335089
30
-8.8817841970012523e-15
10
-36.161811253502933
20
-12.13847923386332
30
8.8817841970012523e-15
10
-34.728243208707688
20
-11.989033043103049
30
-8.8817841970012523e-15
10
-33.103355773759368
20
-12.363775171695156
30
0
10
-31.337854607546234
20
-13.136670013609082
30
-8.8817841970012523e-15
10
-29.489428396894361
20
-14.156755440190258
30
-8.8817841970012523e-15
10
-27.624235798727874
20
-15.282616671098548
30
-8.8817841970012523e-15
10
-25.818754196828611
20
-16.41802515873762
30
-8.8817841970012523e-15
10
-24.160708529152323
20
-17.542099815994796
30
0
10
-22.740309689202984
20
-18.679782680122614
30
-8.8817841970012523e-15
10
-21.642246551873203
20
-19.8773576858054
30
-8.8817841970012523e-15
10
-20.937366478194686
20
-21.176451255208537
30
-8.8817841970012523e-15
10
-20.674228283957582
20
-22.58822736059647
30
0
10
-20.870779140546261
20
-24.068591389863975
30
-8.8817841970012523e-15
10
-21.517574649958423
20
-25.537470947990741
30
0
10
-22.580307791009929
20
-26.896962456883024
30
0
10
-24.002529753776859
20
-28.048812475880997
30
0
10
-25.707466812947221
20
-28.91449604072891
30
0
10
-27.604009859243458
20
-29.436991824823725
30
0
10
-29.593567664244006
20
-29.578015861304738
30
0
10
-31.576701660474797
20
-29.316897205034866
30
0
10
-33.459388361123665
20
-28.64923785602036
30
0
10
-35.160495165806161
20
-27.585251040107643
30
-8.8817841970012523e-15
10
-36.614377792863991
20
-26.15116586475358
30
-8.8817841970012523e-15
10
-37.769753726279461
20
-24.393165211858108
30
-8.8817841970012523e-15
10
-38.425793911475296
20
-22.78327116408024
30
0
10
-38.756762735186705
20
-21.504932545793267
30
-8.8817841970012523e-15
10
-38.904724048899503
20
-20.638248800852921
30
-8.8817841970012523e-15
10
-38.960516361435452
20
-20.203719186666511
30
8.8817841970012523e-15
0
SPLINE
5
101
100
AcDbEntity
8
0
100
AcDbSpline
70
1064
71
5
72
41
73
35
74
0
42
0.000000001
43
0.0000000001
44
0.0000000001
40
0
40
0
40
0
40
0
40
0
40
0
40
0.033333333333333333
40
0.066666666666666666
40
0.10000000000000001
40
0.13333333333333333
40
0.16666666666666666
40
0.19999999999999998
40
0.23333333333333331
40
0.26666666666666666
40
0.29999999999999999
40
0.33333333333333331
40
0.36666666666666664
40
0.39999999999999997
40
0.43333333333333329
40
0.46666666666666662
40
0.49999999999999994
40
0.53333333333333333
40
0.56666666666666665
40
0.59999999999999998
40
0.6333333333333333
40
0.66666666666666663
40
0.69999999999999996
40
0.73333333333333328
40
0.76666666666666661
40
0.79999999999999993
40
0.83333333333333326
40
0.86666666666666659
40
0.89999999999999991
40
0.93333333333333324
40
0.96666666666666656
40
1
40
1
40
1
40
1
40
1
40
1
10
1.5549496122722661
20
-19.447800751832826
30
0
10
1.7211099020348219
20
-19.033000311238791
30
0
10
2.073804562994531
20
-18.214204778490288
30
-8.8817841970012523e-15
10
2.6600866876262366
20
-17.029013623655974
30
8.8817841970012523e-15
10
3.545510190942446
20
-15.579863553991887
30
8.8817841970012523e-15
10
4.8113668565281973
20
-14.100034085989519
30
8.8817841970012523e-15
10
6.2251408607214778
20
-13.051870887647532
30
-8.8817841970012523e-15
10
7.7676304049278224
20
-12.508733830086342
30
0
10
9.4011239276350693
20
-12.503745871988345
30
8.8817841970012523e-15
10
11.05814082982269
20
-13.015078854212206
30
8.8817841970012523e-15
10
12.652686772063102
20
-13.980776202256743
30
-8.8817841970012523e-15
10
14.092432008189387
20
-15.31462883973478
30
-8.8817841970012523e-15
10
15.289993473922349
20
-16.920712150431992
30
8.8817841970012523e-15
10
16.17579257212747
20
-18.709795864095458
30
0
10
16.706806349810112
20
-20.610245189804353
30
0
10
16.861293072497475
20
-22.560584381740028
30
0
10
16.635981537641598
20
-24.505030454921673
30
0
10
16.042576795903599
20
-26.388052210746409
30
0
10
15.104625202868453
20
-28.14899695204727
30
-8.8817841970012523e-15
10
13.854808587478535
20
-29.717710770478519
30
0
10
12.337160589018914
20
-31.022292332848487
30
-8.8817841970012523e-15
10
10.608934413825757
20
-31.995819844230475
30
0
10
8.7428512610007374
20
-32.583621008201511
30
0
10
6.8291384017567811
20
-32.750286966239052
30
0
10
4.9784153240987781
20
-32.487477716741473
30
8.8817841970012523e-15
10
3.3074587007604803
20
-31.809534274568083
30
0
10
1.9234797614377996
20
-30.748524787373004
30
8.8817841970012523e-15
10
0.91003126324712302
20
-29.349939576974485
30
8.8817841970012523e-15
10
0.30930537238320732
20
-27.667807233361273
30
-8.8817841970012523e-15
10
0.11435124049635204
20
-25.761833675710534
30
-8.8817841970012523e-15
10
0.28700624755176318
20
-23.699437383032603
30
0
10
0.67392743269884092
20
-21.985446712843522
30
-8.8817841970012523e-15
10
1.0768428244192074
20
-20.703007422054451
30
-8.8817841970012523e-15
10
1.3887893225097125
20
-19.862601192426855
30
0
10
1.5549496122722661
20
-19.447800751832826
30
0
0
SPLINE
5
102
100
AcDbEntity
8
0
100
AcDbSpline
70
1064
71
5
72
41
73
35
74
0
42
0.000000001
43
0.0000000001
44
0.0000000001
40
0
40
0
40
0
40
0
40
0
40
0
40
0.033333333333333333
40
0.066666666666666666
40
0.10000000000000001
40
0.13333333333333333
40
0.16666666666666666
40
0.19999999999999998
40
0.23333333333333331
40
0.26666666666666666
40
0.29999999999999999
40
0.33333333333333331
40
0.36666666666666664
40
0.39999999999999997
40
0.43333333333333329
40
0.46666666666666662
40
0.49999999999999994
40
0.53333333333333333
40
0.56666666666666665
40
0.59999999999999998
40
0.6333333333333333
40
0.66666666666666663
40
0.69999999999999996
40
0.73333333333333328
40
0.76666666666666661
40
0.79999999999999993
40
0.83333333333333326
40
0.86666666666666659
40
0.89999999999999991
40
0.93333333333333324
40
0.96666666666666656
40
1
40
1
40
1
40
1
40
1
40
1
10
19.965219354363064
20
-28.138935794774383
30
0
10
20.078331863748723
20
-27.777129485565972
30
0
10
20.347430723012288
20
-27.068888402874308
30
0
10
20.876912844443414
20
-26.058981502089658
30
-8.8817841970012523e-15
10
21.816439517042589
20
-24.847285552128856
30
-8.8817841970012523e-15
10
23.30755748407427
20
-23.640892472751549
30
0
10
25.02295265430622
20
-22.820345138436036
30
-8.8817841970012523e-15
10
26.857568139795486
20
-22.443625019768056
30
8.8817841970012523e-15
10
28.700721453525308
20
-22.533135972541899
30
-8.8817841970012523e-15
10
30.443503367145812
20
-23.065275919257886
30
-8.8817841970012523e-15
10
31.987502509032218
20
-23.988249191060888
30
-8.8817841970012523e-15
10
33.254117341520256
20
-25.236868314723786
30
-8.8817841970012523e-15
10
34.192398076827317
20
-26.746558458276436
30
0
10
34.79120327768279
20
-28.471861356007473
30
-8.8817841970012523e-15
10
35.075240660038496
20
-30.384955541762334
30
0
10
35.088725901203105
20
-32.458608652887165
30
-8.8817841970012523e-15
10
34.882381333901343
20
-34.652885206274355
30
8.8817841970012523e-15
10
34.500181464154224
20
-36.901805428440689
30
8.8817841970012523e-15
10
33.963899046622878
20
-39.096008844606715
30
0
10
33.265892339888993
20
-41.078853897973708
30
0
10
32.385929341331213
20
-42.681035359863472
30
-8.8817841970012523e-15
10
31.304194707720022
20
-43.749671672026331
30
0
10
30.014556471548531
20
-44.176536020995314
30
-8.8817841970012523e-15
10
28.540888380743027
20
-43.934700045369496
30
0
10
26.941120582292729
20
-43.084169667088148
30
0
10
25.294925446272032
20
-41.737178289054356
30
-8.8817841970012523e-15
10
23.695593750154384
20
-40.03313188617534
30
0
10
22.240630871438313
20
-38.112246504601401
30
0
10
21.022252056381841
20
-36.084423727189517
30
-8.8817841970012523e-15
10
20.120723947981183
20
-34.02238142514566
30
0
10
19.600650811669688
20
-31.977743134993819
30
8.8817841970012523e-15
10
19.525138109696357
20
-30.387976980434171
30
0
10
19.668755666698324
20
-29.239726258124747
30
0
10
19.852106844977403
20
-28.500742103982795
30
8.8817841970012523e-15
10
19.965219354363064
20
-28.138935794774383
30
0
0
SPLINE
5
103
100
AcDbEntity
8
0
100
AcDbSpline
70
1064
71
5
72
46
73
40
74
0
42
0.000000001
43
0.0000000001
44
0.0000000001
40
0
40
0
40
0
40
0
40
0
40
0
40
0.028571428571428571
40
0.057142857142857141
40
0.085714285714285715
40
0.11428571428571428
40
0.14285714285714285
40
0.17142857142857143
40
0.20000000000000001
40
0.22857142857142859
40
0.25714285714285717
40
0.28571428571428575
40
0.31428571428571433
40
0.34285714285714292
40
0.3714285714285715
40
0.40000000000000008
40
0.42857142857142866
40
0.45714285714285724
40
0.48571428571428582
40
0.51428571428571435
40
0.54285714285714293
40
0.57142857142857151
40
0.60000000000000009
40
0.62857142857142867
40
0.65714285714285725
40
0.68571428571428583
40
0.71428571428571441
40
0.74285714285714299
40
0.77142857142857157
40
0.80000000000000016
40
0.82857142857142874
40
0.85714285714285732
40
0.8857142857142859
40
0.91428571428571448
40
0.94285714285714306
40
0.97142857142857164
40
1
40
1
40
1
40
1
40
1
40
1
10
-19.180142979888647
20
-30.330435505002747
30
0
10
-18.950839180877793
20
-30.087111636681939
30
0
10
-18.46449024860544
20
-29.62518903682183
30
8.8817841970012523e-15
10
-17.655330283589677
20
-29.010339942236527
30
-8.8817841970012523e-15
10
-16.434931575425928
20
-28.358881396814873
30
0
10
-14.730087780337605
20
-27.842104593424061
30
0
10
-12.909745829879357
20
-27.628211058124286
30
-8.8817841970012523e-15
10
-11.040277308734881
20
-27.71289145769838
30
0
10
-9.185895955135285
20
-28.084093140948212
30
0
10
-7.4037012994469578
20
-28.72394566847424
30
8.8817841970012523e-15
10
-5.7446429913972921
20
-29.608979980899029
30
-8.8817841970012523e-15
10
-4.2546769250524576
20
-30.710259806519467
30
0
10
-2.9759444907484225
20
-31.993413020304491
30
-8.8817841970012523e-15
10
-1.9475950264357234
20
-33.418815165687825
30
0
10
-1.2074867392957944
20
-34.941233761049034
30
0
10
-0.78972358279437826
20
-36.511710476151649
30
0
10
-0.71982302936601239
20
-38.080698282012527
30
0
10
-1.0105335743094457
20
-39.600801474086296
30
0
10
-1.6572931538783819
20
-41.029680531801191
30
0
10
-2.6336658775617652
20
-42.332931442779362
30
-8.8817841970012523e-15
10
-3.8965141465776467
20
-43.481951058110667
30
-8.8817841970012523e-15
10
-5.391199972081381
20
-44.451740959939926
30
0
10
-7.0565888717085814
20
-45.218876588528147
30
0
10
-8.8302505325424132
20
-45.759202042538035
30
8.8817841970012523e-15
10
-10.652986921245226
20
-46.04636009488209
30
-8.8817841970012523e-15
10
-12.468836618602356
20
-46.056086282933144
30
-8.8817841970012523e-15
10
-14.225552577150154
20
-45.769924755667461
30
0
10
-15.874919214123569
20
-45.179254212502741
30
-8.8817841970012523e-15
10
-17.373159392386558
20
-44.289195091582663
30
-8.8817841970012523e-15
10
-18.68135424938713
20
-43.122867060171089
30
0
10
-19.765369933957466
20
-41.718560136433908
30
0
10
-20.595804666372523
20
-40.12674096800712
30
0
10
-21.147958913688395
20
-38.407227929633592
30
0
10
-21.401897452395474
20
-36.626353014278187
30
0
10
-21.342407456769365
20
-34.854251666993122
30
8.8817841970012523e-15
10
-20.961216953209231
20
-33.161035515525981
30
0
10
-20.39980099942785
20
-31.922507572361699
30
-8.8817841970012523e-15
10
-19.840313042670552
20
-31.085132246746703
30
0
10
-19.409446778899493
20
-30.573759373323561
30
-8.8817841970012523e-15
10
-19.180142979888647
20
-30.330435505002747
30
0
0
SPLINE
5
104
100
AcDbEntity
8
0
100
AcDbSpline
70
1064
71
5
72
41
73
35
74
0
42
0.000000001
43
0.0000000001
44
0.0000000001
40
0
40
0
40
0
40
0
40
0
40
0
40
0.033333333333333333
40
0.066666666666666666
40
0.10000000000000001
40
0.13333333333333333
40
0.16666666666666666
40
0.19999999999999998
40
0.23333333333333331
40
0.26666666666666666
40
0.29999999999999999
40
0.33333333333333331
40
0.36666666666666664
40
0.39999999999999997
40
0.43333333333333329
40
0.46666666666666662
40
0.49999999999999994
40
0.53333333333333333
40
0.56666666666666665
40
0.59999999999999998
40
0.6333333333333333
40
0.66666666666666663
40
0.69999999999999996
40
0.73333333333333328
40
0.76666666666666661
40
0.79999999999999993
40
0.83333333333333326
40
0.86666666666666659
40
0.89999999999999991
40
0.93333333333333324
40
0.96666666666666656
40
1
40
1
40
1
40
1
40
1
40
1
10
-42.258045807453101
20
-32.849675154262492
30
-8.8817841970012523e-15
10
-42.040580696906879
20
-32.671568972059298
30
0
10
-41.569722115871372
20
-32.355406499026451
30
-8.8817841970012523e-15
10
-40.756731174647342
20
-32.002733562100204
30
-8.8817841970012523e-15
10
-39.471844437034079
20
-31.771991677207104
30
0
10
-37.595613482143165
20
-31.842095573989884
30
0
10
-35.540080866044612
20
-32.213739763579838
30
0
10
-33.415055552963416
20
-32.828242310959148
30
-8.8817841970012523e-15
10
-31.342387655391754
20
-33.640508615023499
30
0
10
-29.448912654501974
20
-34.632552789347486
30
0
10
-27.856224956130685
20
-35.800974282960958
30
-8.8817841970012523e-15
10
-26.670709194519858
20
-37.146152822727373
30
-8.8817841970012523e-15
10
-25.973074296425072
20
-38.660540542119335
30
0
10
-25.808417496884775
20
-40.317874563186962
30
0
10
-26.174174895339192
20
-42.060213172959251
30
0
10
-27.027891476859857
20
-43.80609131755633
30
-8.8817841970012523e-15
10
-28.297099693394294
20
-45.460991531253761
30
0
10
-29.888134537511938
20
-46.927026758520881
30
0
10
-31.695051522235374
20
-48.112569755419074
30
8.8817841970012523e-15
10
-33.608485347795437
20
-48.942883175951849
30
-8.8817841970012523e-15
10
-35.522832910494003
20
-49.363130632085173
30
-8.8817841970012523e-15
10
-37.342777532901032
20
-49.339622841772183
30
0
10
-38.990538418484469
20
-48.862074825539203
30
-8.8817841970012523e-15
10
-40.411954775085505
20
-47.945322651371107
30
0
10
-41.585816882480657
20
-46.632553053381329
30
8.8817841970012523e-15
10
-42.515788083809419
20
-44.991716029934182
30
-8.8817841970012523e-15
10
-43.217256167534686
20
-43.109830365667307
30
-8.8817841970012523e-15
10
-43.705337486411906
20
-41.088352341364107
30
-8.8817841970012523e-15
10
-43.984022952583814
20
-39.037951021088766
30
8.8817841970012523e-15
10
-44.030932147779531
20
-37.074484484868798
30
-8.8817841970012523e-15
10
-43.803113145296102
20
-35.310430346214773
30
0
10
-43.364148480882498
20
-34.137165551531801
30
0
10
-42.874512779148624
20
-33.42404359224561
30
8.8817841970012523e-15
10
-42.475510917999301
20
-33.027781336465701
30
0
10
-42.258045807453101
20
-32.849675154262492
30
-8.8817841970012523e-15
0
SPLINE
5
105
100
AcDbEntity
8
0
100
AcDbSpline
70
1064
71
5
72
12
73
6
74
0
42
0.000000001
43
0.0000000001
44
0.0000000001
40
0.26913476482495785
40
0.26913476482495785
40
0.26913476482495785
40
0.26913476482495785
40
0.26913476482495785
40
0.26913476482495785
40
0.27439007077074229
40
0.27439007077074229
40
0.27439007077074229
40
0.27439007077074229
40
0.27439007077074229
40
0.27439007077074229
10
68.37761842692953
20
-3.8295712844962027
30
8.8817841970012523e-15
10
68.424272596781435
20
-3.868283763320941
30
8.8817841970012523e-15
10
68.470582034502314
20
-3.9072436932148613
30
0
10
68.516541439324769
20
-3.9464487182889152
30
8.8817841970012523e-15
10
68.562145567128425
20
-3.9858964561626942
30
0
10
68.607389235042973
20
-4.0255844968016259
30
-8.8817841970012523e-15
0
SPLINE
5
106
100
AcDbEntity
8
0
100
AcDbSpline
70
1064
71
3
72
12
73
8
74
0
42
0.000000001
43
0.0000000001
44
0.0000000001
40
79.379253439565829
40
79.379253439565829
40
79.379253439565829
40
79.379253439565829
40
79.430800331797741
40
79.430800331797741
40
80.339306787861275
40
80.339306787861275
40
80.46647029345921
40
80.46647029345921
40
80.46647029345921
40
80.46647029345921
10
70.792416856188595
20
0.3648798639147155
30
0
10
70.758233062574419
20
0.29532262719843549
30
0
10
70.724030021719599
20
0.22577475263146018
30
-8.8817841970012523e-15
10
70.086668274696834
20
-1.0693805525599243
30
-8.8817841970012523e-15
10
69.477926477059981
20
-2.2922634651754259
30
0
10
68.779216532060872
20
-3.6839529996839393
30
8.8817841970012523e-15
10
68.693344011804186
20
-3.8547892320444732
30
0
10
68.607389235042945
20
-4.0255844968016792
30
0
0
SPLINE
5
107
100
AcDbEntity
8
0
100
AcDbSpline
70
1064
71
5
72
24
73
18
74
0
42
0.000000001
43
0.0000000001
44
0.0000000001
40
0.57084114613612524
40
0.57084114613612524
40
0.57084114613612524
40
0.57084114613612524
40
0.57084114613612524
40
0.57084114613612524
40
0.59999999999999998
40
0.6333333333333333
40
0.66666666666666663
40
0.69999999999999996
40
0.73333333333333328
40
0.76666666666666661
40
0.79999999999999993
40
0.83333333333333326
40
0.86666666666666659
40
0.89999999999999991
40
0.93333333333333324
40
0.96666666666666656
40
1
40
1
40
1
40
1
40
1
40
1
10
70.792416856188581
20
0.36487986391480431
30
0
10
70.474252988670827
20
0.40697502573076916
30
8.8817841970012523e-15
10
69.774571842943402
20
0.52066759019546494
30
8.8817841970012523e-15
10
68.649008208848443
20
0.76756943030744429
30
-8.8817841970012523e-15
10
67.052849850115649
20
1.2292832060294834
30
8.8817841970012523e-15
10
65.007129548238098
20
1.9799877626040874
30
0
10
62.996647650485542
20
2.9004624029655868
30
0
10
61.213576465213336
20
3.9675485919817688
30
8.8817841970012523e-15
10
59.793242802362542
20
5.1869684952376165
30
-8.8817841970012523e-15
10
58.851863433722244
20
6.5624141562018341
30
0
10
58.47189414264561
20
8.0829980982242926
30
0
10
58.684731560439744
20
9.7089931846439121
30
0
10
59.461115367580824
20
11.364303913317643
30
0
10
60.727871419331109
20
12.952476101237512
30
0
10
62.049428742871093
20
14.085343166872272
30
0
10
63.158240099575892
20
14.812540515437124
30
8.8817841970012523e-15
10
63.932425239551677
20
15.231939723304111
30
0
10
64.326154390553938
20
15.424175402898966
30
-8.8817841970012523e-15
0
SPLINE
5
108
100
AcDbEntity
8
0
100
AcDbSpline
70
1064
71
5
72
19
73
13
74
0
42
0.000000001
43
0.0000000001
44
0.0000000001
40
0
40
0
40
0
40
0
40
0
40
0
40
0.033333333333333333
40
0.066666666666666666
40
0.10000000000000001
40
0.13333333333333333
40
0.16666666666666666
40
0.19999999999999998
40
0.23333333333333331
40
0.24962093829675108
40
0.24962093829675108
40
0.24962093829675108
40
0.24962093829675108
40
0.24962093829675108
40
0.24962093829675108
10
64.326154390553938
20
15.424175402898966
30
-8.8817841970012523e-15
10
64.719883541556214
20
15.616411082493816
30
-8.8817841970012523e-15
10
65.520615005589534
20
15.965954593006277
30
-8.8817841970012523e-15
10
66.748884820549677
20
16.378801303474923
30
-8.8817841970012523e-15
10
68.391673319804639
20
16.685772872004531
30
-8.8817841970012523e-15
10
70.342850553543428
20
16.640305881577632
30
-8.8817841970012523e-15
10
72.098782697393517
20
16.167649128894148
30
-8.8817841970012523e-15
10
73.59053863550858
20
15.292716679497127
30
-8.8817841970012523e-15
10
74.656820174740858
20
14.186962634393756
30
0
10
75.299135532627147
20
13.149486248032305
30
0
10
75.66884437734376
20
12.339111717111802
30
0
10
75.860189619381842
20
11.834008635233603
30
-8.8817841970012523e-15
10
75.919853917732325
20
11.666193322285789
30
0
0
SPLINE
5
109
100
AcDbEntity
8
0
100
AcDbSpline
70
1064
71
3
72
16
73
12
74
0
42
0.000000001
43
0.0000000001
44
0.0000000001
40
75.273264252596519
40
75.273264252596519
40
75.273264252596519
40
75.273264252596519
40
75.745280461185317
40
75.745280461185317
40
76.262237460485551
40
76.262237460485551
40
76.428111660727708
40
76.428111660727708
40
76.593985860969866
40
76.593985860969866
40
76.626547065816098
40
76.626547065816098
40
76.626547065816098
40
76.626547065816098
10
76.592811203889568
20
17.723896712176803
30
0
10
76.579153022274639
20
17.014191115979763
30
-8.8817841970012523e-15
10
76.547831519511774
20
16.304880976733148
30
-8.8817841970012523e-15
10
76.43993448590787
20
14.82158501668602
30
-8.8817841970012523e-15
10
76.359909362566242
20
14.04676309419705
30
-8.8817841970012523e-15
10
76.20449819911147
20
13.030626710382334
30
0
10
76.16275546368675
20
12.784504099596054
30
0
10
76.068726416960786
20
12.294483634868463
30
0
10
76.016570244147644
20
12.050527546930489
30
-8.8817841970012523e-15
10
75.944518254659513
20
11.761004876167867
30
8.8817841970012523e-15
10
75.932379048013459
20
11.713553313424427
30
0
10
75.919853917732425
20
11.666193322285389
30
0
0
SPLINE
5
110
100
AcDbEntity
8
0
100
AcDbSpline
70
1064
71
5
72
16
73
10
74
0
42
0.000000001
43
0.0000000001
44
0.0000000001
40
0.84088169160522197
40
0.84088169160522197
40
0.84088169160522197
40
0.84088169160522197
40
0.84088169160522197
40
0.84088169160522197
40
0.86666666666666659
40
0.89999999999999991
40
0.93333333333333324
40
0.96666666666666656
40
1
40
1
40
1
40
1
40
1
40
1
10
76.592811203889553
20
17.723896712176831
30
0
10
76.389801799790462
20
17.895012357519068
30
0
10
75.942729606790749
20
18.30497718605568
30
0
10
75.309568054670592
20
19.00542507454259
30
0
10
74.588212737004199
20
20.06286055044804
30
0
10
73.913798341731393
20
21.508148203251906
30
-8.8817841970012523e-15
10
73.557903425738999
20
22.737940972950661
30
-8.8817841970012523e-15
10
73.409573869907121
20
23.62665109981091
30
8.8817841970012523e-15
10
73.364819286163666
20
24.191895442500069
30
0
10
73.356258495749387
20
24.466289066785176
30
-8.8817841970012523e-15
0
SPLINE
5
111
100
AcDbEntity
8
0
100
AcDbSpline
70
1064
71
5
72
15
73
9
74
0
42
0.000000001
43
0.0000000001
44
0.0000000001
40
0
40
0
40
0
40
0
40
0
40
0
40
0.033333333333333333
40
0.066666666666666666
40
0.10000000000000001
40
0.13095489475116251
40
0.13095489475116251
40
0.13095489475116251
40
0.13095489475116251
40
0.13095489475116251
40
0.13095489475116251
10
73.356258495749387
20
24.466289066785176
30
-8.8817841970012523e-15
10
73.347697705335136
20
24.740682691070276
30
-8.8817841970012523e-15
10
73.35820912742156
20
25.273012845521571
30
8.8817841970012523e-15
10
73.458576597820255
20
26.013609125310111
30
-8.8817841970012523e-15
10
73.76536601564554
20
26.8389036389678
30
0
10
74.323023189394263
20
27.431042569345529
30
-8.8817841970012523e-15
10
74.887960807629582
20
27.730924858201579
30
-8.8817841970012523e-15
10
75.326015184392887
20
27.868078386510838
30
0
10
75.552274955346974
20
27.920450067662482
30
-8.8817841970012523e-15
0
SPLINE
5
112
100
AcDbEntity
8
0
100
AcDbSpline
70
1064
71
3
72
17
73
13
74
0
42
0.000000001
43
0.0000000001
44
0.0000000001
40
71.998916891198306
40
71.998916891198306
40
71.998916891198306
40
71.998916891198306
40
72.075167240306087
40
72.075167240306087
40
72.417546401001445
40
72.417546401001445
40
72.417546401001445
40
72.576881880744253
40
72.576881880744253
40
72.736217360487061
40
72.736217360487061
40
73.010291998481037
40
73.010291998481037
40
73.010291998481037
40
73.010291998481037
10
73.93133625302886
20
32.181252989984102
30
-8.8817841970012523e-15
10
73.979894149888608
20
32.077399024828289
30
0
10
74.028283092742328
20
31.973466252896184
30
8.8817841970012523e-15
10
74.292951179658175
20
31.402394530377293
30
0
10
74.505881329136827
20
30.933931555878807
30
0
10
74.712497716260259
20
30.462112878891237
30
0
10
74.808652286819338
20
30.24253919018674
30
0
10
74.896861418240078
20
30.019492159007743
30
-8.8817841970012523e-15
10
75.062413306634411
20
29.569246969936014
30
0
10
75.139637179339331
20
29.34198319123924
30
0
10
75.337707710377828
20
28.719631661603835
30
-8.8817841970012523e-15
10
75.450018820411856
20
28.321589858163634
30
0
10
75.552274955347031
20
27.920450067662486
30
0
0
SPLINE
5
113
100
AcDbEntity
8
0
100
AcDbSpline
70
1064
71
5
72
23
73
17
74
0
42
0.000000001
43
0.0000000001
44
0.0000000001
40
0.66382891931025523
40
0.66382891931025523
40
0.66382891931025523
40
0.66382891931025523
40
0.66382891931025523
40
0.66382891931025523
40
0.68571428571428583
40
0.71428571428571441
40
0.74285714285714299
40
0.77142857142857157
40
0.80000000000000016
40
0.82857142857142874
40
0.85714285714285732
40
0.8857142857142859
40
0.91428571428571448
40
0.94285714285714306
40
0.97142857142857164
40
1
40
1
40
1
40
1
40
1
40
1
10
73.931336253028832
20
32.181252989984095
30
0
10
73.798108885102863
20
32.047815975126667
30
0
10
73.482092847318782
20
31.767209159969212
30
0
10
72.952634243758709
20
31.430914521138806
30
-8.8817841970012523e-15
10
72.148225910703204
20
31.215826029882969
30
0
10
70.985407567464705
20
31.377707636615678
30
0
10
69.637684002772332
20
31.994708388306272
30
0
10
68.220177865781039
20
32.987926189966622
30
0
10
66.808348659628933
20
34.268594523370986
30
-8.8817841970012523e-15
10
65.486934672939626
20
35.747538359619575
30
-8.8817841970012523e-15
10
64.342183673868774
20
37.354558624268876
30
0
10
63.455327979833896
20
39.036291631367178
30
0
10
62.896421796151586
20
40.749539365386667
30
-8.8817841970012523e-15
10
62.753659668181228
20
42.114896660904371
30
0
10
62.830635345290069
20
43.118583337204861
30
0
10
62.963487799798997
20
43.772727145628245
30
-8.8817841970012523e-15
10
63.049954546186235
20
44.095214730482866
30
-8.8817841970012523e-15
0
SPLINE
5
114
100
AcDbEntity
8
0
100
AcDbSpline
70
1064
71
5
72
14
73
8
74
0
42
0.000000001
43
0.0000000001
44
0.0000000001
40
0
40
0
40
0
40
0
40
0
40
0
40
0.028571428571428571
40
0.057142857142857141
40
0.08157396098276716
40
0.08157396098276716
40
0.08157396098276716
40
0.08157396098276716
40
0.08157396098276716
40
0.08157396098276716
10
63.049954546186235
20
44.095214730482866
30
-8.8817841970012523e-15
10
63.136421292573495
20
44.417702315337507
30
0
10
63.349435823613589
20
45.053508846332697
30
0
10
63.765998034305682
20
45.9301818251041
30
-8.8817841970012523e-15
10
64.332465330072978
20
46.747397655823661
30
-1.7763568394002505e-14
10
65.023132437629158
20
47.481946357434396
30
-8.8817841970012523e-15
10
65.515581254999589
20
47.918330385802378
30
-8.8817841970012523e-15
10
65.750960210367623
20
48.110252514697734
30
0
0
SPLINE
5
115
100
AcDbEntity
8
0
100
AcDbSpline
70
1064
71
3
72
12
73
8
74
0
42
0.000000001
43
0.0000000001
44
0.0000000001
40
63.965434842434888
40
63.965434842434888
40
63.965434842434888
40
63.965434842434888
40
64.586381122779699
40
64.586381122779699
40
66.047425147478137
40
66.047425147478137
40
68.028703947690445
40
68.028703947690445
40
68.028703947690445
40
68.028703947690445
10
56.860712867955179
20
64.138930573807329
30
-8.8817841970012523e-15
10
57.323052272417513
20
63.327752085972968
30
0
10
57.78382796977737
20
62.51567794251465
30
-8.8817841970012523e-15
10
59.323976166140646
20
59.790144434072261
30
0
10
60.396835394114831
20
57.873013685848491
30
-8.8817841970012523e-15
10
62.906284236010904
20
53.346439689146415
30
0
10
64.337081048288468
20
50.732816086207684
30
0
10
65.750960210367651
20
48.110252514697763
30
0
0
SPLINE
5
116
100
AcDbEntity
8
0
100
AcDbSpline
70
1064
71
5
72
25
73
19
74
0
42
0.000000001
43
0.0000000001
44
0.0000000001
40
0.55021587040691222
40
0.55021587040691222
40
0.55021587040691222
40
0.55021587040691222
40
0.55021587040691222
40
0.55021587040691222
40
0.56666666666666665
40
0.59999999999999998
40
0.6333333333333333
40
0.66666666666666663
40
0.69999999999999996
40
0.73333333333333328
40
0.76666666666666661
40
0.79999999999999993
40
0.83333333333333326
40
0.86666666666666659
40
0.89999999999999991
40
0.93333333333333324
40
0.96666666666666656
40
1
40
1
40
1
40
1
40
1
40
1
10
56.860712867955137
20
64.138930573807343
30
-8.8817841970012523e-15
10
56.745899077967827
20
63.982871129862808
30
-8.8817841970012523e-15
10
56.388750259842055
20
63.518807983624761
30
-8.8817841970012523e-15
10
55.74460054675788
20
62.786707434399254
30
-8.8817841970012523e-15
10
54.737979691553448
20
61.8679240748925
30
0
10
53.280786106577509
20
60.890505846575635
30
0
10
51.501113401071819
20
60.070334852025127
30
0
10
49.628375672406207
20
59.522988575915498
30
0
10
47.753098885928779
20
59.262917730476744
30
0
10
45.992175940967527
20
59.318364534785381
30
0
10
44.466079588812384
20
59.717835397658561
30
0
10
43.279155941376246
20
60.479142760875504
30
0
10
42.500901341724102
20
61.59855127506912
30
0
10
42.140684636919218
20
63.036518742870193
30
-1.7763568394002505e-14
10
42.158343297837234
20
64.722618191776263
30
-1.7763568394002505e-14
10
42.423010670013468
20
66.199081853544229
30
-1.7763568394002505e-14
10
42.731298439431562
20
67.334573906968544
30
-8.8817841970012523e-15
10
42.978712225297649
20
68.091506125453066
30
-8.8817841970012523e-15
10
43.112349914555502
20
68.46849488099727
30
0
0
SPLINE
5
117
100
AcDbEntity
8
0
100
AcDbSpline
70
1064
71
5
72
17
73
11
74
0
42
0.000000001
43
0.0000000001
44
0.0000000001
40
0
40
0
40
0
40
0
40
0
40
0
40
0.033333333333333333
40
0.066666666666666666
40
0.10000000000000001
40
0.13333333333333333
40
0.16666666666666666
40
0.18374247508248648
40
0.18374247508248648
40
0.18374247508248648
40
0.18374247508248648
40
0.18374247508248648
40
0.18374247508248648
10
43.112349914555502
20
68.46849488099727
30
0
10
43.245987603813383
20
68.845483636541488
30
0
10
43.533124574978729
20
69.596506440233824
30
0
10
44.020166678241083
20
70.705406127089731
30
-8.8817841970012523e-15
10
44.776961559105722
20
72.116220027785161
30
0
10
45.910647576585518
20
73.697079778647151
30
-8.8817841970012523e-15
10
47.115957752411212
20
74.904589156693007
30
0
10
48.180101796407648
20
75.662375731758999
30
8.8817841970012523e-15
10
48.999257380917797
20
76.099114971411851
30
8.8817841970012523e-15
10
49.509841168728208
20
76.321386872351653
30
-8.8817841970012523e-15
10
49.684642738653565
20
76.391925927665369
30
-8.8817841970012523e-15
0
SPLINE
5
118
100
AcDbEntity
8
0
100
AcDbSpline
70
1064
71
3
72
14
73
10
74
0
42
0.000000001
43
0.0000000001
44
0.0000000001
40
59.87068296726828
40
59.87068296726828
40
59.87068296726828
40
59.87068296726828
40
59.881208740401526
40
59.881208740401526
40
60.25006741997332
40
60.25006741997332
40
60.729583703416651
40
60.729583703416651
40
60.817430155274778
40
60.817430155274778
40
60.817430155274778
40
60.817430155274778
10
47.439606422375178
20
80.026559021536215
30
-8.8817841970012523e-15
10
47.448054223126384
20
80.013173221489922
30
0
10
47.456500241887987
20
79.999786220146106
30
1.7763568394002505e-14
10
47.760861791251948
20
79.51723168714291
30
8.8817841970012523e-15
10
48.054682619252276
20
79.046640680064186
30
0
10
48.726742646081419
20
77.961828827260874
30
0
10
49.103861393732672
20
77.346870655675588
30
-8.8817841970012523e-15
10
49.547487074494143
20
76.617811556362838
30
-8.8817841970012523e-15
10
49.616099645498977
20
76.504891673684043
30
8.8817841970012523e-15
10
49.684642738653537
20
76.391925927665355
30
-8.8817841970012523e-15
0
SPLINE
5
119
100
AcDbEntity
8
0
100
AcDbSpline
70
1064
71
5
72
23
73
17
74
0
42
0.000000001
43
0.0000000001
44
0.0000000001
40
0.53032914276277876
40
0.53032914276277876
40
0.53032914276277876
40
0.53032914276277876
40
0.53032914276277876
40
0.53032914276277876
40
0.53333333333333333
40
0.56666666666666665
40
0.59999999999999998
40
0.6333333333333333
40
0.66666666666666663
40
0.69999999999999996
40
0.73333333333333328
40
0.76666666666666661
40
0.79999999999999993
40
0.83333333333333326
40
0.86666666666666659
40
0.88185215846952225
40
0.88185215846952225
40
0.88185215846952225
40
0.88185215846952225
40
0.88185215846952225
40
0.88185215846952225
10
47.439606422375107
20
80.026559021536144
30
0
10
47.407214649102762
20
80.020500552036509
30
8.8817841970012523e-15
10
47.015136737025529
20
79.948833708917817
30
-8.8817841970012523e-15
10
46.257131040342045
20
79.848851869651497
30
-8.8817841970012523e-15
10
45.126167047852796
20
79.806895424959976
30
-1.7763568394002505e-14
10
43.634574250009628
20
79.955081564387228
30
0
10
41.873077880840967
20
80.441350938405947
30
0
10
40.226920488503815
20
81.207299373382668
30
-8.8817841970012523e-15
10
38.753666348343906
20
82.220419153136646
30
8.8817841970012523e-15
10
37.521581980886232
20
83.442195653132231
30
-8.8817841970012523e-15
10
36.604589591418581
20
84.829071499254454
30
0
10
36.069762106952645
20
86.333343137306784
30
8.8817841970012523e-15
10
35.978276949891345
20
87.732984761971295
30
-8.8817841970012523e-15
10
36.178080761266123
20
88.82620343590753
30
8.8817841970012523e-15
10
36.452354480062297
20
89.59333393421403
30
0
10
36.659374945837548
20
90.041760483610247
30
8.8817841970012523e-15
10
36.72844997597533
20
90.181403891091236
30
-8.8817841970012523e-15
0
SPLINE
5
120
100
AcDbEntity
8
0
100
AcDbSpline
70
1064
71
3
72
25
73
21
74
0
42
0.000000001
43
0.0000000001
44
0.0000000001
40
54.669937999818714
40
54.669937999818714
40
54.669937999818714
40
54.669937999818714
40
54.757114406848679
40
54.757114406848679
40
54.757114406848679
40
54.829660364908648
40
54.829660364908648
40
54.902206322968624
40
54.902206322968624
40
55.047298239088562
40
55.047298239088562
40
55.337482071328452
40
55.337482071328452
40
55.60329039591138
40
55.60329039591138
40
55.992832296315626
40
55.992832296315626
40
56.359837566892438
40
56.359837566892438
40
56.547458953102407
40
56.547458953102407
40
56.547458953102407
40
56.547458953102407
10
28.807589368988872
20
93.075537895949125
30
-8.8817841970012523e-15
10
28.937908752415002
20
93.062077827813567
30
0
10
29.068293576854174
20
93.048050273823506
30
-8.8817841970012523e-15
10
29.198712479553805
20
93.033386612423143
30
-8.8817841970012523e-15
10
29.307243727490025
20
93.021183891519598
30
-8.8817841970012523e-15
10
29.415416193138427
20
93.005602080541948
30
8.8817841970012523e-15
10
29.631141542557835
20
92.970257593971724
30
-8.8817841970012523e-15
10
29.738689912384821
20
92.950418195124556
30
-8.8817841970012523e-15
10
30.060433664224231
20
92.885947190367915
30
8.8817841970012523e-15
10
30.273733203502612
20
92.836410208570186
30
-8.8817841970012523e-15
10
30.910085323198977
20
92.673942946896787
30
-8.8817841970012523e-15
10
31.329696338912886
20
92.547218490944402
30
8.8817841970012523e-15
10
32.122536497644305
20
92.282230933892691
30
0
10
32.498220918721586
20
92.145103877759254
30
0
10
33.416958211158175
20
91.78650701869185
30
-8.8817841970012523e-15
10
33.956546155599526
20
91.555488383904276
30
0
10
34.992361055314497
20
91.079117139768755
30
0
10
35.489277719550515
20
90.835281402245442
30
0
10
36.2312459461861
20
90.450288258896663
30
-8.8817841970012523e-15
10
36.480572259599946
20
90.317278957824442
30
0
10
36.728449975975323
20
90.181403891091279
30
0
0
SPLINE
5
121
100
AcDbEntity
8
0
100
AcDbSpline
70
1064
71
5
72
36
73
30
74
0
42
0.000000001
43
0.0000000001
44
0.0000000001
40
0.1986587133217636
40
0.1986587133217636
40
0.1986587133217636
40
0.1986587133217636
40
0.1986587133217636
40
0.1986587133217636
40
0.19999999999999998
40
0.23333333333333331
40
0.26666666666666666
40
0.29999999999999999
40
0.33333333333333331
40
0.36666666666666664
40
0.39999999999999997
40
0.43333333333333329
40
0.46666666666666662
40
0.49999999999999994
40
0.53333333333333333
40
0.56666666666666665
40
0.59999999999999998
40
0.6333333333333333
40
0.66666666666666663
40
0.69999999999999996
40
0.73333333333333328
40
0.76666666666666661
40
0.79999999999999993
40
0.83333333333333326
40
0.86666666666666659
40
0.89999999999999991
40
0.93333333333333324
40
0.96666666666666656
40
0.99745247621469635
40
0.99745247621469635
40
0.99745247621469635
40
0.99745247621469635
40
0.99745247621469635
40
0.99745247621469635
10
28.807589368988879
20
93.075537895949111
30
8.8817841970012523e-15
10
28.819020138489716
20
93.066465173432377
30
-8.8817841970012523e-15
10
29.113928884815397
20
92.831382744268026
30
-8.8817841970012523e-15
10
29.661963969828836
20
92.343206813712513
30
0
10
30.380994435351351
20
91.544324286618405
30
8.8817841970012523e-15
10
31.11063586575289
20
90.374648365949895
30
0
10
31.584937728899472
20
88.833515869211865
30
-8.8817841970012523e-15
10
31.594958357913328
20
87.272601529979795
30
-8.8817841970012523e-15
10
31.140451873473417
20
85.744113214146012
30
-8.8817841970012523e-15
10
30.261962045882932
20
84.27149143914761
30
0
10
29.027520580019065
20
82.864913830904086
30
-8.8817841970012523e-15
10
27.522291031446983
20
81.533605561694188
30
0
10
25.83756537621225
20
80.29870071993426
30
-8.8817841970012523e-15
10
24.059534457499229
20
79.207439093182387
30
8.8817841970012523e-15
10
22.260077460715138
20
78.34244300300108
30
0
10
20.500984906121801
20
77.799381571319998
30
-8.8817841970012523e-15
10
18.836605566035157
20
77.668090333292213
30
-8.8817841970012523e-15
10
17.316946635511837
20
78.012783908880749
30
8.8817841970012523e-15
10
15.990733936312688
20
78.851262076558783
30
0
10
14.907840795454632
20
80.13745543765701
30
8.8817841970012523e-15
10
14.114936923867781
20
81.781318354904727
30
-8.8817841970012523e-15
10
13.651511197611798
20
83.665735029305182
30
-8.8817841970012523e-15
10
13.545904875102892
20
85.663485609597075
30
0
10
13.810582889305502
20
87.655812016459407
30
8.8817841970012523e-15
10
14.439536898729221
20
89.54440414202773
30
-8.8817841970012523e-15
10
15.396115499787982
20
91.221394396389542
30
0
10
16.394197188660836
20
92.364125678644498
30
-8.8817841970012523e-15
10
17.248518492938018
20
93.086420145052458
30
-8.8817841970012523e-15
10
17.851459214752229
20
93.501022307198866
30
-8.8817841970012523e-15
10
18.1495262850781
20
93.685658827202786
30
8.8817841970012523e-15
0
SPLINE
5
122
100
AcDbEntity
8
0
100
AcDbSpline
70
1064
71
3
72
16
73
12
74
0
42
0.000000001
43
0.0000000001
44
0.0000000001
40
45.324585782850512
40
45.324585782850512
40
45.324585782850512
40
45.324585782850512
40
45.760807577747663
40
45.760807577747663
40
47.041014775319148
40
47.041014775319148
40
48.705284132162078
40
48.705284132162078
40
50.570322572268722
40
50.570322572268722
40
52.302868573585457
40
52.302868573585457
40
52.302868573585457
40
52.302868573585457
10
-13.329358230541819
20
93.816786379289255
30
-8.8817841970012523e-15
10
-12.6729340846382
20
93.831121827857913
30
0
10
-12.016481624079647
20
93.844128228036567
30
-8.8817841970012523e-15
10
-9.433690976683236
20
93.890658567139909
30
-8.8817841970012523e-15
10
-7.5085625728123508
20
93.915198464442852
30
-1.7763568394002505e-14
10
-3.0814046721735568
20
93.952128000722752
30
-8.8817841970012523e-15
10
-0.57875554970785337
20
93.958695766016859
30
0
10
4.7283395529431624
20
93.943682720575225
30
8.8817841970012523e-15
10
7.5327823533284075
20
93.918760058669676
30
-8.8817841970012523e-15
10
12.941563203434223
20
93.831330683907368
30
-8.8817841970012523e-15
10
15.545976654328005
20
93.772674485435317
30
-8.8817841970012523e-15
10
18.149526285078103
20
93.685658827202872
30
8.8817841970012523e-15
0
SPLINE
5
123
100
AcDbEntity
8
0
100
AcDbSpline
70
1064
71
5
72
30
73
24
74
0
42
0.000000001
43
0.0000000001
44
0.0000000001
40
0.39504750342829992
40
0.39504750342829992
40
0.39504750342829992
40
0.39504750342829992
40
0.39504750342829992
40
0.39504750342829992
40
0.39999999999999997
40
0.43333333333333329
40
0.46666666666666662
40
0.49999999999999994
40
0.53333333333333333
40
0.56666666666666665
40
0.59999999999999998
40
0.6333333333333333
40
0.66666666666666663
40
0.69999999999999996
40
0.73333333333333328
40
0.76666666666666661
40
0.79999999999999993
40
0.83333333333333326
40
0.86666666666666659
40
0.89999999999999991
40
0.93333333333333324
40
0.96666666666666656
40
1
40
1
40
1
40
1
40
1
40
1
10
-13.329358230541796
20
93.816786379289141
30
-1.7763568394002505e-14
10
-13.294400887723318
20
93.770041821069512
30
8.8817841970012523e-15
10
-13.027166746786227
20
93.407453699674448
30
-8.8817841970012523e-15
10
-12.571298122496021
20
92.712186881515379
30
8.8817841970012523e-15
10
-12.035231544852689
20
91.661829674941586
30
0
10
-11.619936431543096
20
90.27312957191576
30
8.8817841970012523e-15
10
-11.617112820211041
20
88.702161787455665
30
-1.7763568394002505e-14
10
-12.131360171349421
20
87.319431359065064
30
8.8817841970012523e-15
10
-13.138365201863687
20
86.166152826571533
30
0
10
-14.57056114210603
20
85.238384619835927
30
-8.8817841970012523e-15
10
-16.330741698718512
20
84.508107855520507
30
8.8817841970012523e-15
10
-18.301985970507875
20
83.938698728713149
30
-8.8817841970012523e-15
10
-20.358735873820486
20
83.501775521581791
30
8.8817841970012523e-15
10
-22.377470964767699
20
83.195249860807337
30
8.8817841970012523e-15
10
-24.246792773226758
20
83.055610228275611
30
8.8817841970012523e-15
10
-25.872472646703205
20
83.137987257356869
30
-8.8817841970012523e-15
10
-27.183680045384236
20
83.499996015495412
30
0
10
-28.138172840371546
20
84.185060694098979
30
0
10
-28.730059696661741
20
85.203609005919958
30
8.8817841970012523e-15
10
-28.990956242391558
20
86.521889947642649
30
8.8817841970012523e-15
10
-28.974632593779539
20
87.76486532190161
30
8.8817841970012523e-15
10
-28.859242687391301
20
88.764432328355866
30
8.8817841970012523e-15
10
-28.741466120411673
20
89.447844138918526
30
-8.8817841970012523e-15
10
-28.672730036378269
20
89.792187669420457
30
-8.8817841970012523e-15
0
SPLINE
5
124
100
AcDbEntity
8
0
100
AcDbSpline
70
1064
71
5
72
13
73
7
74
0
42
0.000000001
43
0.0000000001
44
0.0000000001
40
0
40
0
40
0
40
0
40
0
40
0
40
0.033333333333333333
40
0.066157465109105598
40
0.066157465109105598
40
0.066157465109105598
40
0.066157465109105598
40
0.066157465109105598
40
0.066157465109105598
10
-28.672730036378269
20
89.792187669420457
30
-8.8817841970012523e-15
10
-28.603993952344879
20
90.136531199922402
30
-1.7763568394002505e-14
10
-28.44802663428371
20
90.825193011019465
30
8.8817841970012523e-15
10
-28.254704119388609
20
91.517860124227695
30
8.8817841970012523e-15
10
-28.02484908340481
20
92.201788916338103
30
-8.8817841970012523e-15
10
-27.756872297771274
20
92.864629004937399
30
-8.8817841970012523e-15
10
-27.614286028109611
20
93.186853209248596
30
-8.8817841970012523e-15
0
SPLINE
5
125
100
AcDbEntity
8
0
100
AcDbSpline
70
1064
71
3
72
21
73
17
74
0
42
0.000000001
43
0.0000000001
44
0.0000000001
40
41.034144472867823
40
41.034144472867823
40
41.034144472867823
40
41.034144472867823
40
41.272387202853722
40
41.272387202853722
40
41.536993887298294
40
41.536993887298294
40
41.669297229520581
40
41.669297229520581
40
41.765681225017289
40
41.765681225017289
40
41.80160057174286
40
41.80160057174286
40
41.80160057174286
40
41.975567798019171
40
41.975567798019171
40
42.154574047566847
40
42.154574047566847
40
42.154574047566847
40
42.154574047566847
10
-32.538974866807216
20
92.126622778160808
30
-2.6645352591003757e-14
10
-32.201850573993404
20
92.253138511667288
30
-8.8817841970012523e-15
10
-31.861675932601187
20
92.372283913001183
30
-8.8817841970012523e-15
10
-31.139320251176329
20
92.604749815408809
30
-8.8817841970012523e-15
10
-30.756495993987084
20
92.716055826778643
30
8.8817841970012523e-15
10
-30.177080082746439
20
92.858877582863002
30
8.8817841970012523e-15
10
-29.983050793674163
20
92.902443518240943
30
-8.8817841970012523e-15
10
-29.645713134323763
20
92.968030526738659
30
1.7763568394002505e-14
10
-29.502935098223688
20
92.992743540527925
30
-8.8817841970012523e-15
10
-29.305954367498614
20
93.02046669727082
30
1.7763568394002505e-14
10
-29.252380105562601
20
93.027352487921718
30
-8.8817841970012523e-15
10
-29.198712481087256
20
93.033386612250723
30
8.8817841970012523e-15
10
-28.938785488479457
20
93.062611527741268
30
-8.8817841970012523e-15
10
-28.678595610889278
20
93.089312735102425
30
-8.8817841970012523e-15
10
-28.150407034839713
20
93.140148035301308
30
0
10
-27.88239432112578
20
93.164164375864715
30
-8.8817841970012523e-15
10
-27.614286028109632
20
93.186853209248639
30
-8.8817841970012523e-15
0
SPLINE
5
126
100
AcDbEntity
8
0
100
AcDbSpline
70
1064
71
5
72
21
73
15
74
0
42
0.000000001
43
0.0000000001
44
0.0000000001
40
0.35709959830649446
40
0.35709959830649446
40
0.35709959830649446
40
0.35709959830649446
40
0.35709959830649446
40
0.35709959830649446
40
0.35999999999999999
40
0.39999999999999997
40
0.43999999999999995
40
0.47999999999999993
40
0.51999999999999991
40
0.55999999999999994
40
0.59999999999999998
40
0.64000000000000001
40
0.68000000000000005
40
0.70222118128402844
40
0.70222118128402844
40
0.70222118128402844
40
0.70222118128402844
40
0.70222118128402844
40
0.70222118128402844
10
-32.538974866807223
20
92.126622778160737
30
-8.8817841970012523e-15
10
-32.533805137157621
20
92.100923455992003
30
-8.8817841970012523e-15
10
-32.459290298456011
20
91.720769606135818
30
-8.8817841970012523e-15
10
-32.371179559841245
20
90.985599108861948
30
-8.8817841970012523e-15
10
-32.404689284214712
20
89.906740514119832
30
-1.7763568394002505e-14
10
-32.778834540175993
20
88.544528212800714
30
0
10
-33.736800638965548
20
87.068584101931762
30
-8.8817841970012523e-15
10
-35.127688073391447
20
85.86016936917909
30
0
10
-36.857082134011193
20
84.975092594270549
30
8.8817841970012523e-15
10
-38.809611454505031
20
84.455328205072931
30
0
10
-40.674630351971203
20
84.341553028846704
30
-8.8817841970012523e-15
10
-42.104938538200258
20
84.513698967028859
30
-8.8817841970012523e-15
10
-43.083281355207404
20
84.772702198795884
30
8.8817841970012523e-15
10
-43.652685090791181
20
84.979567588998776
30
-1.7763568394002505e-14
10
-43.852370374867547
20
85.059662535913304
30
8.8817841970012523e-15
0
SPLINE
5
127
100
AcDbEntity
8
0
100
AcDbSpline
70
1064
71
3
72
29
73
25
74
0
42
0.000000001
43
0.0000000001
44
0.0000000001
40
33.815777783153585
40
33.815777783153585
40
33.815777783153585
40
33.815777783153585
40
35.399617765714595
40
35.399617765714595
40
36.218339633618001
40
36.218339633618001
40
37.0370615015214
40
37.0370615015214
40
37.480207136837848
40
37.480207136837848
40
37.707561331434889
40
37.707561331434889
40
37.707561331434889
40
37.72517071808241
40
37.72517071808241
40
37.742780104729938
40
37.742780104729938
40
37.777998878024988
40
37.777998878024988
40
37.848436424615088
40
37.848436424615088
40
37.989311517795286
40
37.989311517795286
40
38.061471538839683
40
38.061471538839683
40
38.061471538839683
40
38.061471538839683
10
-54.111706477386491
20
68.918319605409266
30
0
10
-52.916506018632049
20
70.978154583319252
30
-8.8817841970012523e-15
10
-51.708018055088125
20
73.030162595739114
30
-1.7763568394002505e-14
10
-49.847846218162104
20
76.126716291125248
30
8.8817841970012523e-15
10
-49.208837763914218
20
77.179032271553638
30
0
10
-47.915731270415527
20
79.27422051125339
30
0
10
-47.262034713855279
20
80.317373420154738
30
2.6645352591003757e-14
10
-46.232947439454335
20
81.911286391162861
30
8.8817841970012523e-15
10
-45.867488852973459
20
82.468488888430585
30
8.8817841970012523e-15
10
-45.302953934607622
20
83.30371309582614
30
0
10
-45.109744653507917
20
83.585281187184989
30
0
10
-44.912259289817776
20
83.865224664448036
30
-8.8817841970012523e-15
10
-44.89696334978639
20
83.886907277075096
30
0
10
-44.881373625741602
20
83.908379686996454
30
-8.8817841970012523e-15
10
-44.849791122699294
20
83.951028640209202
30
0
10
-44.833794337399134
20
83.972202324283543
30
0
10
-44.785318352769636
20
84.035355896469213
30
8.8817841970012523e-15
10
-44.752358405283147
20
84.076971389237798
30
-8.8817841970012523e-15
10
-44.652085808574242
20
84.200689925091311
30
-8.8817841970012523e-15
10
-44.583394643794314
20
84.281672343884424
30
0
10
-44.373677890438081
20
84.521255926168863
30
-8.8817841970012523e-15
10
-44.229044837892303
20
84.676501535715516
30
8.8817841970012523e-15
10
-44.005940588250141
20
84.906326666063237
30
-8.8817841970012523e-15
10
-43.929533683370217
20
84.983366434523248
30
-1.7763568394002505e-14
10
-43.852370374867576
20
85.059662535913318
30
-8.8817841970012523e-15
0
SPLINE
5
128
100
AcDbEntity
8
0
100
AcDbSpline
70
1064
71
5
72
33
73
27
74
0
42
0.000000001
43
0.0000000001
44
0.0000000001
40
0.18078769854114382
40
0.18078769854114382
40
0.18078769854114382
40
0.18078769854114382
40
0.18078769854114382
40
0.18078769854114382
40
0.19999999999999998
40
0.23333333333333331
40
0.26666666666666666
40
0.29999999999999999
40
0.33333333333333331
40
0.36666666666666664
40
0.39999999999999997
40
0.43333333333333329
40
0.46666666666666662
40
0.49999999999999994
40
0.53333333333333333
40
0.56666666666666665
40
0.59999999999999998
40
0.6333333333333333
40
0.66666666666666663
40
0.69999999999999996
40
0.73333333333333328
40
0.76666666666666661
40
0.79999999999999993
40
0.83333333333333326
40
0.86666666666666659
40
0.87529782189651184
40
0.87529782189651184
40
0.87529782189651184
40
0.87529782189651184
40
0.87529782189651184
40
0.87529782189651184
10
-54.111706477386448
20
68.91831960540928
30
0
10
-53.912340282538835
20
68.923898032589776
30
-1.7763568394002505e-14
10
-53.365837856188918
20
68.921972859051436
30
-8.8817841970012523e-15
10
-52.469605599902479
20
68.842317191463266
30
8.8817841970012523e-15
10
-51.233559628896927
20
68.56139207313052
30
0
10
-49.707114767955218
20
67.918306848741253
30
8.8817841970012523e-15
10
-48.162392170745704
20
66.909656016725194
30
0
10
-46.795588913886789
20
65.645107320061712
30
0
10
-45.663146550581828
20
64.180579642415751
30
-1.7763568394002505e-14
10
-44.824356397915409
20
62.574303662878933
30
-8.8817841970012523e-15
10
-44.333784857885206
20
60.886631697033273
30
0
10
-44.23414322850526
20
59.179659163048171
30
8.8817841970012523e-15
10
-44.549228813698164
20
57.516870815946191
30
8.8817841970012523e-15
10
-45.275719951544097
20
55.962988389223383
30
0
10
-46.377907609901555
20
54.583158761752337
30
0
10
-47.796522610867115
20
53.439146921551952
30
8.8817841970012523e-15
10
-49.455459618035398
20
52.58583740598074
30
0
10
-51.268950050756828
20
52.067652636248603
30
-8.8817841970012523e-15
10
-53.148767955954739
20
51.914571681999355
30
-8.8817841970012523e-15
10
-55.010195309456513
20
52.139081344654869
30
0
10
-56.77304107687759
20
52.736994349163908
30
8.8817841970012523e-15
10
-58.363487624981985
20
53.687450595541144
30
8.8817841970012523e-15
10
-59.515259135032451
20
54.765511258338471
30
0
10
-60.240264848808707
20
55.729090706639298
30
0
10
-60.65912996721687
20
56.45003213755512
30
-8.8817841970012523e-15
10
-60.86537681553942
20
56.865713277588497
30
8.8817841970012523e-15
10
-60.906636894516183
20
56.951774373160603
30
0
0
SPLINE
5
129
100
AcDbEntity
8
0
100
AcDbSpline
70
1064
71
3
72
8
73
4
74
0
42
0.000000001
43
0.0000000001
44
0.0000000001
40
29.682840965743463
40
29.682840965743463
40
29.682840965743463
40
29.682840965743463
40
30.765075843929999
40
30.765075843929999
40
30.765075843929999
40
30.765075843929999
10
-63.271506383497254
20
52.669694231099612
30
8.8817841970012523e-15
10
-62.486116756207437
20
54.102266633248952
30
8.8817841970012523e-15
10
-61.698125970239857
20
55.528865836682222
30
-8.8817841970012523e-15
10
-60.906636894516666
20
56.951774373161577
30
-8.8817841970012523e-15
0
SPLINE
5
130
100
AcDbEntity
8
0
100
AcDbSpline
70
1064
71
5
72
23
73
17
74
0
42
0.000000001
43
0.0000000001
44
0.0000000001
40
0.32584151556532981
40
0.32584151556532981
40
0.32584151556532981
40
0.32584151556532981
40
0.32584151556532981
40
0.32584151556532981
40
0.33333333333333331
40
0.36666666666666664
40
0.39999999999999997
40
0.43333333333333329
40
0.46666666666666662
40
0.49999999999999994
40
0.53333333333333333
40
0.56666666666666665
40
0.59999999999999998
40
0.6333333333333333
40
0.66666666666666663
40
0.67457884686736014
40
0.67457884686736014
40
0.67457884686736014
40
0.67457884686736014
40
0.67457884686736014
40
0.67457884686736014
10
-63.271506383497247
20
52.669694231099548
30
8.8817841970012523e-15
10
-63.210139853433418
20
52.608669303931762
30
8.8817841970012523e-15
10
-62.879155712290419
20
52.272276714811163
30
8.8817841970012523e-15
10
-62.312461823359882
20
51.623633030464219
30
8.8817841970012523e-15
10
-61.591895833261518
20
50.592515994142687
30
8.8817841970012523e-15
10
-60.877383105167411
20
49.110033095490891
30
-8.8817841970012523e-15
10
-60.442630271384573
20
47.269832995595721
30
-8.8817841970012523e-15
10
-60.478635039037755
20
45.462653872591154
30
-8.8817841970012523e-15
10
-61.018309531223693
20
43.803106316217324
30
-8.8817841970012523e-15
10
-62.053672369472537
20
42.385921916642232
30
0
10
-63.524203069369676
20
41.271927477279618
30
0
10
-65.333585277470547
20
40.495397514135554
30
-8.8817841970012523e-15
10
-67.054278171877939
20
40.13451575064984
30
-8.8817841970012523e-15
10
-68.419578797435889
20
40.041655144199112
30
-8.8817841970012523e-15
10
-69.365609676787926
20
40.062704037895926
30
-8.8817841970012523e-15
10
-69.886340900421175
20
40.09998598724362
30
-1.7763568394002505e-14
10
-69.986120524082935
20
40.108078283527355
30
8.8817841970012523e-15
0
SPLINE
5
131
100
AcDbEntity
8
0
100
AcDbSpline
70
1064
71
3
72
10
73
6
74
0
42
0.000000001
43
0.0000000001
44
0.0000000001
40
25.520280987259572
40
25.520280987259572
40
25.520280987259572
40
25.520280987259572
40
25.988642589682378
40
25.988642589682378
40
26.540693186428907
40
26.540693186428907
40
26.540693186428907
40
26.540693186428907
10
-72.063810331870442
20
36.027695826499823
30
-8.8817841970012523e-15
10
-71.751523454597773
20
36.653128937556147
30
-8.8817841970012523e-15
10
-71.436387944480771
20
37.277472062921397
30
-8.8817841970012523e-15
10
-70.744530399607896
20
38.637230974746863
30
8.8817841970012523e-15
10
-70.366827733578134
20
39.372580436613205
30
0
10
-69.986120524082992
20
40.108078283527291
30
0
0
SPLINE
5
132
100
AcDbEntity
8
0
100
AcDbSpline
70
1064
71
5
72
31
73
25
74
0
42
0.000000001
43
0.0000000001
44
0.0000000001
40
0.1364022705406982
40
0.1364022705406982
40
0.1364022705406982
40
0.1364022705406982
40
0.1364022705406982
40
0.1364022705406982
40
0.16666666666666666
40
0.19999999999999998
40
0.23333333333333331
40
0.26666666666666666
40
0.29999999999999999
40
0.33333333333333331
40
0.36666666666666664
40
0.39999999999999997
40
0.43333333333333329
40
0.46666666666666662
40
0.49999999999999994
40
0.53333333333333333
40
0.56666666666666665
40
0.59999999999999998
40
0.6333333333333333
40
0.66666666666666663
40
0.69999999999999996
40
0.73333333333333328
40
0.76666666666666661
40
0.77489551514248001
40
0.77489551514248001
40
0.77489551514248001
40
0.77489551514248001
40
0.77489551514248001
40
0.77489551514248001
10
-72.063810331870442
20
36.027695826499794
30
-8.8817841970012523e-15
10
-71.680703930327454
20
36.080803075516251
30
0
10
-70.865507484412035
20
36.175307440562875
30
-8.8817841970012523e-15
10
-69.598642247137548
20
36.266301737566714
30
-8.8817841970012523e-15
10
-67.883302800522188
20
36.284490743834425
30
0
10
-65.817854254240032
20
36.113251511131352
30
0
10
-63.930935148420318
20
35.694165280416399
30
0
10
-62.377692937999939
20
34.984807266300606
30
0
10
-61.252679513078348
20
33.953278002766403
30
-8.8817841970012523e-15
10
-60.61578127895185
20
32.598074975248409
30
-8.8817841970012523e-15
10
-60.475657913492626
20
30.968892137220617
30
-8.8817841970012523e-15
10
-60.799432911693017
20
29.156091553238888
30
-8.8817841970012523e-15
10
-61.527976138468425
20
27.273341866410789
30
0
10
-62.589024244650361
20
25.442790404503164
30
-8.8817841970012523e-15
10
-63.910805684278891
20
23.779443059832417
30
8.8817841970012523e-15
10
-65.435829865562866
20
22.375452023046773
30
0
10
-67.115912948230005
20
21.300806905562023
30
-8.8817841970012523e-15
10
-68.906714024582513
20
20.604480302637619
30
-8.8817841970012523e-15
10
-70.762153133490415
20
20.315171983207655
30
-8.8817841970012523e-15
10
-72.629547492936766
20
20.442000674882959
30
-8.8817841970012523e-15
10
-74.169519775888716
20
20.894662526389155
30
-8.8817841970012523e-15
10
-75.277895533864765
20
21.439736971788818
30
0
10
-75.996941330139492
20
21.903469384748149
30
8.8817841970012523e-15
10
-76.378729108807107
20
22.185608074797184
30
-8.8817841970012523e-15
10
-76.453624217322002
20
22.242425516796725
30
-8.8817841970012523e-15
0
SPLINE
5
133
100
AcDbEntity
8
0
100
AcDbSpline
70
1064
71
3
72
16
73
12
74
0
42
0.000000001
43
0.0000000001
44
0.0000000001
40
20.824398658259298
40
20.824398658259298
40
20.824398658259298
40
20.824398658259298
40
20.904987107208463
40
20.904987107208463
40
21.241253144790285
40
21.241253144790285
40
21.658183650293093
40
21.658183650293093
40
22.108942241891008
40
22.108942241891008
40
22.277573868908551
40
22.277573868908551
40
22.277573868908551
40
22.277573868908551
10
-76.503145040822815
20
15.692288247047886
30
-8.8817841970012523e-15
10
-76.511623847010156
20
15.813186816944189
30
0
10
-76.519500445131683
20
15.934130142902394
30
-8.8817841970012523e-15
10
-76.557285147366912
20
16.559901327019649
30
0
10
-76.577831016114146
20
17.065164596764124
30
0
10
-76.604048407459473
20
18.197459871760891
30
0
10
-76.604960460906
20
18.824657995551256
30
0
10
-76.580097734445488
20
20.129017681790021
30
0
10
-76.552129968044682
20
20.806732864950078
30
0
10
-76.492584974647357
20
21.736592561072211
30
0
10
-76.474249498162905
20
21.989545517015593
30
8.8817841970012523e-15
10
-76.45362421732213
20
22.242425516796828
30
0
0
SPLINE
5
134
100
AcDbEntity
8
0
100
AcDbSpline
70
1064
71
5
72
28
73
22
74
0
42
0.000000001
43
0.0000000001
44
0.0000000001
40
0.089596780094023887
40
0.089596780094023887
40
0.089596780094023887
40
0.089596780094023887
40
0.089596780094023887
40
0.089596780094023887
40
0.10000000000000001
40
0.13333333333333333
40
0.16666666666666666
40
0.19999999999999998
40
0.23333333333333331
40
0.26666666666666666
40
0.29999999999999999
40
0.33333333333333331
40
0.36666666666666664
40
0.39999999999999997
40
0.43333333333333329
40
0.46666666666666662
40
0.49999999999999994
40
0.53333333333333333
40
0.56666666666666665
40
0.59999999999999998
40
0.60933644888707239
40
0.60933644888707239
40
0.60933644888707239
40
0.60933644888707239
40
0.60933644888707239
40
0.60933644888707239
10
-76.503145040822801
20
15.692288247047886
30
0
10
-76.391653339219786
20
15.728933569141812
30
0
10
-75.918632247899936
20
15.876922473835327
30
0
10
-75.054584232793232
20
16.092934673950236
30
-8.8817841970012523e-15
10
-73.753951006846378
20
16.291987002868272
30
-8.8817841970012523e-15
10
-71.995023195144086
20
16.355850707049989
30
0
10
-69.969514156932803
20
16.173008932089324
30
0
10
-68.074637855916436
20
15.737825784508191
30
-8.8817841970012523e-15
10
-66.42611471566407
20
15.048176033356999
30
-8.8817841970012523e-15
10
-65.125873738283161
20
14.102197268014038
30
0
10
-64.249796106519469
20
12.904613060155665
30
-8.8817841970012523e-15
10
-63.834241225035569
20
11.473615429064985
30
0
10
-63.864733811913084
20
9.8470565083366406
30
0
10
-64.292424715804003
20
8.07985823351226
30
0
10
-65.048756327066883
20
6.2422513669544477
30
-8.8817841970012523e-15
10
-66.059884149125367
20
4.4175994070396873
30
0
10
-67.262598917460181
20
2.7011160297904002
30
0
10
-68.420131427883732
20
1.4131194575807071
30
0
10
-69.371044757803787
20
0.59438015649876608
30
-8.8817841970012523e-15
10
-70.057684559551518
20
0.12406245747733413
30
0
10
-70.450260573133875
20
-0.10626143334877769
30
0
10
-70.536487289738758
20
-0.15501774051355
30
8.8817841970012523e-15
0
SPLINE
5
135
100
AcDbEntity
8
0
100
AcDbSpline
70
1064
71
3
72
10
73
6
74
0
42
0.000000001
43
0.0000000001
44
0.0000000001
40
15.23073267642773
40
15.23073267642773
40
15.23073267642773
40
15.23073267642773
40
15.61033295990886
40
15.61033295990886
40
17.040975269798821
40
17.040975269798821
40
17.040975269798821
40
17.040975269798821
10
-66.870722847899259
20
-7.4512814128346516
30
-8.8817841970012523e-15
10
-67.130225629973495
20
-6.9429211108469264
30
-8.8817841970012523e-15
10
-67.38911145621789
20
-6.4342474350178573
30
-8.8817841970012523e-15
10
-68.62069427742577
20
-4.0069740844807153
30
0
10
-69.58567031450427
20
-2.0847445722962887
30
0
10
-70.536487289738758
20
-0.1550177405135722
30
0
0
SPLINE
5
136
100
AcDbEntity
8
0
100
AcDbSpline
70
1064
71
5
72
16
73
10
74
0
42
0.000000001
43
0.0000000001
44
0.0000000001
40
0.28164117471527056
40
0.28164117471527056
40
0.28164117471527056
40
0.28164117471527056
40
0.28164117471527056
40
0.28164117471527056
40
0.29999999999999999
40
0.33333333333333331
40
0.36666666666666664
40
0.39999999999999997
40
0.41686207003520331
40
0.41686207003520331
40
0.41686207003520331
40
0.41686207003520331
40
0.41686207003520331
40
0.41686207003520331
10
-66.870722847899259
20
-7.4512814128346676
30
0
10
-66.717437987710866
20
-7.5772506184165529
30
0
10
-66.294297857281052
20
-7.9446046409650979
30
0
10
-65.639498343542527
20
-8.6066166361051746
30
0
10
-64.835454029552764
20
-9.6534693309321717
30
0
10
-64.123034367596873
20
-11.019945381141019
30
0
10
-63.718009039186462
20
-12.303926868977939
30
0
10
-63.548542282973642
20
-13.252272928251251
30
-8.8817841970012523e-15
10
-63.49203448440629
20
-13.828012377467825
30
8.8817841970012523e-15
10
-63.478231710199466
20
-14.021878018664587
30
0
0
SPLINE
5
137
100
AcDbEntity
8
0
100
AcDbSpline
70
1064
71
3
72
10
73
6
74
0
42
0.000000001
43
0.0000000001
44
0.0000000001
40
12.040846290475063
40
12.040846290475063
40
12.040846290475063
40
12.040846290475063
40
12.059997479080362
40
12.059997479080362
40
13.591385695933221
40
13.591385695933221
40
13.591385695933221
40
13.591385695933221
10
-60.218852340159323
20
-20.20990276512784
30
0
10
-60.232368694593845
20
-20.184477002358868
30
0
10
-60.245883819427497
20
-20.159050588289563
30
0
10
-61.340013438991711
20
-18.100398342130266
30
0
10
-62.41305821743741
20
-16.063222914332968
30
0
10
-63.478231710199474
20
-14.021878018664573
30
-8.8817841970012523e-15
0
SPLINE
5
138
100
AcDbEntity
8
0
100
AcDbSpline
70
1064
71
5
72
12
73
6
74
0
42
0.000000001
43
0.0000000001
44
0.0000000001
40
0.98976728605243691
40
0.98976728605243691
40
0.98976728605243691
40
0.98976728605243691
40
0.98976728605243691
40
0.98976728605243691
40
1
40
1
40
1
40
1
40
1
40
1
10
-60.218852340159302
20
-20.209902765127833
30
0
10
-60.16223717433391
20
-20.09141794554726
30
0
10
-60.104067519082236
20
-19.973306072867707
30
0
10
-60.044376626848823
20
-19.855631631830356
30
-8.8817841970012523e-15
10
-59.983195020408679
20
-19.738454465282789
30
-8.8817841970012523e-15
10
-59.920549765868579
20
-19.621828556687177
30
-8.8817841970012523e-15
0
SPLINE
5
139
100
AcDbEntity
8
0
100
AcDbSpline
70
1064
71
5
72
20
73
14
74
0
42
0.000000001
43
0.0000000001
44
0.0000000001
40
0
40
0
40
0
40
0
40
0
40
0
40
0.028571428571428571
40
0.057142857142857141
40
0.085714285714285715
40
0.11428571428571428
40
0.14285714285714285
40
0.17142857142857143
40
0.20000000000000001
40
0.22857142857142859
40
0.23412586971228067
40
0.23412586971228067
40
0.23412586971228067
40
0.23412586971228067
40
0.23412586971228067
40
0.23412586971228067
10
-59.920549765868579
20
-19.621828556687177
30
-8.8817841970012523e-15
10
-59.745633861387752
20
-19.296189744335638
30
-8.8817841970012523e-15
10
-59.372980304043928
20
-18.653507539715754
30
0
10
-58.749069812316812
20
-17.722321243588336
30
0
10
-57.796426847841005
20
-16.566069261925634
30
-8.8817841970012523e-15
10
-56.414139931289199
20
-15.282358916959334
30
0
10
-54.849109765980955
20
-14.162716147469315
30
-8.8817841970012523e-15
10
-53.12188693332358
20
-13.206021152952252
30
0
10
-51.275476261117198
20
-12.419263014059345
30
-8.8817841970012523e-15
10
-49.695150039414912
20
-11.927690287965081
30
0
10
-48.53305763744855
20
-11.684913070084837
30
0
10
-47.776510995950609
20
-11.591698583186519
30
0
10
-47.380378957591667
20
-11.564498375419056
30
0
10
-47.316331748449187
20
-11.560702099665942
30
0
0
LINE
5
140
100
AcDbEntity
8
0
100
AcDbLine
10
-47.316331748449194
20
-11.56070209966594
30
1.7309711777545182e-30
11
-53.799999999999997
21
-11.560702099665953
31
-8.7430063189231078e-15
0
LINE
5
141
100
AcDbEntity
8
0
100
AcDbLine
10
-53.799999999999997
20
-11.560702099665953
30
-8.7430063189231078e-15
11
-53.79999999999999
21
-8.9274864054259808
31
-9.0205620750793969e-15
0
SPLINE
5
142
100
AcDbEntity
8
0
100
AcDbSpline
70
1064
71
5
72
14
73
8
74
0
42
0.000000001
43
0.0000000001
44
0.0000000001
40
0.62005602310268371
40
0.62005602310268371
40
0.62005602310268371
40
0.62005602310268371
40
0.62005602310268371
40
0.62005602310268371
40
0.64000000000000001
40
0.68000000000000005
40
0.69441131023922109
40
0.69441131023922109
40
0.69441131023922109
40
0.69441131023922109
40
0.69441131023922109
40
0.69441131023922109
10
-53.79999999999999
20
-8.9274864054259844
30
-8.8817841970012523e-15
10
-53.999590620236162
20
-8.9768737553391205
30
8.8817841970012523e-15
10
-54.605380418786325
20
-9.106784148612844
30
0
10
-55.375530398074616
20
-9.1985310223499646
30
0
10
-56.156350150198932
20
-9.2037211165360873
30
0
10
-56.931402369642086
20
-9.1241492474037091
30
0
10
-57.489146229172626
20
-9.0219222107430515
30
0
10
-57.636092418319791
20
-8.9917889712255956
30
0
0
ARC
5
143
100
AcDbEntity
8
0
100
AcDbCircle
10
-59.999999999999993
20
-10.160702099665958
30
8.8817841970012523e-15
40
2.6371228557967008
100
AcDbArc
50
-252.36912784827894
51
26.311632668271862
0
SPLINE
5
144
100
AcDbEntity
8
0
100
AcDbSpline
70
1064
71
5
72
17
73
11
74
0
42
0.000000001
43
0.0000000001
44
0.0000000001
40
0.76207201647643197
40
0.76207201647643197
40
0.76207201647643197
40
0.76207201647643197
40
0.76207201647643197
40
0.76207201647643197
40
0.80000000000000016
40
0.84000000000000019
40
0.88000000000000023
40
0.92000000000000026
40
0.9600000000000003
40
1
40
1
40
1
40
1
40
1
40
1
10
-60.798740857272136
20
-7.6474512169466262
30
-8.8817841970012523e-15
10
-61.108918384086088
20
-7.4301922387375861
30
0
10
-61.714138190516017
20
-6.9486685867103928
30
0
10
-62.520021135099306
20
-6.1168777883259553
30
0
10
-63.339741012351887
20
-4.8220912078034415
30
8.8817841970012523e-15
10
-63.884712923722127
20
-2.9759375002984867
30
0
10
-63.934150914320639
20
-0.97395561724179291
30
0
10
-63.592255764990711
20
0.65620098809158423
30
-8.8817841970012523e-15
10
-63.142837793530227
20
1.8457702340247661
30
8.8817841970012523e-15
10
-62.765861274334327
20
2.6084663240512929
30
0
10
-62.559143553824434
20
2.9802004821878003
30
0
0
SPLINE
5
145
100
AcDbEntity
8
0
100
AcDbSpline
70
1064
71
5
72
27
73
21
74
0
42
0.000000001
43
0.0000000001
44
0.0000000001
40
0
40
0
40
0
40
0
40
0
40
0
40
0.040000000000000001
40
0.080000000000000002
40
0.12
40
0.16
40
0.20000000000000001
40
0.24000000000000002
40
0.28000000000000003
40
0.32000000000000001
40
0.35999999999999999
40
0.39999999999999997
40
0.43999999999999995
40
0.47999999999999993
40
0.51999999999999991
40
0.55999999999999994
40
0.59999999999999998
40
0.60830782609789058
40
0.60830782609789058
40
0.60830782609789058
40
0.60830782609789058
40
0.60830782609789058
40
0.60830782609789058
10
-62.559143553824434
20
2.9802004821878003
30
0
10
-62.352425833314541
20
3.3519346403243033
30
-8.8817841970012523e-15
10
-61.902531470470869
20
4.0761751828438175
30
8.8817841970012523e-15
10
-61.124983202587408
20
5.092694464994862
30
0
10
-59.910963868417497
20
6.2580907060313979
30
0
10
-58.175659049044235
20
7.2788104802531484
30
-8.8817841970012523e-15
10
-56.308065446159894
20
7.7652527610673872
30
0
10
-54.401833629352581
20
7.6550042028484349
30
0
10
-52.55962588110463
20
6.9378509766235474
30
0
10
-50.89299356056847
20
5.6692580668618007
30
8.8817841970012523e-15
10
-49.512385420278747
20
3.9522091132164974
30
0
10
-48.517975969667674
20
1.9223387177248386
30
0
10
-47.98987241478364
20
-0.26767162816009604
30
-8.8817841970012523e-15
10
-47.978492682662477
20
-2.4627875417308478
30
-8.8817841970012523e-15
10
-48.493668401668614
20
-4.5210671982597059
30
0
10
-49.508037114915894
20
-6.3179771339181192
30
-8.8817841970012523e-15
10
-50.730772188227498
20
-7.5231861231425743
30
-8.8817841970012523e-15
10
-51.841884205935564
20
-8.2142242725690906
30
-8.8817841970012523e-15
10
-52.670267447067658
20
-8.5733229653400027
30
0
10
-53.138576587278514
20
-8.7341087105626354
30
0
10
-53.2195428384195
20
-8.7607020996659415
30
0
0
LINE
5
146
100
AcDbEntity
8
0
100
AcDbLine
10
-53.2195428384195
20
-8.7607020996659415
30
-2.7417660272914834e-32
11
-29.265491977107523
21
-8.760702099665945
31
-5.5511151231257827e-16
0
SPLINE
5
147
100
AcDbEntity
8
0
100
AcDbSpline
70
1064
71
5
72
14
73
8
74
0
42
0.000000001
43
0.0000000001
44
0.0000000001
40
0.86444093213829443
40
0.86444093213829443
40
0.86444093213829443
40
0.86444093213829443
40
0.86444093213829443
40
0.86444093213829443
40
0.90000000000000024
40
0.95000000000000029
40
1
40
1
40
1
40
1
40
1
40
1
10
-29.265491977107523
20
-8.7607020996659433
30
0
10
-29.36309405259966
20
-8.4741173383601183
30
0
10
-29.558767762589969
20
-7.7686526836783267
30
0
10
-29.715787635202243
20
-6.6015812583567577
30
0
10
-29.620416656126231
20
-5.4012213704359011
30
0
10
-29.273626981194827
20
-4.2407880433401859
30
0
10
-28.890165050346759
20
-3.4337806831642084
30
0
10
-28.668289977468405
20
-3.0456233342623196
30
8.8817841970012523e-15
0
SPLINE
5
148
100
AcDbEntity
8
0
100
AcDbSpline
70
1064
71
5
72
21
73
15
74
0
42
0.000000001
43
0.0000000001
44
0.0000000001
40
0
40
0
40
0
40
0
40
0
40
0
40
0.050000000000000003
40
0.10000000000000001
40
0.15000000000000002
40
0.20000000000000001
40
0.25
40
0.29999999999999999
40
0.34999999999999998
40
0.39999999999999997
40
0.44999999999999996
40
0.49005345430850844
40
0.49005345430850844
40
0.49005345430850844
40
0.49005345430850844
40
0.49005345430850844
40
0.49005345430850844
10
-28.668289977468405
20
-3.0456233342623196
30
8.8817841970012523e-15
10
-28.44641490459005
20
-2.6574659853604321
30
0
10
-27.942376543924698
20
-1.9118439499288598
30
-8.8817841970012523e-15
10
-27.016049879354078
20
-0.9040251229991958
30
0
10
-25.497642575227331
20
0.15211669466274946
30
0
10
-23.320197669793195
20
0.8710588686790588
30
0
10
-21.082214695618802
20
0.91699227025914154
30
-8.8817841970012523e-15
10
-19.005534758521875
20
0.27575882374938021
30
-8.8817841970012523e-15
10
-17.29237976204158
20
-1.0014400576357785
30
0
10
-16.100940709836266
20
-2.7863734992546085
30
0
10
-15.56271963429192
20
-4.8122027036108879
30
-8.8817841970012523e-15
10
-15.632905137285336
20
-6.4968404993294149
30
0
10
-15.953068462684083
20
-7.7013935344901308
30
-8.8817841970012523e-15
10
-16.263852710642055
20
-8.4405745715065592
30
-8.8817841970012523e-15
10
-16.422054857644611
20
-8.7607020996659415
30
-8.8817841970012523e-15
0
LINE
5
149
100
AcDbEntity
8
0
100
AcDbLine
10
-16.422054857644611
20
-8.7607020996659415
30
-8.8817841970012492e-15
11
-13.033568232400324
21
-8.7607020996659362
31
-8.8817841970012523e-15
0
SPLINE
5
150
100
AcDbEntity
8
0
100
AcDbSpline
70
1064
71
5
72
21
73
15
74
0
42
0.000000001
43
0.0000000001
44
0.0000000001
40
0.0335677095509321
40
0.0335677095509321
40
0.0335677095509321
40
0.0335677095509321
40
0.0335677095509321
40
0.0335677095509321
40
0.066666666666666666
40
0.10000000000000001
40
0.13333333333333333
40
0.16666666666666666
40
0.19999999999999998
40
0.23333333333333331
40
0.26666666666666666
40
0.29999999999999999
40
0.33333333333333331
40
0.33471343743492227
40
0.33471343743492227
40
0.33471343743492227
40
0.33471343743492227
40
0.33471343743492227
40
0.33471343743492227
10
-13.03356823240032
20
-8.7607020996659344
30
-8.8817841970012523e-15
10
-12.84999713126113
20
-8.3906265428239042
30
0
10
-12.485744472191115
20
-7.6619405583787747
30
0
10
-11.949410784920664
20
-6.6235323894178961
30
-8.8817841970012523e-15
10
-11.237582297699749
20
-5.4084225763970366
30
0
10
-10.287615286702344
20
-4.3140340299615492
30
0
10
-9.2156558552610441
20
-3.7560342091606569
30
-8.8817841970012523e-15
10
-7.9979969266991944
20
-3.7894600275347456
30
-8.8817841970012523e-15
10
-6.6693968462426838
20
-4.387872101790995
30
-8.8817841970012523e-15
10
-5.3040041248621108
20
-5.4717117858596831
30
-8.8817841970012523e-15
10
-4.2491568554494794
20
-6.6511628643704306
30
-8.8817841970012523e-15
10
-3.5309829679986606
20
-7.6576786792609575
30
0
10
-3.0958806055937824
20
-8.3725961249255061
30
0
10
-2.8876590401034177
20
-8.7458492540689097
30
-8.8817841970012523e-15
10
-2.8794025797837328
20
-8.760702099665945
30
0
0
LINE
5
151
100
AcDbEntity
8
0
100
AcDbLine
10
-2.8794025797837328
20
-8.760702099665945
30
-5.7212758263560946e-30
11
16.299111291124071
21
-8.7607020996659397
31
0
0
SPLINE
5
152
100
AcDbEntity
8
0
100
AcDbSpline
70
1064
71
5
72
14
73
8
74
0
42
0.000000001
43
0.0000000001
44
0.0000000001
40
0.92074382548195211
40
0.92074382548195211
40
0.92074382548195211
40
0.92074382548195211
40
0.92074382548195211
40
0.92074382548195211
40
0.93333333333333324
40
0.96666666666666656
40
1
40
1
40
1
40
1
40
1
40
1
10
16.299111291124067
20
-8.7607020996659362
30
-8.8817841970012523e-15
10
16.278765421278024
20
-8.6166468833229786
30
0
10
16.214712661527841
20
-8.090853124223699
30
0
10
16.168651446647175
20
-7.1827431825265524
30
0
10
16.236643808942112
20
-6.2820098555714203
30
-8.8817841970012523e-15
10
16.420720657356686
20
-5.4030811402064565
30
8.8817841970012523e-15
10
16.656174924765843
20
-4.6877494302172735
30
8.8817841970012523e-15
10
16.793672398707042
20
-4.3371604404415383
30
8.8817841970012523e-15
0
SPLINE
5
153
100
AcDbEntity
8
0
100
AcDbSpline
70
1064
71
5
72
25
73
19
74
0
42
0.000000001
43
0.0000000001
44
0.0000000001
40
0
40
0
40
0
40
0
40
0
40
0
40
0.033333333333333333
40
0.066666666666666666
40
0.10000000000000001
40
0.13333333333333333
40
0.16666666666666666
40
0.19999999999999998
40
0.23333333333333331
40
0.26666666666666666
40
0.29999999999999999
40
0.33333333333333331
40
0.36666666666666664
40
0.39999999999999997
40
0.43333333333333329
40
0.45642201602936544
40
0.45642201602936544
40
0.45642201602936544
40
0.45642201602936544
40
0.45642201602936544
40
0.45642201602936544
10
16.793672398707042
20
-4.3371604404415383
30
8.8817841970012523e-15
10
16.931169872648237
20
-3.986571450665799
30
8.8817841970012523e-15
10
17.245705501003879
20
-3.2995472015520533
30
0
10
17.833827155552328
20
-2.3179588616817948
30
-8.8817841970012523e-15
10
18.836746815058461
20
-1.1332994520182527
30
0
10
20.400172515737029
20
0.077872590020893195
30
8.8817841970012523e-15
10
22.201488012589405
20
0.96362785934764661
30
-8.8817841970012523e-15
10
24.154600129352261
20
1.4795764340903816
30
-8.8817841970012523e-15
10
26.162085650606656
20
1.5970281948211373
30
0
10
28.117638245654476
20
1.3078503495332527
30
0
10
29.9146964469344
20
0.62251947226019455
30
-8.8817841970012523e-15
10
31.455508797906976
20
-0.43212047886670435
30
0
10
32.660074957802728
20
-1.8147862689830663
30
-8.8817841970012523e-15
10
33.475397378023843
20
-3.4716147370017292
30
8.8817841970012523e-15
10
33.859443776645392
20
-5.2231666019741212
30
0
10
33.89202673526902
20
-6.6937653054547148
30
-8.8817841970012523e-15
10
33.782250623473466
20
-7.7885439984482545
30
0
10
33.663698835129722
20
-8.4785399978604019
30
0
10
33.607122143320751
20
-8.7607020996659397
30
0
0
LINE
5
154
100
AcDbEntity
8
0
100
AcDbLine
10
33.607122143320758
20
-8.7607020996659415
30
5.4595284118781052e-30
11
40.950071626479456
21
-8.7607020996659362
31
-9.0205620750793969e-15
0
SPLINE
5
155
100
AcDbEntity
8
0
100
AcDbSpline
70
1064
71
5
72
15
73
9
74
0
42
0.000000001
43
0.0000000001
44
0.0000000001
40
0.10705584280232547
40
0.10705584280232547
40
0.10705584280232547
40
0.10705584280232547
40
0.10705584280232547
40
0.10705584280232547
40
0.13333333333333333
40
0.16666666666666666
40
0.19999999999999998
40
0.22677216528104482
40
0.22677216528104482
40
0.22677216528104482
40
0.22677216528104482
40
0.22677216528104482
40
0.22677216528104482
10
40.950071626479463
20
-8.7607020996659308
30
-8.8817841970012523e-15
10
41.210227593816512
20
-8.6153309928362827
30
0
10
41.807386478285395
20
-8.3186155386075473
30
-8.8817841970012523e-15
10
42.757990790755905
20
-7.9775820330033458
30
0
10
43.998534151627346
20
-7.8001608884697244
30
8.8817841970012523e-15
10
45.21942892540153
20
-7.9746786901712134
30
-8.8817841970012523e-15
10
46.142895254849563
20
-8.3154886529249143
30
0
10
46.721284589073164
20
-8.6131866282522278
30
0
10
46.975528082466049
20
-8.7607020996659308
30
-8.8817841970012523e-15
0
LINE
5
156
100
AcDbEntity
8
0
100
AcDbLine
10
46.975528082466049
20
-8.7607020996659308
30
-8.8817841970012381e-15
11
53.796601962383015
21
-8.7607020996659184
31
-9.0205620750793969e-15
0
SPLINE
5
157
100
AcDbEntity
8
0
100
AcDbSpline
70
1064
71
5
72
15
73
9
74
0
42
0.000000001
43
0.0000000001
44
0.0000000001
40
0.87141967684311938
40
0.87141967684311938
40
0.87141967684311938
40
0.87141967684311938
40
0.87141967684311938
40
0.87141967684311938
40
0.88000000000000023
40
0.92000000000000026
40
0.9600000000000003
40
1
40
1
40
1
40
1
40
1
40
1
10
53.796601962383015
20
-8.7607020996659184
30
0
10
53.778178551837485
20
-8.6687696063483326
30
0
10
53.680053998631685
20
-8.1486571369292022
30
-8.8817841970012523e-15
10
53.565376570237575
20
-7.20580172836722
30
8.8817841970012523e-15
10
53.574406243293865
20
-5.8733066273214458
30
0
10
53.84827952417757
20
-4.6484851769338071
30
-8.8817841970012523e-15
10
54.334915162042861
20
-3.6553708336411028
30
-8.8817841970012523e-15
10
54.757702200392359
20
-3.0722602114588837
30
0
10
54.992804451773566
20
-2.8016068098529723
30
0
0
SPLINE
5
158
100
AcDbEntity
8
0
100
AcDbSpline
70
1064
71
5
72
17
73
11
74
0
42
0.000000001
43
0.0000000001
44
0.0000000001
40
0
40
0
40
0
40
0
40
0
40
0
40
0.040000000000000001
40
0.080000000000000002
40
0.12
40
0.16
40
0.20000000000000001
40
0.21770451884617137
40
0.21770451884617137
40
0.21770451884617137
40
0.21770451884617137
40
0.21770451884617137
40
0.21770451884617137
10
54.992804451773566
20
-2.8016068098529723
30
0
10
55.227906703154765
20
-2.5309534082470742
30
8.8817841970012523e-15
10
55.745528670330003
20
-2.0314504240056785
30
-8.8817841970012523e-15
10
56.658921487904038
20
-1.4145704514464374
30
0
10
58.121319271532059
20
-0.87558473714876905
30
-8.8817841970012523e-15
10
60.250744175264892
20
-0.68500642587304705
30
-8.8817841970012523e-15
10
62.29432531978469
20
-0.92988255779295814
30
0
10
63.891343461424
20
-1.3743478133008513
30
-8.8817841970012523e-15
10
64.992969341196641
20
-1.8063926278052844
30
8.8817841970012523e-15
10
65.62465723872802
20
-2.0997407484569419
30
-8.8817841970012523e-15
10
65.816456968866518
20
-2.1932634339007628
30
-8.8817841970012523e-15
0
LINE
5
159
100
AcDbEntity
8
0
100
AcDbLine
10
65.816456968866504
20
-2.1932634339007628
30
-8.8817841970012492e-15
11
58.799043521707063
21
-16.045583680673381
31
-8.3266726846886741e-15
0
SPLINE
5
160
100
AcDbEntity
8
0
100
AcDbSpline
70
1064
71
5
72
16
73
10
74
0
42
0.000000001
43
0.0000000001
44
0.0000000001
40
0.71053080763873544
40
0.71053080763873544
40
0.71053080763873544
40
0.71053080763873544
40
0.71053080763873544
40
0.71053080763873544
40
0.72000000000000008
40
0.76000000000000012
40
0.80000000000000016
40
0.84000000000000019
40
0.87110453612334415
40
0.87110453612334415
40
0.87110453612334415
40
0.87110453612334415
40
0.87110453612334415
40
0.87110453612334415
10
58.799043521707063
20
-16.045583680673385
30
0
10
58.70951374577924
20
-15.992436476591704
30
8.8817841970012523e-15
10
58.245094084195337
20
-15.707577296424057
30
-8.8817841970012523e-15
10
57.437280247447958
20
-15.125220653514877
30
8.8817841970012523e-15
10
56.364585951613186
20
-14.119930968427886
30
-8.8817841970012523e-15
10
55.242561231284803
20
-12.63370021334347
30
0
10
54.460660569300288
20
-11.06605139530328
30
0
10
54.054170134002518
20
-9.8748142243114518
30
-8.8817841970012523e-15
10
53.867368375574323
20
-9.1108864995033052
30
-8.8817841970012523e-15
10
53.800000000000011
20
-8.7775856481384391
30
0
0
LINE
5
161
100
AcDbEntity
8
0
100
AcDbLine
10
53.800000000000011
20
-8.7775856481384409
30
-2.8746009052748548e-30
11
53.800000000000018
21
-11.560702099665935
31
-8.7430063189231078e-15
0
LINE
5
162
100
AcDbEntity
8
0
100
AcDbLine
10
53.800000000000018
20
-11.560702099665935
30
-8.7430063189231078e-15
11
50.013352035429257
21
-11.560702099665935
31
6.9388939039072284e-17
0
SPLINE
5
163
100
AcDbEntity
8
0
100
AcDbSpline
70
1064
71
5
72
33
73
27
74
0
42
0.000000001
43
0.0000000001
44
0.0000000001
40
0.2965590238657429
40
0.2965590238657429
40
0.2965590238657429
40
0.2965590238657429
40
0.2965590238657429
40
0.2965590238657429
40
0.29999999999999999
40
0.33333333333333331
40
0.36666666666666664
40
0.39999999999999997
40
0.43333333333333329
40
0.46666666666666662
40
0.49999999999999994
40
0.53333333333333333
40
0.56666666666666665
40
0.59999999999999998
40
0.6333333333333333
40
0.66666666666666663
40
0.69999999999999996
40
0.73333333333333328
40
0.76666666666666661
40
0.79999999999999993
40
0.83333333333333326
40
0.86666666666666659
40
0.89999999999999991
40
0.93333333333333324
40
0.96666666666666656
40
1
40
1
40
1
40
1
40
1
40
1
10
50.013352035429264
20
-11.560702099665942
30
0
10
50.040145141894016
20
-11.59546137702746
30
0
10
50.325533614890539
20
-11.96839382570124
30
-8.8817841970012523e-15
10
50.850036905833313
20
-12.708534089473071
30
-8.8817841970012523e-15
10
51.564905196319053
20
-13.868950539081625
30
8.8817841970012523e-15
10
52.378286874879159
20
-15.484581030343197
30
0
10
53.107544746869678
20
-17.471762560174316
30
-8.8817841970012523e-15
10
53.511090175682597
20
-19.380605527021093
30
0
10
53.529479051764
20
-21.12921656427983
30
0
10
53.119877967749019
20
-22.654248123346679
30
0
10
52.26792913517869
20
-23.913659595783876
30
-8.8817841970012523e-15
10
51.002751711823805
20
-24.891523945812672
30
-8.8817841970012523e-15
10
49.390270330769908
20
-25.590846321868334
30
-8.8817841970012523e-15
10
47.521296100882928
20
-26.02340519849816
30
0
10
45.501817455239319
20
-26.201118157517161
30
0
10
43.442249332432624
20
-26.125996453105316
30
0
10
41.448157648504058
20
-25.78321470586171
30
-8.8817841970012523e-15
10
39.617531547946491
20
-25.151968102476445
30
0
10
38.037285638712298
20
-24.214407021191704
30
0
10
36.779991270098755
20
-22.965236117765812
30
0
10
35.900266238095639
20
-21.421497046981933
30
-8.8817841970012523e-15
10
35.431375958966171
20
-19.63156436246819
30
0
10
35.38607341921864
20
-17.668576884718991
30
-8.8817841970012523e-15
10
35.682826392312911
20
-16.033706691125047
30
-8.8817841970012523e-15
10
36.080502250207971
20
-14.819027358505583
30
8.8817841970012523e-15
10
36.417214310789767
20
-14.02957948113383
30
0
10
36.60252607246796
20
-13.641867945220934
30
-8.8817841970012523e-15
0
SPLINE
5
164
100
AcDbEntity
8
0
100
AcDbSpline
70
1064
71
5
72
13
73
7
74
0
42
0.000000001
43
0.0000000001
44
0.0000000001
40
0
40
0
40
0
40
0
40
0
40
0
40
0.033333333333333333
40
0.037822665040273866
40
0.037822665040273866
40
0.037822665040273866
40
0.037822665040273866
40
0.037822665040273866
40
0.037822665040273866
10
36.60252607246796
20
-13.641867945220934
30
-8.8817841970012523e-15
10
36.787837834146146
20
-13.254156409308047
30
-8.8817841970012523e-15
10
37.017346703308711
20
-12.822184735491879
30
-8.8817841970012523e-15
10
37.267471974915509
20
-12.401723581629705
30
0
10
37.536596572792071
20
-11.995622791115357
30
-8.8817841970012523e-15
10
37.822940628051171
20
-11.606627974661066
30
0
10
37.857167599619231
20
-11.560702099665948
30
0
0
LINE
5
165
100
AcDbEntity
8
0
100
AcDbLine
10
37.857167599619231
20
-11.560702099665948
30
-3.4452535280669623e-30
11
32.726651286628552
21
-11.560702099665935
31
0
0
SPLINE
5
166
100
AcDbEntity
8
0
100
AcDbSpline
70
1064
71
5
72
23
73
17
74
0
42
0.000000001
43
0.0000000001
44
0.0000000001
40
0.5030554348643399
40
0.5030554348643399
40
0.5030554348643399
40
0.5030554348643399
40
0.5030554348643399
40
0.5030554348643399
40
0.53333333333333333
40
0.56666666666666665
40
0.59999999999999998
40
0.6333333333333333
40
0.66666666666666663
40
0.69999999999999996
40
0.73333333333333328
40
0.76666666666666661
40
0.79999999999999993
40
0.83333333333333326
40
0.86666666666666659
40
0.87090618475774517
40
0.87090618475774517
40
0.87090618475774517
40
0.87090618475774517
40
0.87090618475774517
40
0.87090618475774517
10
32.726651286628552
20
-11.560702099665933
30
0
10
32.574788481512186
20
-11.912371412838889
30
-8.8817841970012523e-15
10
32.231913242441621
20
-12.639250500035592
30
0
10
31.636679866808631
20
-13.70071636964229
30
0
10
30.702658945904314
20
-14.997078561741494
30
-8.8817841970012523e-15
10
29.338936525827897
20
-16.318407102569406
30
-8.8817841970012523e-15
10
27.79030827945639
20
-17.263809394274585
30
0
10
26.125940796693104
20
-17.749815835293045
30
0
10
24.397113306210741
20
-17.748517535323693
30
-8.8817841970012523e-15
10
22.666507784878334
20
-17.273376590938373
30
0
10
21.004269871319817
20
-16.37027159409547
30
-8.8817841970012523e-15
10
19.483356746014337
20
-15.106915555701617
30
-8.8817841970012523e-15
10
18.403535699030002
20
-13.832676766890881
30
8.8817841970012523e-15
10
17.721304786067364
20
-12.770223510053979
30
0
10
17.328927228980252
20
-12.014677484530891
30
0
10
17.142273993602707
20
-11.606816030756207
30
-8.8817841970012523e-15
10
17.121485399312153
20
-11.56070209966594
30
8.8817841970012523e-15
0
LINE
5
167
100
AcDbEntity
8
0
100
AcDbLine
10
17.121485399312157
20
-11.560702099665942
30
8.8817841970012507e-15
11
-1.7170869775055175
21
-11.560702099665946
31
8.8817841970012523e-15
0
SPLINE
5
168
100
AcDbEntity
8
0
100
AcDbSpline
70
1064
71
5
72
30
73
24
74
0
42
0.000000001
43
0.0000000001
44
0.0000000001
40
0.38437439012620633
40
0.38437439012620633
40
0.38437439012620633
40
0.38437439012620633
40
0.38437439012620633
40
0.38437439012620633
40
0.39999999999999997
40
0.43333333333333329
40
0.46666666666666662
40
0.49999999999999994
40
0.53333333333333333
40
0.56666666666666665
40
0.59999999999999998
40
0.6333333333333333
40
0.66666666666666663
40
0.69999999999999996
40
0.73333333333333328
40
0.76666666666666661
40
0.79999999999999993
40
0.83333333333333326
40
0.86666666666666659
40
0.89999999999999991
40
0.93333333333333324
40
0.96666666666666656
40
0.98502376741930453
40
0.98502376741930453
40
0.98502376741930453
40
0.98502376741930453
40
0.98502376741930453
40
0.98502376741930453
10
-1.7170869775055231
20
-11.560702099665924
30
0
10
-1.6665997401496424
20
-11.742255030985902
30
8.8817841970012523e-15
10
-1.5206019063696619
20
-12.312503064841568
30
-8.8817841970012523e-15
10
-1.3408996757187508
20
-13.276423067511926
30
0
10
-1.2536190704801153
20
-14.629753898537798
30
0
10
-1.4609421679934409
20
-16.332849255127513
30
0
10
-2.1152352460452937
20
-18.128225540464275
30
8.8817841970012523e-15
10
-3.1763018448735734
20
-19.751600845602617
30
0
10
-4.6020099321189036
20
-21.134912999495121
30
0
10
-6.3260075608931086
20
-22.212977002231415
30
0
10
-8.2593888439774279
20
-22.930420906409871
30
-8.8817841970012523e-15
10
-10.292068208855678
20
-23.249931788292994
30
0
10
-12.29481066350996
20
-23.15938070433285
30
-8.8817841970012523e-15
10
-14.118805956538761
20
-22.681695800659298
30
0
10
-15.615546196070863
20
-21.864936000839133
30
0
10
-16.661523417907684
20
-20.768445827181274
30
0
10
-17.179568118436993
20
-19.451403862304563
30
0
10
-17.166346289964423
20
-17.958483093374838
30
0
10
-16.704278200253576
20
-16.312870355917696
30
-8.8817841970012523e-15
10
-15.993199448128994
20
-14.692270611124595
30
0
10
-15.329939064633461
20
-13.358054923321596
30
-8.8817841970012523e-15
10
-14.833994706712064
20
-12.375980905419727
30
0
10
-14.531224939918753
20
-11.7745938822385
30
0
10
-14.423758476203679
20
-11.560702099665933
30
0
0
LINE
5
169
100
AcDbEntity
8
0
100
AcDbLine
10
-14.423758476203679
20
-11.560702099665933
30
2.6820097438033669e-30
11
-18.811537151308297
21
-11.560702099665949
31
0
0
SPLINE
5
170
100
AcDbEntity
8
0
100
AcDbSpline
70
1064
71
5
72
16
73
10
74
0
42
0.000000001
43
0.0000000001
44
0.0000000001
40
0.57262726116538853
40
0.57262726116538853
40
0.57262726116538853
40
0.57262726116538853
40
0.57262726116538853
40
0.57262726116538853
40
0.59999999999999998
40
0.65000000000000002
40
0.70000000000000007
40
0.75000000000000011
40
0.78284921922079742
40
0.78284921922079742
40
0.78284921922079742
40
0.78284921922079742
40
0.78284921922079742
40
0.78284921922079742
10
-18.811537151308297
20
-11.56070209966594
30
0
10
-19.012994426394258
20
-11.705253356810132
30
-8.8817841970012523e-15
10
-19.598671777161201
20
-12.09128983484308
30
0
10
-20.631593836189875
20
-12.617390471062816
30
0
10
-22.181330643826001
20
-13.073451574803306
30
0
10
-24.063223295535209
20
-13.11207641328526
30
-8.8817841970012523e-15
10
-25.592217464485639
20
-12.686179472346758
30
8.8817841970012523e-15
10
-26.582954235563115
20
-12.150195335056688
30
-8.8817841970012523e-15
10
-27.141513148643625
20
-11.73654996599527
30
0
10
-27.352946451190046
20
-11.560702099665942
30
8.8817841970012523e-15
0
LINE
5
171
100
AcDbEntity
8
0
100
AcDbLine
10
-27.352946451190046
20
-11.560702099665942
30
8.8817841970012586e-15
11
-46.42361929548278
21
-11.560702099665948
31
8.8817841970012523e-15
0
SPLINE
5
172
100
AcDbEntity
8
0
100
AcDbSpline
70
1064
71
5
72
30
73
24
74
0
42
0.000000001
43
0.0000000001
44
0.0000000001
40
0.25029758539010966
40
0.25029758539010966
40
0.25029758539010966
40
0.25029758539010966
40
0.25029758539010966
40
0.25029758539010966
40
0.25714285714285717
40
0.28571428571428575
40
0.31428571428571433
40
0.34285714285714292
40
0.3714285714285715
40
0.40000000000000008
40
0.42857142857142866
40
0.45714285714285724
40
0.48571428571428582
40
0.51428571428571435
40
0.54285714285714293
40
0.57142857142857151
40
0.60000000000000009
40
0.62857142857142867
40
0.65714285714285725
40
0.68571428571428583
40
0.71428571428571441
40
0.74285714285714299
40
0.76007316490742693
40
0.76007316490742693
40
0.76007316490742693
40
0.76007316490742693
40
0.76007316490742693
40
0.76007316490742693
10
-46.423619295482766
20
-11.560702099665946
30
0
10
-46.351672990322058
20
-11.565527025388571
30
0
10
-45.983689068338336
20
-11.595928832523636
30
0
10
-45.359730476134345
20
-11.702279029936397
30
0
10
-44.577967540487514
20
-11.998143542517383
30
0
10
-43.818294627274554
20
-12.673708245694996
30
0
10
-43.300319336065343
20
-13.88988510990133
30
0
10
-43.089378751226519
20
-15.484204273661145
30
0
10
-43.085118510930386
20
-17.383553414742774
30
8.8817841970012523e-15
10
-43.186609896563041
20
-19.488167465771568
30
0
10
-43.320781834078019
20
-21.678785207329391
30
-8.8817841970012523e-15
10
-43.479225925027869
20
-23.82129173043343
30
0
10
-43.713076641436487
20
-25.779353854236547
30
-8.8817841970012523e-15
10
-44.103178676701098
20
-27.430855545217447
30
8.8817841970012523e-15
10
-44.737177384574458
20
-28.68434125846127
30
-8.8817841970012523e-15
10
-45.685654874298422
20
-29.493239366241095
30
0
10
-46.974102694001743
20
-29.877106130440659
30
0
10
-48.572392583357228
20
-29.91978848955922
30
-8.8817841970012523e-15
10
-50.411661358298232
20
-29.733787012386866
30
0
10
-52.236834269700772
20
-29.455423025866786
30
-8.8817841970012523e-15
10
-53.684880300739472
20
-29.216379216435442
30
-8.8817841970012523e-15
10
-54.706463907084874
20
-29.0381752109272
30
0
10
-55.318474271668123
20
-28.923799627083554
30
0
10
-55.545779964664391
20
-28.879950970348904
30
0
0
SPLINE
5
173
100
AcDbEntity
8
0
100
AcDbSpline
70
1064
71
3
72
10
73
6
74
0
42
0.000000001
43
0.0000000001
44
0.0000000001
40
8.5765088032600136
40
8.5765088032600136
40
8.5765088032600136
40
8.5765088032600136
40
9.3866733171324164
40
9.3866733171324164
40
9.8573014124637623
40
9.8573014124637623
40
9.8573014124637623
40
9.8573014124637623
10
-52.748744123499087
20
-33.936018154970277
30
0
10
-53.344342750485502
20
-32.872809863805301
30
0
10
-53.935757688288739
20
-31.807338859914076
30
8.8817841970012523e-15
10
-54.865542293983118
20
-30.120963986406551
30
0
10
-55.206154645238826
20
-29.500729612595762
30
8.8817841970012523e-15
10
-55.545779964664391
20
-28.879950970348904
30
0
0
SPLINE
5
174
100
AcDbEntity
8
0
100
AcDbSpline
70
1064
71
5
72
17
73
11
74
0
42
0.000000001
43
0.0000000001
44
0.0000000001
40
0.23857684204805871
40
0.23857684204805871
40
0.23857684204805871
40
0.23857684204805871
40
0.23857684204805871
40
0.23857684204805871
40
0.24000000000000002
40
0.28000000000000003
40
0.32000000000000001
40
0.35999999999999999
40
0.39999999999999997
40
0.43749921180761309
40
0.43749921180761309
40
0.43749921180761309
40
0.43749921180761309
40
0.43749921180761309
40
0.43749921180761309
10
-52.74874412349611
20
-33.936018154971599
30
0
10
-52.735269781349807
20
-33.941901076262297
30
0
10
-52.343411837862178
20
-34.114166613565487
30
-8.8817841970012523e-15
10
-51.59237377410561
20
-34.511848068012952
30
0
10
-50.542109638018495
20
-35.269134062417073
30
0
10
-49.335082638347515
20
-36.556504202782676
30
0
10
-48.269104018220013
20
-38.448570260617593
30
-8.8817841970012523e-15
10
-47.804597132535498
20
-40.091434774738559
30
0
10
-47.69204242524264
20
-41.331726199031962
30
0
10
-47.719578008058207
20
-42.141971005903081
30
0
10
-47.756463009877464
20
-42.530727022370911
30
0
0
SPLINE
5
175
100
AcDbEntity
8
0
100
AcDbSpline
70
1064
71
3
72
31
73
27
74
0
42
0.000000001
43
0.0000000001
44
0.0000000001
40
1.7365319373968036
40
1.7365319373968036
40
1.7365319373968036
40
1.7365319373968036
40
1.7472090792850534
40
1.7472090792850534
40
2.0099517991930522
40
2.0099517991930522
40
2.3420717145677346
40
2.3420717145677346
40
2.8890254441193237
40
2.8890254441193237
40
3.4134008530852502
40
3.4134008530852502
40
4.1999557068166178
40
4.1999557068166178
40
5.0097563281184545
40
5.0097563281184545
40
5.5083057588567588
40
5.5083057588567588
40
5.7575749317138776
40
5.7575749317138776
40
6.0068441045709964
40
6.0068441045709964
40
6.0068441045709964
40
6.3295073079234285
40
6.3295073079234285
40
6.3731005919161188
40
6.3731005919161188
40
6.3731005919161188
40
6.3731005919161188
10
-31.361107083001272
20
-54.82137425036656
30
8.8817841970012523e-15
10
-31.376741281377036
20
-54.81764209231202
30
-8.8817841970012523e-15
10
-31.392368296340905
20
-54.813874275257803
30
0
10
-31.792347051890957
20
-54.71653379499746
30
0
10
-32.172235847179216
20
-54.602701516825988
30
0
10
-33.019326290132696
20
-54.315685620522125
30
0
10
-33.485124393674958
20
-54.134145597255745
30
-8.8817841970012523e-15
10
-34.702557454536745
20
-53.615448686538755
30
0
10
-35.444578606784468
20
-53.253578014933034
30
0
10
-36.866446607138201
20
-52.496683547677023
30
-8.8817841970012523e-15
10
-37.549664479748053
20
-52.102054960216876
30
0
10
-39.226219354568485
20
-51.065349309292323
30
0
10
-40.204054355738478
20
-50.398607141417351
30
-8.8817841970012523e-15
10
-42.122986978719332
20
-48.954610803302074
30
0
10
-43.062898028608387
20
-48.174530157623458
30
-8.8817841970012523e-15
10
-44.49228835234068
20
-46.8230505001914
30
0
10
-45.018918412834914
20
-46.2835696773233
30
0
10
-45.760130443644854
20
-45.434225685388895
30
0
10
-45.999061065391246
20
-45.144351658592953
30
0
10
-46.455718387085213
20
-44.549117778403499
30
8.8817841970012523e-15
10
-46.673569654027709
20
-44.243797069956798
30
-8.8817841970012523e-15
10
-46.876840562497847
20
-43.928926072690828
30
-8.8817841970012523e-15
10
-47.139961917318203
20
-43.521345450285899
30
8.8817841970012523e-15
10
-47.398004732929699
20
-43.110546848439526
30
0
10
-47.687670741946953
20
-42.642292743073611
30
-8.8817841970012523e-15
10
-47.722094593487952
20
-42.586526882835642
30
0
10
-47.756463009877443
20
-42.530727022370911
30
0
0
SPLINE
5
176
100
AcDbEntity
8
0
100
AcDbSpline
70
1064
71
5
72
14
73
8
74
0
42
0.000000001
43
0.0000000001
44
0.0000000001
40
0.90668188643399494
40
0.90668188643399494
40
0.90668188643399494
40
0.90668188643399494
40
0.90668188643399494
40
0.90668188643399494
40
0.93333333333333324
40
0.96666666666666656
40
1
40
1
40
1
40
1
40
1
40
1
10
-31.361107083001261
20
-54.821374250366546
30
-8.8817841970012523e-15
10
-31.228621157238223
20
-54.552486406375529
30
8.8817841970012523e-15
10
-30.899924381732337
20
-53.953415733674689
30
0
10
-30.285341050470763
20
-53.047077624346706
30
-8.8817841970012523e-15
10
-29.524924411443628
20
-52.19562296248165
30
-8.8817841970012523e-15
10
-28.647629822604713
20
-51.422944305800648
30
-8.8817841970012523e-15
10
-27.973401176464709
20
-50.919880901216615
30
0
10
-27.62598577031444
20
-50.681664996337254
30
-8.8817841970012523e-15
0
SPLINE
5
177
100
AcDbEntity
8
0
100
AcDbSpline
70
1064
71
5
72
21
73
15
74
0
42
0.000000001
43
0.0000000001
44
0.0000000001
40
0
40
0
40
0
40
0
40
0
40
0
40
0.033333333333333333
40
0.066666666666666666
40
0.10000000000000001
40
0.13333333333333333
40
0.16666666666666666
40
0.19999999999999998
40
0.23333333333333331
40
0.26666666666666666
40
0.29999999999999999
40
0.30929510324900933
40
0.30929510324900933
40
0.30929510324900933
40
0.30929510324900933
40
0.30929510324900933
40
0.30929510324900933
10
-27.62598577031444
20
-50.681664996337254
30
-8.8817841970012523e-15
10
-27.278570364164189
20
-50.443449091457886
30
-8.8817841970012523e-15
10
-26.563137385703154
20
-49.993648876524503
30
8.8817841970012523e-15
10
-25.437606099186127
20
-49.405328218752416
30
0
10
-23.871040693254685
20
-48.81933408890221
30
0
10
-21.900972117708672
20
-48.474033206264252
30
0
10
-20.012246697065695
20
-48.558273184102205
30
-8.8817841970012523e-15
10
-18.287898725801007
20
-49.093566720433088
30
-8.8817841970012523e-15
10
-16.795535957689619
20
-50.074106693763753
30
8.8817841970012523e-15
10
-15.581223139874989
20
-51.458985062527098
30
8.8817841970012523e-15
10
-14.80408353065936
20
-52.930503360555178
30
-8.8817841970012523e-15
10
-14.381009292559519
20
-54.189075923359525
30
0
10
-14.171264500448959
20
-55.106243144303065
30
0
10
-14.080156750246669
20
-55.630457557257841
30
0
10
-14.061555639738293
20
-55.745174416479173
30
0
0
SPLINE
5
178
100
AcDbEntity
8
0
100
AcDbSpline
70
1064
71
3
72
8
73
4
74
0
42
0.000000001
43
0.0000000001
44
0.0000000001
40
103.88593693691028
40
103.88593693691028
40
103.88593693691028
40
103.88593693691028
40
104.88482180942158
40
104.88482180942158
40
104.88482180942158
40
104.88482180942158
10
-9.5564851878621386
20
-55.814937069844184
30
0
10
-11.058243703822141
20
-55.797007956077174
30
8.8817841970012523e-15
10
-12.559945228897512
20
-55.774084766729544
30
-8.8817841970012523e-15
10
-14.061555639738314
20
-55.745174416479216
30
0
0
SPLINE
5
179
100
AcDbEntity
8
0
100
AcDbSpline
70
1064
71
5
72
23
73
17
74
0
42
0.000000001
43
0.0000000001
44
0.0000000001
40
0.030893400498298286
40
0.030893400498298286
40
0.030893400498298286
40
0.030893400498298286
40
0.030893400498298286
40
0.030893400498298286
40
0.040000000000000001
40
0.080000000000000002
40
0.12
40
0.16
40
0.20000000000000001
40
0.24000000000000002
40
0.28000000000000003
40
0.32000000000000001
40
0.35999999999999999
40
0.39999999999999997
40
0.43999999999999995
40
0.44466814964508578
40
0.44466814964508578
40
0.44466814964508578
40
0.44466814964508578
40
0.44466814964508578
40
0.44466814964508578
10
-9.5564851878621351
20
-55.814937069844177
30
0
10
-9.5423444317652333
20
-55.715888369460203
30
-8.8817841970012523e-15
10
-9.4594617133745675
20
-55.182812918223604
30
-8.8817841970012523e-15
10
-9.2444947060238771
20
-54.227230511014781
30
-8.8817841970012523e-15
10
-8.7678436477291726
20
-52.895953742836582
30
-8.8817841970012523e-15
10
-7.8517042654545213
20
-51.333769229002506
30
0
10
-6.4002520025322065
20
-49.902404885637011
30
-8.8817841970012523e-15
10
-4.6557813807438189
20
-49.01073954254025
30
8.8817841970012523e-15
10
-2.7069802832395276
20
-48.735502549812573
30
0
10
-0.65464431869717177
20
-49.091396550379862
30
0
10
1.392198708613438
20
-50.0434211920048
30
-8.8817841970012523e-15
10
3.3197096219327014
20
-51.515012742649802
30
0
10
4.7137638209179231
20
-53.064625674471131
30
0
10
5.6005348624200932
20
-54.372297362391166
30
0
10
6.1081708130498589
20
-55.298728351539026
30
8.8817841970012523e-15
10
6.3474205145538996
20
-55.794607837100997
30
-8.8817841970012523e-15
10
6.3721093990336639
20
-55.846504650281581
30
0
0
SPLINE
5
180
100
AcDbEntity
8
0
100
AcDbSpline
70
1064
71
3
72
12
73
8
74
0
42
0.000000001
43
0.0000000001
44
0.0000000001
40
98.738096128781393
40
98.738096128781393
40
98.738096128781393
40
98.738096128781393
40
98.948385727861265
40
98.948385727861265
40
99.989879999599452
40
99.989879999599452
40
100.35456126918839
40
100.35456126918839
40
100.35456126918839
40
100.35456126918839
10
13.662921889564233
20
-55.752661548783166
30
8.8817841970012523e-15
10
13.34679250828944
20
-55.758497728918584
30
0
10
13.030657058952412
20
-55.764064406942026
30
-8.8817841970012523e-15
10
11.148781105459131
20
-55.795795545419587
30
0
10
9.5829269670098967
20
-55.816293239735835
30
8.8817841970012523e-15
10
7.4687267041125347
20
-55.837365839887724
30
-8.8817841970012523e-15
10
6.9204229134974202
20
-55.84223526878467
30
0
10
6.3721093990336639
20
-55.846504650281602
30
0
0
SPLINE
5
181
100
AcDbEntity
8
0
100
AcDbSpline
70
1064
71
5
72
20
73
14
74
0
42
0.000000001
43
0.0000000001
44
0.0000000001
40
0.71926370150973584
40
0.71926370150973584
40
0.71926370150973584
40
0.71926370150973584
40
0.71926370150973584
40
0.71926370150973584
40
0.73333333333333328
40
0.76666666666666661
40
0.79999999999999993
40
0.83333333333333326
40
0.86666666666666659
40
0.89999999999999991
40
0.93333333333333324
40
0.96666666666666656
40
1
40
1
40
1
40
1
40
1
40
1
10
13.662921889564206
20
-55.752661548783131
30
8.8817841970012523e-15
10
13.502013406428517
20
-55.677003375947805
30
-8.8817841970012523e-15
10
12.961746397856409
20
-55.409529766274403
30
0
10
12.052826683284749
20
-54.883537770544777
30
-8.8817841970012523e-15
10
10.799834607239129
20
-53.98553683653428
30
-8.8817841970012523e-15
10
9.246817115157123
20
-52.596018802016346
30
0
10
7.6024726037960475
20
-50.816481147630419
30
-8.8817841970012523e-15
10
6.1209211634455372
20
-48.917779552825031
30
0
10
4.8942424678617344
20
-46.973797179990214
30
0
10
4.0300775801960906
20
-45.048595505481607
30
-8.8817841970012523e-15
10
3.7098453054228218
20
-43.570132800786027
30
-8.8817841970012523e-15
10
3.7107471969857384
20
-42.521740677355012
30
0
10
3.8210741615274166
20
-41.857745976867797
30
8.8817841970012523e-15
10
3.903359356845427
20
-41.535553860513339
30
0
0
SPLINE
5
182
100
AcDbEntity
8
0
100
AcDbSpline
70
1064
71
5
72
29
73
23
74
0
42
0.000000001
43
0.0000000001
44
0.0000000001
40
0
40
0
40
0
40
0
40
0
40
0
40
0.033333333333333333
40
0.066666666666666666
40
0.10000000000000001
40
0.13333333333333333
40
0.16666666666666666
40
0.19999999999999998
40
0.23333333333333331
40
0.26666666666666666
40
0.29999999999999999
40
0.33333333333333331
40
0.36666666666666664
40
0.39999999999999997
40
0.43333333333333329
40
0.46666666666666662
40
0.49999999999999994
40
0.53333333333333333
40
0.56666666666666665
40
0.58481454879736783
40
0.58481454879736783
40
0.58481454879736783
40
0.58481454879736783
40
0.58481454879736783
40
0.58481454879736783
10
3.903359356845427
20
-41.535553860513339
30
0
10
3.9856445521634329
20
-41.213361744158888
30
-8.8817841970012523e-15
10
4.2044583688937784
20
-40.588587979228322
30
0
10
4.6935510953054713
20
-39.716690065799959
30
-8.8817841970012523e-15
10
5.6448102037776957
20
-38.711942022286919
30
0
10
7.2266507971467266
20
-37.785952511820724
30
0
10
9.0735731610271415
20
-37.246393652497559
30
0
10
11.060493969976445
20
-37.13091817626902
30
0
10
13.096218127363276
20
-37.447103214899009
30
-8.8817841970012523e-15
10
15.121939557748771
20
-38.174233597303981
30
-8.8817841970012523e-15
10
17.094903142548709
20
-39.270956985142973
30
0
10
18.976365276668695
20
-40.680962116352333
30
8.8817841970012523e-15
10
20.719051005562086
20
-42.338980164251751
30
8.8817841970012523e-15
10
22.251892893535391
20
-44.177181685687827
30
0
10
23.475147696970772
20
-46.129101974901317
30
-8.8817841970012523e-15
10
24.284469976365116
20
-48.126653524021449
30
0
10
24.589751359251416
20
-50.098348863218398
30
-8.8817841970012523e-15
10
24.33578907962071
20
-51.967134427068153
30
0
10
23.597440755655214
20
-53.494903924136295
30
8.8817841970012523e-15
10
22.718386585293771
20
-54.509224712410912
30
0
10
21.964449567212018
20
-55.121031575786226
30
0
10
21.469855562184193
20
-55.444698747531262
30
-8.8817841970012523e-15
10
21.291277618089403
20
-55.552674667937907
30
0
0
SPLINE
5
183
100
AcDbEntity
8
0
100
AcDbSpline
70
1064
71
3
72
14
73
10
74
0
42
0.000000001
43
0.0000000001
44
0.0000000001
40
95.341237534025225
40
95.341237534025225
40
95.341237534025225
40
95.341237534025225
40
95.552159922865201
40
95.552159922865201
40
95.996709623395603
40
95.996709623395603
40
96.753435309565546
40
96.753435309565546
40
97.046444997954339
40
97.046444997954339
40
97.046444997954339
40
97.046444997954339
10
28.971838878493838
20
-55.13882939553465
30
0
10
28.655515367874727
20
-55.165508547449846
30
0
10
28.339654763351795
20
-55.189625143524111
30
-8.8817841970012523e-15
10
27.356782595821052
20
-55.260758495921039
30
8.8817841970012523e-15
10
26.689729486898287
20
-55.302480073645135
30
0
10
24.886444953060693
20
-55.404334471735517
30
0
10
23.749643222847546
20
-55.456827812313819
30
8.8817841970012523e-15
10
22.172097870593856
20
-55.520280909789875
30
8.8817841970012523e-15
10
21.731700802028552
20
-55.536957369012512
30
8.8817841970012523e-15
10
21.291277618089421
20
-55.552674667937943
30
8.8817841970012523e-15
0
SPLINE
5
184
100
AcDbEntity
8
0
100
AcDbSpline
70
1064
71
5
72
12
73
6
74
0
42
0.000000001
43
0.0000000001
44
0.0000000001
40
0.97969637340851534
40
0.97969637340851534
40
0.97969637340851534
40
0.97969637340851534
40
0.97969637340851534
40
0.97969637340851534
40
1
40
1
40
1
40
1
40
1
40
1
10
28.97183887849382
20
-55.138829395534614
30
0
10
29.025174386744968
20
-54.891178723964202
30
-8.8817841970012523e-15
10
29.082792785619706
20
-54.644570932727774
30
-8.8817841970012523e-15
10
29.144350703606815
20
-54.39958154404269
30
-8.8817841970012523e-15
10
29.209588541008902
20
-54.156791209375882
30
-8.8817841970012523e-15
10
29.278368663847189
20
-53.91677232139584
30
0
0
SPLINE
5
185
100
AcDbEntity
8
0
100
AcDbSpline
70
1064
71
5
72
20
73
14
74
0
42
0.000000001
43
0.0000000001
44
0.0000000001
40
0
40
0
40
0
40
0
40
0
40
0
40
0.028571428571428571
40
0.057142857142857141
40
0.085714285714285715
40
0.11428571428571428
40
0.14285714285714285
40
0.17142857142857143
40
0.20000000000000001
40
0.22857142857142859
40
0.25436325428992479
40
0.25436325428992479
40
0.25436325428992479
40
0.25436325428992479
40
0.25436325428992479
40
0.25436325428992479
10
29.278368663847189
20
-53.91677232139584
30
0
10
29.375156612441188
20
-53.579015788945057
30
0
10
29.582761623015568
20
-52.914478954082959
30
-8.8817841970012523e-15
10
29.933955291940411
20
-51.960172576764108
30
0
10
30.484059501817047
20
-50.810265311738888
30
8.8817841970012523e-15
10
31.347810739948244
20
-49.65811869932736
30
8.8817841970012523e-15
10
32.437195601704076
20
-48.850221771424685
30
0
10
33.7892934457347
20
-48.415413344143943
30
0
10
35.401595946783146
20
-48.340532573435631
30
0
10
37.199624488166762
20
-48.576219515580341
30
-8.8817841970012523e-15
10
38.750981979579969
20
-48.958074004645418
30
0
10
39.938635743163147
20
-49.324711426859494
30
-8.8817841970012523e-15
10
40.721701311425051
20
-49.594944927542066
30
-8.8817841970012523e-15
10
41.093189849527
20
-49.729449484096136
30
0
0
SPLINE
5
186
100
AcDbEntity
8
0
100
AcDbSpline
70
1064
71
3
72
10
73
6
74
0
42
0.000000001
43
0.0000000001
44
0.0000000001
40
91.344782776132462
40
91.344782776132462
40
91.344782776132462
40
91.344782776132462
40
91.82348465649325
40
91.82348465649325
40
92.36197789573896
40
92.36197789573896
40
92.36197789573896
40
92.36197789573896
10
44.576574952610848
20
-46.723280236412954
30
8.8817841970012523e-15
10
44.069290524198507
20
-47.236626334514618
30
8.8817841970012523e-15
10
43.538624669460411
20
-47.728599692401481
30
0
10
42.37678657070326
20
-48.734707731845731
30
0
10
41.742647202585772
20
-49.242954669217518
30
8.8817841970012523e-15
10
41.093189849527022
20
-49.729449484096179
30
0
0
SPLINE
5
187
100
AcDbEntity
8
0
100
AcDbSpline
70
1064
71
5
72
17
73
11
74
0
42
0.000000001
43
0.0000000001
44
0.0000000001
40
0.78181261008749714
40
0.78181261008749714
40
0.78181261008749714
40
0.78181261008749714
40
0.78181261008749714
40
0.78181261008749714
40
0.80000000000000016
40
0.84000000000000019
40
0.88000000000000023
40
0.92000000000000026
40
0.9600000000000003
40
1
40
1
40
1
40
1
40
1
40
1
10
44.576574952610855
20
-46.723280236412911
30
8.8817841970012523e-15
10
44.37382021483667
20
-46.659421322393342
30
0
10
43.730638363148593
20
-46.438496350577545
30
8.8817841970012523e-15
10
42.679426970660693
20
-45.976934677352773
30
0
10
41.314152298728608
20
-45.125451152105398
30
0
10
39.853762161700246
20
-43.705287189185142
30
-8.8817841970012523e-15
10
38.725161183894208
20
-41.791021134139427
30
0
10
38.298736207360868
20
-40.098863211656628
30
8.8817841970012523e-15
10
38.265140257374519
20
-38.799038909175543
30
0
10
38.368141724813555
20
-37.937357766769466
30
0
10
38.45023036983202
20
-37.510040546378185
30
0
0
SPLINE
5
188
100
AcDbEntity
8
0
100
AcDbSpline
70
1064
71
5
72
20
73
14
74
0
42
0.000000001
43
0.0000000001
44
0.0000000001
40
0
40
0
40
0
40
0
40
0
40
0
40
0.040000000000000001
40
0.080000000000000002
40
0.12
40
0.16
40
0.20000000000000001
40
0.24000000000000002
40
0.28000000000000003
40
0.32000000000000001
40
0.35717819340889628
40
0.35717819340889628
40
0.35717819340889628
40
0.35717819340889628
40
0.35717819340889628
40
0.35717819340889628
10
38.45023036983202
20
-37.510040546378185
30
0
10
38.532319014850479
20
-37.082723325986905
30
8.8817841970012523e-15
10
38.757672127485264
20
-36.23513558682788
30
0
10
39.274658580874771
20
-34.998731598953874
30
-8.8817841970012523e-15
10
40.290756028366445
20
-33.475301992918347
30
0
10
41.983520086100548
20
-31.907452032557305
30
8.8817841970012523e-15
10
43.952107384082105
20
-30.785020879125021
30
-8.8817841970012523e-15
10
46.044398382174748
20
-30.188458369861351
30
0
10
48.121167204938693
20
-30.160577585123445
30
8.8817841970012523e-15
10
50.049849343416156
20
-30.687241748059453
30
0
10
51.434760303660674
20
-31.503565189446618
30
8.8817841970012523e-15
10
52.357416289146819
20
-32.298895921805808
30
-8.8817841970012523e-15
10
52.911306867659277
20
-32.891474137313459
30
8.8817841970012523e-15
10
53.164948815664808
20
-33.191417528636151
30
0
0
SPLINE
5
189
100
AcDbEntity
8
0
100
AcDbSpline
70
1064
71
3
72
10
73
6
74
0
42
0.000000001
43
0.0000000001
44
0.0000000001
40
86.094439834163893
40
86.094439834163893
40
86.094439834163893
40
86.094439834163893
40
87.042675568387452
40
87.042675568387452
40
87.783135582575952
40
87.783135582575952
40
87.783135582575952
40
87.783135582575952
10
56.833752044561088
20
-26.515483732719236
30
-8.8817841970012523e-15
10
56.154177469576737
20
-27.768771187320137
30
0
10
55.470834102901712
20
-29.020123399744186
30
0
10
54.246689889388065
20
-31.244887314644998
30
-8.8817841970012523e-15
10
53.707583216318298
20
-32.219142663004313
30
8.8817841970012523e-15
10
53.164948815664786
20
-33.191417528636158
30
8.8817841970012523e-15
0
SPLINE
5
190
100
AcDbEntity
8
0
100
AcDbSpline
70
1064
71
5
72
13
73
7
74
0
42
0.000000001
43
0.0000000001
44
0.0000000001
40
0.96989825792616058
40
0.96989825792616058
40
0.96989825792616058
40
0.96989825792616058
40
0.96989825792616058
40
0.96989825792616058
40
0.97142857142857164
40
1
40
1
40
1
40
1
40
1
40
1
10
56.833752044561066
20
-26.515483732719247
30
0
10
56.83703450435587
20
-26.499496624892362
30
0
10
56.902751081778831
20
-26.18560724789992
30
0
10
56.991097391120093
20
-25.883223225181219
30
8.8817841970012523e-15
10
57.102399329765809
20
-25.593450536702985
30
0
10
57.236706559212713
20
-25.317006316998025
30
-8.8817841970012523e-15
10
57.384639032730078
20
-25.066786075187039
30
8.8817841970012523e-15
0
SPLINE
5
191
100
AcDbEntity
8
0
100
AcDbSpline
70
1064
71
5
72
12
73
6
74
0
42
0.000000001
43
0.0000000001
44
0.0000000001
40
0
40
0
40
0
40
0
40
0
40
0
40
0.023420295769868416
40
0.023420295769868416
40
0.023420295769868416
40
0.023420295769868416
40
0.023420295769868416
40
0.023420295769868416
10
57.384639032730078
20
-25.066786075187039
30
8.8817841970012523e-15
10
57.505900812661181
20
-24.86167795270827
30
0
10
57.640905583430083
20
-24.664747222857883
30
-8.8817841970012523e-15
10
57.789503256225814
20
-24.476083314390284
30
0
10
57.951401540221887
20
-24.295572099774429
30
-8.8817841970012523e-15
10
58.126190024954141
20
-24.122963768819901
30
8.8817841970012523e-15
0
SPLINE
5
192
100
AcDbEntity
8
0
100
AcDbSpline
70
1064
71
3
72
10
73
6
74
0
42
0.000000001
43
0.0000000001
44
0.0000000001
40
83.736920443038457
40
83.736920443038457
40
83.736920443038457
40
83.736920443038457
40
84.642640040415799
40
84.642640040415799
40
85.491578143050035
40
85.491578143050035
40
85.491578143050035
40
85.491578143050035
10
61.845231101601428
20
-17.136464767361968
30
0
10
61.210595498066539
20
-18.341354426056402
30
0
10
60.573219763547208
20
-19.544806744441939
30
0
10
59.333277998250381
20
-21.873514196225567
30
0
10
58.731126343484448
20
-22.998958551266604
30
0
10
58.126190024954155
20
-24.122963768819872
30
8.8817841970012523e-15
0
LINE
5
193
100
AcDbEntity
8
0
100
AcDbLine
10
61.845231101601428
20
-17.136464767361968
30
0
11
68.500001020729542
21
-4.0000000596046377
31
0
0
LINE
5
194
100
AcDbEntity
8
0
100
AcDbLine
10
68.500001020729542
20
-4.0000000596046377
30
0
11
68.37761842692953
21
-3.8295712844962027
31
8.8817841970012523e-15
0
ARC
5
195
100
AcDbEntity
8
0
100
AcDbCircle
10
24.999999999999986
20
60
30
0
40
3.4999999999999902
100
AcDbArc
50
-24.117376242831718
51
253.95676367315309
0
SPLINE
5
196
100
AcDbEntity
8
0
100
AcDbSpline
70
1064
71
5
72
38
73
32
74
0
42
0.000000001
43
0.0000000001
44
0.0000000001
40
0.1170661872856667
40
0.1170661872856667
40
0.1170661872856667
40
0.1170661872856667
40
0.1170661872856667
40
0.1170661872856667
40
0.13333333333333333
40
0.16666666666666666
40
0.19999999999999998
40
0.23333333333333331
40
0.26666666666666666
40
0.29999999999999999
40
0.33333333333333331
40
0.36666666666666664
40
0.39999999999999997
40
0.43333333333333329
40
0.46666666666666662
40
0.49999999999999994
40
0.53333333333333333
40
0.56666666666666665
40
0.59999999999999998
40
0.6333333333333333
40
0.66666666666666663
40
0.69999999999999996
40
0.73333333333333328
40
0.76666666666666661
40
0.79999999999999993
40
0.83333333333333326
40
0.86666666666666659
40
0.89999999999999991
40
0.93333333333333324
40
0.96666666666666656
40
1
40
1
40
1
40
1
40
1
40
1
10
28.194486049285615
20
58.569874522666119
30
-8.8817841970012523e-15
10
28.397980705542118
20
58.623859451277852
30
0
10
29.02432440754945
20
58.780668731315366
30
8.8817841970012523e-15
10
30.097655307780208
20
59.004036321786145
30
8.8817841970012523e-15
10
31.63560897013096
20
59.23244637464586
30
0
10
33.58813944714619
20
59.385854653722774
30
-8.8817841970012523e-15
10
35.600128763019733
20
59.363792745560389
30
0
10
37.332294531102562
20
59.107778186355588
30
0
10
38.692338457074001
20
58.569241235668308
30
-8.8817841970012523e-15
10
39.622956459335946
20
57.707283259351925
30
0
10
40.113523703491644
20
56.506187276162017
30
0
10
40.210603073471141
20
54.99149868135305
30
8.8817841970012523e-15
10
39.993374347434035
20
53.221995484498549
30
0
10
39.549174708929833
20
51.282565299629532
30
-8.8817841970012523e-15
10
38.951575025417107
20
49.276887176576736
30
0
10
38.23166957562443
20
47.320707687995601
30
-8.8817841970012523e-15
10
37.37258773862537
20
45.53391265029417
30
0
10
36.335899128041852
20
44.031154352623069
30
0
10
35.080837912969571
20
42.912455337481092
30
0
10
33.584710596878466
20
42.254372953396171
30
-8.8817841970012523e-15
10
31.86702199135571
20
42.09901145662112
30
-8.8817841970012523e-15
10
29.998239032203756
20
42.449399571064689
30
-8.8817841970012523e-15
10
28.080699187734055
20
43.276120610915498
30
-8.8817841970012523e-15
10
26.236050484134473
20
44.521010762310297
30
0
10
24.590445438258381
20
46.101841964163967
30
-8.8817841970012523e-15
10
23.260304117112053
20
47.915970045390523
30
0
10
22.339078220670586
20
49.845122985602607
30
0
10
21.895344563327228
20
51.768024958181471
30
-8.8817841970012523e-15
10
21.954648862344406
20
53.211370412793428
30
0
10
22.236254769353931
20
54.199283312344555
30
-8.8817841970012523e-15
10
22.525951084625518
20
54.808065571708788
30
0
10
22.69553903616395
20
55.09940718609478
30
0
0
SPLINE
5
197
100
AcDbEntity
8
0
100
AcDbSpline
70
1064
71
5
72
13
73
7
74
0
42
0.000000001
43
0.0000000001
44
0.0000000001
40
0
40
0
40
0
40
0
40
0
40
0
40
0.033333333333333333
40
0.039510912767735815
40
0.039510912767735815
40
0.039510912767735815
40
0.039510912767735815
40
0.039510912767735815
40
0.039510912767735815
10
22.69553903616395
20
55.09940718609478
30
0
10
22.865126987702396
20
55.390748800480772
30
-8.8817841970012523e-15
10
23.095468985656598
20
55.72061604601349
30
0
10
23.35951671440483
20
56.031315641896441
30
8.8817841970012523e-15
10
23.655486454601938
20
56.322493007681246
30
0
10
23.981104163940671
20
56.594290157816907
30
-8.8817841970012523e-15
10
24.032730686591947
20
56.63631302357976
30
0
0
SPLINE
5
198
100
AcDbEntity
8
0
100
AcDbSpline
70
1064
71
5
72
41
73
35
74
0
42
0.000000001
43
0.0000000001
44
0.0000000001
40
0
40
0
40
0
40
0
40
0
40
0
40
0.033333333333333333
40
0.066666666666666666
40
0.10000000000000001
40
0.13333333333333333
40
0.16666666666666666
40
0.19999999999999998
40
0.23333333333333331
40
0.26666666666666666
40
0.29999999999999999
40
0.33333333333333331
40
0.36666666666666664
40
0.39999999999999997
40
0.43333333333333329
40
0.46666666666666662
40
0.49999999999999994
40
0.53333333333333333
40
0.56666666666666665
40
0.59999999999999998
40
0.6333333333333333
40
0.66666666666666663
40
0.69999999999999996
40
0.73333333333333328
40
0.76666666666666661
40
0.79999999999999993
40
0.83333333333333326
40
0.86666666666666659
40
0.89999999999999991
40
0.93333333333333324
40
0.96666666666666656
40
1
40
1
40
1
40
1
40
1
40
1
10
-12.42797783713617
20
65.762933385700023
30
-1.7763568394002505e-14
10
-12.098533723333853
20
66.047407067874175
30
8.8817841970012523e-15
10
-11.428183724407585
20
66.604679791311639
30
0
10
-10.396472881562641
20
67.398116080299957
30
-8.8817841970012523e-15
10
-8.9982617096375996
20
68.333830515973716
30
-8.8817841970012523e-15
10
-7.2755642463958283
20
69.190469175119205
30
-8.8817841970012523e-15
10
-5.6321682317816899
20
69.629113349802196
30
0
10
-4.1171802801139199
20
69.570782772991905
30
8.8817841970012523e-15
10
-2.7774864102874766
20
68.981968753944614
30
-8.8817841970012523e-15
10
-1.6616741690313941
20
67.900560807842396
30
0
10
-0.81684372995194265
20
66.420616712774375
30
8.8817841970012523e-15
10
-0.28353147862455352
20
64.66689144849461
30
-8.8817841970012523e-15
10
-0.091349149552378828
20
62.773795583329459
30
-8.8817841970012523e-15
10
-0.25380583523043732
20
60.861343561731886
30
0
10
-0.76440764614671086
20
59.016334093514558
30
-8.8817841970012523e-15
10
-1.6007285867584986
20
57.302158661013827
30
0
10
-2.7274051433643995
20
55.765196111929015
30
0
10
-4.0994468299621438
20
54.442612465881538
30
0
10
-5.6650896603360277
20
53.36884216776668
30
8.8817841970012523e-15
10
-7.3691849870724058
20
52.584113142413557
30
0
10
-9.1524344577765397
20
52.128622038485233
30
0
10
-10.949958175858065
20
52.034163284386601
30
8.8817841970012523e-15
10
-12.689721263408948
20
52.316020385522535
30
-8.8817841970012523e-15
10
-14.291671073626224
20
52.965701529546777
30
-8.8817841970012523e-15
10
-15.664692734707536
20
53.940138684817576
30
0
10
-16.715989058703475
20
55.170422578397179
30
0
10
-17.365401393917541
20
56.577869143202513
30
-8.8817841970012523e-15
10
-17.557291327618159
20
58.086565060681664
30
0
10
-17.275844510039207
20
59.639518345365303
30
-8.8817841970012523e-15
10
-16.552469212448106
20
61.206455718553237
30
8.8817841970012523e-15
10
-15.450486160521342
20
62.768504763050856
30
8.8817841970012523e-15
10
-14.333403308170906
20
63.999329641077487
30
1.7763568394002505e-14
10
-13.404848407221461
20
64.897837698266812
30
-1.7763568394002505e-14
10
-12.757421950938486
20
65.478459703525886
30
8.8817841970012523e-15
10
-12.42797783713617
20
65.762933385700023
30
-1.7763568394002505e-14
0
SPLINE
5
199
100
AcDbEntity
8
0
100
AcDbSpline
70
1064
71
5
72
41
73
35
74
0
42
0.000000001
43
0.0000000001
44
0.0000000001
40
0
40
0
40
0
40
0
40
0
40
0
40
0.033333333333333333
40
0.066666666666666666
40
0.10000000000000001
40
0.13333333333333333
40
0.16666666666666666
40
0.19999999999999998
40
0.23333333333333331
40
0.26666666666666666
40
0.29999999999999999
40
0.33333333333333331
40
0.36666666666666664
40
0.39999999999999997
40
0.43333333333333329
40
0.46666666666666662
40
0.49999999999999994
40
0.53333333333333333
40
0.56666666666666665
40
0.59999999999999998
40
0.6333333333333333
40
0.66666666666666663
40
0.69999999999999996
40
0.73333333333333328
40
0.76666666666666661
40
0.79999999999999993
40
0.83333333333333326
40
0.86666666666666659
40
0.89999999999999991
40
0.93333333333333324
40
0.96666666666666656
40
1
40
1
40
1
40
1
40
1
40
1
10
43.105817046598247
20
49.144168176743868
30
-8.8817841970012523e-15
10
43.210649073656413
20
49.512256121226059
30
-8.8817841970012523e-15
10
43.460731396403567
20
50.235479707541295
30
-8.8817841970012523e-15
10
43.955236484073588
20
51.273348610927826
30
0
10
44.841814834087216
20
52.53382398675528
30
-8.8817841970012523e-15
10
46.281153637427352
20
53.844728463206948
30
-1.7763568394002505e-14
10
47.986552917106657
20
54.845719024648986
30
0
10
49.876394072968921
20
55.505028917776741
30
8.8817841970012523e-15
10
51.854017630073955
20
55.804002079175504
30
0
10
53.807184033753686
20
55.736983666982354
30
-1.7763568394002505e-14
10
55.618351543542524
20
55.310676460055205
30
-8.8817841970012523e-15
10
57.178294101205857
20
54.543385344585261
30
-8.8817841970012523e-15
10
58.399188451697725
20
53.464481006866137
30
-1.7763568394002505e-14
10
59.226945840956382
20
52.11388148797171
30
0
10
59.657202341205263
20
50.541816176975189
30
-8.8817841970012523e-15
10
59.72302357910479
20
48.807395182808158
30
-8.8817841970012523e-15
10
59.477232607516825
20
46.977020611401031
30
0
10
58.976959167738343
20
45.122934728254485
30
-8.8817841970012523e-15
10
58.267169298318784
20
43.321808461742521
30
0
10
57.365266215915113
20
41.653292079648253
30
8.8817841970012523e-15
10
56.273537735020973
20
40.195525423879168
30
0
10
54.990941845175605
20
39.020695717458473
30
0
10
53.525084459406415
20
38.190506054390447
30
-8.8817841970012523e-15
10
51.904297016044573
20
37.751544532255501
30
-8.8817841970012523e-15
10
50.189570924394715
20
37.730548509580203
30
8.8817841970012523e-15
10
48.463678766080768
20
38.134271368655455
30
-8.8817841970012523e-15
10
46.820553794474449
20
38.948983567013563
30
-8.8817841970012523e-15
10
45.355015755794021
20
40.140130585087135
30
8.8817841970012523e-15
10
44.151592229084017
20
41.65106287305818
30
0
10
43.276049673091734
20
43.403806507990375
30
0
10
42.77639433195823
20
45.30722456607306
30
-8.8817841970012523e-15
10
42.700998564059987
20
46.87251241341685
30
0
10
42.83173923405468
20
48.02695204064814
30
0
10
43.000985019540117
20
48.776080232261698
30
-8.8817841970012523e-15
10
43.105817046598247
20
49.144168176743868
30
-8.8817841970012523e-15
0
ARC
5
200
100
AcDbEntity
8
0
100
AcDbCircle
10
45
20
25.000000000000007
30
-5.0074178554068132e-32
40
3.4999999999999982
100
AcDbArc
50
-121.8855125514397
51
75.19540487959928
0
SPLINE
5
201
100
AcDbEntity
8
0
100
AcDbSpline
70
1064
71
5
72
24
73
18
74
0
42
0.000000001
43
0.0000000001
44
0.0000000001
40
0.59479087854822732
40
0.59479087854822732
40
0.59479087854822732
40
0.59479087854822732
40
0.59479087854822732
40
0.59479087854822732
40
0.59999999999999998
40
0.6333333333333333
40
0.66666666666666663
40
0.69999999999999996
40
0.73333333333333328
40
0.76666666666666661
40
0.79999999999999993
40
0.83333333333333326
40
0.86666666666666659
40
0.89999999999999991
40
0.93333333333333324
40
0.96666666666666656
40
1
40
1
40
1
40
1
40
1
40
1
10
43.151217217235605
20
22.028131526774118
30
-8.8817841970012523e-15
10
43.110119510991595
20
21.985572237903082
30
0
10
42.803674453815006
20
21.673804393077173
30
0
10
42.199934539977598
20
21.136125356055491
30
0
10
41.234770736692347
20
20.479077974393277
30
0
10
39.834646497352246
20
19.89700284806904
30
0
10
38.028177239899662
20
19.666199665880807
30
-8.8817841970012523e-15
10
36.190700911638181
20
19.902518683539778
30
0
10
34.419917735038808
20
20.573529171606442
30
-8.8817841970012523e-15
10
32.811241203267095
20
21.624759081731373
30
-8.8817841970012523e-15
10
31.448832206287701
20
22.988080604555677
30
0
10
30.396022221456324
20
24.590063479759614
30
-8.8817841970012523e-15
10
29.687426398468197
20
26.359304408805386
30
0
10
29.335501807111587
20
28.225493939912116
30
0
10
29.335510633436662
20
29.740517752458473
30
0
10
29.486432325738562
20
30.858209915096793
30
0
10
29.651002252348523
20
31.585919804637914
30
-8.8817841970012523e-15
10
29.748871290183061
20
31.944273055398476
30
-8.8817841970012523e-15
0
SPLINE
5
202
100
AcDbEntity
8
0
100
AcDbSpline
70
1064
71
5
72
26
73
20
74
0
42
0.000000001
43
0.0000000001
44
0.0000000001
40
0
40
0
40
0
40
0
40
0
40
0
40
0.033333333333333333
40
0.066666666666666666
40
0.10000000000000001
40
0.13333333333333333
40
0.16666666666666666
40
0.19999999999999998
40
0.23333333333333331
40
0.26666666666666666
40
0.29999999999999999
40
0.33333333333333331
40
0.36666666666666664
40
0.39999999999999997
40
0.43333333333333329
40
0.46666666666666662
40
0.47584469324045431
40
0.47584469324045431
40
0.47584469324045431
40
0.47584469324045431
40
0.47584469324045431
40
0.47584469324045431
10
29.748871290183061
20
31.944273055398476
30
-8.8817841970012523e-15
10
29.846740328017596
20
32.302626306159048
30
0
10
30.073646552745799
20
33.008329419660178
30
-8.8817841970012523e-15
10
30.505081586578285
20
34.02699109011688
30
0
10
31.252403389861843
20
35.277845026220731
30
-8.8817841970012523e-15
10
32.443739688720044
20
36.597185192467435
30
0
10
33.855464548313243
20
37.614635078115242
30
8.8817841970012523e-15
10
35.440996000562215
20
38.284049990464183
30
-8.8817841970012523e-15
10
37.140668756263636
20
38.575213751384929
30
-8.8817841970012523e-15
10
38.88009424396774
20
38.477204924892888
30
0
10
40.577734508938178
20
37.995504158375901
30
0
10
42.151507556325278
20
37.14998214136272
30
0
10
43.525314916757942
20
35.972849123225181
30
0
10
44.636707974162242
20
34.506543809246693
30
0
10
45.440387279315118
20
32.802725056812505
30
0
10
45.838350248757735
20
31.195181298420358
30
-8.8817841970012523e-15
10
45.952878734371218
20
29.907387758725797
30
0
10
45.939815050861192
20
29.001622463834433
30
8.8817841970012523e-15
10
45.90351694096195
20
28.493500493561122
30
-8.8817841970012523e-15
10
45.894331537158891
20
28.383810145626221
30
0
0
SPLINE
5
203
100
AcDbEntity
8
0
100
AcDbSpline
70
1064
71
5
72
46
73
40
74
0
42
0.000000001
43
0.0000000001
44
0.0000000001
40
0
40
0
40
0
40
0
40
0
40
0
40
0.028571428571428571
40
0.057142857142857141
40
0.085714285714285715
40
0.11428571428571428
40
0.14285714285714285
40
0.17142857142857143
40
0.20000000000000001
40
0.22857142857142859
40
0.25714285714285717
40
0.28571428571428575
40
0.31428571428571433
40
0.34285714285714292
40
0.3714285714285715
40
0.40000000000000008
40
0.42857142857142866
40
0.45714285714285724
40
0.48571428571428582
40
0.51428571428571435
40
0.54285714285714293
40
0.57142857142857151
40
0.60000000000000009
40
0.62857142857142867
40
0.65714285714285725
40
0.68571428571428583
40
0.71428571428571441
40
0.74285714285714299
40
0.77142857142857157
40
0.80000000000000016
40
0.82857142857142874
40
0.85714285714285732
40
0.8857142857142859
40
0.91428571428571448
40
0.94285714285714306
40
0.97142857142857164
40
1
40
1
40
1
40
1
40
1
40
1
10
-56.274472931910125
20
42.292718563683344
30
0
10
-56.123222879828703
20
42.600769505471021
30
-8.8817841970012523e-15
10
-55.794316893746029
20
43.21375733682089
30
0
10
-55.225752388302013
20
44.117227617024355
30
0
10
-54.332498445411943
20
45.258933684691343
30
-8.8817841970012523e-15
10
-53.025415984859443
20
46.495230742326413
30
0
10
-51.560061082103189
20
47.458156928982135
30
0
10
-49.966877603698862
20
48.081358148903973
30
0
10
-48.275393580172548
20
48.326128730207046
30
8.8817841970012523e-15
10
-46.514763754439855
20
48.19653348648167
30
0
10
-44.716442091056706
20
47.731816419980007
30
0
10
-42.917285825399667
20
46.993132432711853
30
-8.8817841970012523e-15
10
-41.16278294767789
20
46.052146503621628
30
0
10
-39.509736290861369
20
44.979477209231732
30
-8.8817841970012523e-15
10
-38.030514858025597
20
43.832020813952752
30
-8.8817841970012523e-15
10
-36.812818350739768
20
42.644483247094186
30
-8.8817841970012523e-15
10
-35.94337452487882
20
41.437332885319123
30
0
10
-35.493178776902695
20
40.222328290344421
30
-8.8817841970012523e-15
10
-35.5039444669655
20
39.008540758587991
30
-8.8817841970012523e-15
10
-35.969161438223253
20
37.809124014070186
30
-8.8817841970012523e-15
10
-36.836943738679629
20
36.643648721991326
30
0
10
-38.031267643253649
20
35.536596295442422
30
0
10
-39.467352495871097
20
34.516941371301144
30
8.8817841970012523e-15
10
-41.070264134443583
20
33.617396949109093
30
8.8817841970012523e-15
10
-42.789423961363333
20
32.873550607092042
30
0
10
-44.588842481067047
20
32.320341480684448
30
-8.8817841970012523e-15
10
-46.439865861479404
20
31.988904043907006
30
0
10
-48.312526940849168
20
31.903037691056092
30
0
10
-50.168589265693846
20
32.076220474196511
30
8.8817841970012523e-15
10
-51.9511018327633
20
32.507203737491736
30
0
10
-53.586557044092714
20
33.180639363472402
30
0
10
-54.997577187382575
20
34.07189545750321
30
-8.8817841970012523e-15
10
-56.113133270417812
20
35.150862779432408
30
-8.8817841970012523e-15
10
-56.878708323078229
20
36.38557268276039
30
0
10
-57.26931428593246
20
37.747176900440714
30
-8.8817841970012523e-15
10
-57.290630829655775
20
39.209070017970184
30
-8.8817841970012523e-15
10
-57.032728774393021
20
40.433954935856171
30
0
10
-56.701817206234644
20
41.365451686094843
30
8.8817841970012523e-15
10
-56.425722983991577
20
41.984667621895667
30
0
10
-56.274472931910125
20
42.292718563683344
30
0
0
SPLINE
5
204
100
AcDbEntity
8
0
100
AcDbSpline
70
1064
71
5
72
36
73
30
74
0
42
0.000000001
43
0.0000000001
44
0.0000000001
40
0
40
0
40
0
40
0
40
0
40
0
40
0.040000000000000001
40
0.080000000000000002
40
0.12
40
0.16
40
0.20000000000000001
40
0.24000000000000002
40
0.28000000000000003
40
0.32000000000000001
40
0.35999999999999999
40
0.39999999999999997
40
0.43999999999999995
40
0.47999999999999993
40
0.51999999999999991
40
0.55999999999999994
40
0.59999999999999998
40
0.64000000000000001
40
0.68000000000000005
40
0.72000000000000008
40
0.76000000000000012
40
0.80000000000000016
40
0.84000000000000019
40
0.88000000000000023
40
0.92000000000000026
40
0.9600000000000003
40
1
40
1
40
1
40
1
40
1
40
1
10
-2.3596295004191092
20
51.234138708484444
30
-8.8817841970012523e-15
10
-1.9921186573208327
20
51.482559052814011
30
0
10
-1.2266035223668281
20
51.947522588289843
30
0
10
0.0013576563906447792
20
52.541792541353807
30
0
10
1.7432454668797137
20
53.097267760891683
30
-8.8817841970012523e-15
10
3.9367450658857486
20
53.329317107361646
30
0
10
5.9832184106527384
20
53.051041438491652
30
-8.8817841970012523e-15
10
7.7312708346084129
20
52.245329544972456
30
0
10
9.0570692324178363
20
50.936539577329498
30
-8.8817841970012523e-15
10
9.883234298320577
20
49.204943024554481
30
0
10
10.175536791113146
20
47.174178346780081
30
-8.8817841970012523e-15
10
9.9359026841314435
20
44.994165744068283
30
-8.8817841970012523e-15
10
9.1973381625740895
20
42.82593592954229
30
-8.8817841970012523e-15
10
8.0186220791247482
20
40.82620791344997
30
0
10
6.4797063234433319
20
39.131307274003454
30
0
10
4.6763495734942264
20
37.85200661952539
30
8.8817841970012523e-15
10
2.71494384127445
20
37.069675010055221
30
8.8817841970012523e-15
10
0.7074932680522461
20
36.830985616462343
30
-8.8817841970012523e-15
10
-1.2332440628123358
20
37.143792266524194
30
0
10
-2.9987806957763512
20
37.96896572771999
30
-8.8817841970012523e-15
10
-4.4890929288266017
20
39.227817525578999
30
0
10
-5.616461306469315
20
40.81723472173622
30
0
10
-6.3096713160500375
20
42.62207080354144
30
-8.8817841970012523e-15
10
-6.5183217680511927
20
44.528030589373301
30
0
10
-6.2176627238546258
20
46.435024952039718
30
-8.8817841970012523e-15
10
-5.4104402293196765
20
48.254592384243075
30
0
10
-4.3851887208967613
20
49.575836190592064
30
-8.8817841970012523e-15
10
-3.4316685809565053
20
50.457000522312406
30
-8.8817841970012523e-15
10
-2.72714034351739
20
50.985718364154877
30
0
10
-2.3596295004191092
20
51.234138708484444
30
-8.8817841970012523e-15
0
SPLINE
5
205
100
AcDbEntity
8
0
100
AcDbSpline
70
1064
71
5
72
41
73
35
74
0
42
0.000000001
43
0.0000000001
44
0.0000000001
40
0
40
0
40
0
40
0
40
0
40
0
40
0.033333333333333333
40
0.066666666666666666
40
0.10000000000000001
40
0.13333333333333333
40
0.16666666666666666
40
0.19999999999999998
40
0.23333333333333331
40
0.26666666666666666
40
0.29999999999999999
40
0.33333333333333331
40
0.36666666666666664
40
0.39999999999999997
40
0.43333333333333329
40
0.46666666666666662
40
0.49999999999999994
40
0.53333333333333333
40
0.56666666666666665
40
0.59999999999999998
40
0.6333333333333333
40
0.66666666666666663
40
0.69999999999999996
40
0.73333333333333328
40
0.76666666666666661
40
0.79999999999999993
40
0.83333333333333326
40
0.86666666666666659
40
0.89999999999999991
40
0.93333333333333324
40
0.96666666666666656
40
1
40
1
40
1
40
1
40
1
40
1
10
50.014199323190631
20
26.718412401591994
30
-8.8817841970012523e-15
10
50.078871760252319
20
27.143720342292692
30
-8.8817841970012523e-15
10
50.239365709740625
20
27.987412794289703
30
-8.8817841970012523e-15
10
50.571494796404778
20
29.218490130068638
30
-8.8817841970012523e-15
10
51.187611694997827
20
30.738196328911958
30
-8.8817841970012523e-15
10
52.218005349887505
20
32.320089436246263
30
-8.8817841970012523e-15
10
53.476743589022277
20
33.494120499259658
30
0
10
54.929927784289028
20
34.202527236366862
30
0
10
56.543055748454606
20
34.428058538583983
30
-8.8817841970012523e-15
10
58.282158598048625
20
34.201637745586304
30
0
10
60.107977634534713
20
33.587546453198428
30
-8.8817841970012523e-15
10
61.970406220775388
20
32.669653872817662
30
-8.8817841970012523e-15
10
63.802560179160878
20
31.537376613341369
30
0
10
65.51529894310346
20
30.272215405685188
30
-8.8817841970012523e-15
10
66.990244785633706
20
28.933214685625718
30
0
10
68.099479332827599
20
27.560850643939773
30
0
10
68.727593839481656
20
26.182005738496997
30
-8.8817841970012523e-15
10
68.791770107868814
20
24.814462514119235
30
-8.8817841970012523e-15
10
68.265869288999838
20
23.471493913552838
30
-8.8817841970012523e-15
10
67.194477213054853
20
22.166439529388011
30
8.8817841970012523e-15
10
65.669961696523103
20
20.917267396272052
30
-8.8817841970012523e-15
10
63.81544140474189
20
19.751461215994837
30
-8.8817841970012523e-15
10
61.766433347347615
20
18.710179127390461
30
-8.8817841970012523e-15
10
59.651806864087519
20
17.854341850611256
30
0
10
57.579701768926022
20
17.265187449439953
30
-8.8817841970012523e-15
10
55.640647876443083
20
17.027143941861894
30
-8.8817841970012523e-15
10
53.907584106340721
20
17.213628042315634
30
-8.8817841970012523e-15
10
52.436954905104884
20
17.871725781571424
30
-8.8817841970012523e-15
10
51.269155692327509
20
19.006726666591202
30
-8.8817841970012523e-15
10
50.429138364596497
20
20.567366324552964
30
0
10
49.928480681461323
20
22.460221748276446
30
-8.8817841970012523e-15
10
49.799543678988414
20
24.142176949665725
30
0
10
49.851331087370596
20
25.435565150085544
30
-8.8817841970012523e-15
10
49.949526886128965
20
26.293104460891314
30
0
10
50.014199323190631
20
26.718412401591994
30
-8.8817841970012523e-15
0
SPLINE
5
206
100
AcDbEntity
8
0
100
AcDbSpline
70
1064
71
5
72
41
73
35
74
0
42
0.000000001
43
0.0000000001
44
0.0000000001
40
0
40
0
40
0
40
0
40
0
40
0
40
0.033333333333333333
40
0.066666666666666666
40
0.10000000000000001
40
0.13333333333333333
40
0.16666666666666666
40
0.19999999999999998
40
0.23333333333333331
40
0.26666666666666666
40
0.29999999999999999
40
0.33333333333333331
40
0.36666666666666664
40
0.39999999999999997
40
0.43333333333333329
40
0.46666666666666662
40
0.49999999999999994
40
0.53333333333333333
40
0.56666666666666665
40
0.59999999999999998
40
0.6333333333333333
40
0.66666666666666663
40
0.69999999999999996
40
0.73333333333333328
40
0.76666666666666661
40
0.79999999999999993
40
0.83333333333333326
40
0.86666666666666659
40
0.89999999999999991
40
0.93333333333333324
40
0.96666666666666656
40
1
40
1
40
1
40
1
40
1
40
1
10
-30.116918623702983
20
39.813493379696531
30
0
10
-30.11686260423151
20
40.065086096239909
30
0
10
-30.051046187175373
20
40.566456002261532
30
0
10
-29.756939060258848
20
41.312785052040368
30
0
10
-28.999587450549971
20
42.298090488760032
30
-8.8817841970012523e-15
10
-27.57065752742291
20
43.520301146934358
30
0
10
-25.817444851096031
20
44.731142583274647
30
-8.8817841970012523e-15
10
-23.900609314846676
20
45.909520697555841
30
8.8817841970012523e-15
10
-21.95002799623667
20
47.001439502361379
30
0
10
-20.045761134617543
20
47.916442577653356
30
0
10
-18.235424962341629
20
48.549765833421645
30
0
10
-16.544523777273003
20
48.799767760639192
30
8.8817841970012523e-15
10
-14.989021540520085
20
48.586669643559262
30
0
10
-13.587649441245661
20
47.872362239825776
30
0
10
-12.371862428281348
20
46.675895681119627
30
0
10
-11.379626039998724
20
45.060869257435677
30
0
10
-10.651101489534033
20
43.126698115354046
30
-8.8817841970012523e-15
10
-10.223812399002911
20
40.998542837380761
30
0
10
-10.127393875642889
20
38.818618556780436
30
-8.8817841970012523e-15
10
-10.380430408903516
20
36.735357333599751
30
-8.8817841970012523e-15
10
-10.990783247124789
20
34.890058554059344
30
-8.8817841970012523e-15
10
-11.954980868963576
20
33.403501475135968
30
0
10
-13.257744877440318
20
32.363622984623383
30
0
10
-14.871485710147974
20
31.809526947843928
30
-8.8817841970012523e-15
10
-16.754983404331469
20
31.726414152140691
30
-8.8817841970012523e-15
10
-18.850374762934457
20
32.062846692720782
30
-8.8817841970012523e-15
10
-21.080369849453454
20
32.742897862365282
30
0
10
-23.345142796374621
20
33.68006465450695
30
-8.8817841970012523e-15
10
-25.519261530796328
20
34.790181361483114
30
0
10
-27.448116910251624
20
36.004829532348268
30
-8.8817841970012523e-15
10
-28.97186395650861
20
37.270889958844499
30
-8.8817841970012523e-15
10
-29.754150027899925
20
38.29423090963423
30
0
10
-30.051382304004125
20
39.056899703001299
30
8.8817841970012523e-15
10
-30.116974643174444
20
39.561900663153168
30
0
10
-30.116918623702983
20
39.813493379696531
30
0
0
SPLINE
5
207
100
AcDbEntity
8
0
100
AcDbSpline
70
1064
71
5
72
41
73
35
74
0
42
0.000000001
43
0.0000000001
44
0.0000000001
40
0
40
0
40
0
40
0
40
0
40
0
40
0.033333333333333333
40
0.066666666666666666
40
0.10000000000000001
40
0.13333333333333333
40
0.16666666666666666
40
0.19999999999999998
40
0.23333333333333331
40
0.26666666666666666
40
0.29999999999999999
40
0.33333333333333331
40
0.36666666666666664
40
0.39999999999999997
40
0.43333333333333329
40
0.46666666666666662
40
0.49999999999999994
40
0.53333333333333333
40
0.56666666666666665
40
0.59999999999999998
40
0.6333333333333333
40
0.66666666666666663
40
0.69999999999999996
40
0.73333333333333328
40
0.76666666666666661
40
0.79999999999999993
40
0.83333333333333326
40
0.86666666666666659
40
0.89999999999999991
40
0.93333333333333324
40
0.96666666666666656
40
1
40
1
40
1
40
1
40
1
40
1
10
-35.802312087597656
20
31.550953904031964
30
-8.8817841970012523e-15
10
-35.520273666801216
20
31.736267157763997
30
-8.8817841970012523e-15
10
-34.926659752683207
20
32.05821621281649
30
0
10
-33.951605830762652
20
32.392711529211489
30
0
10
-32.498340663406438
20
32.545189549617646
30
8.8817841970012523e-15
10
-30.473714771084669
20
32.30178690665263
30
-8.8817841970012523e-15
10
-28.301329831019952
20
31.70925919624311
30
0
10
-26.061529172470784
20
30.864569941268808
30
8.8817841970012523e-15
10
-23.859487783962635
20
29.86083819243742
30
0
10
-21.836112360209722
20
28.767586497885489
30
0
10
-20.152537655236365
20
27.628135174935586
30
-8.8817841970012523e-15
10
-18.960738102432362
20
26.466523359283634
30
0
10
-18.376995827912658
20
25.291263564496234
30
-8.8817841970012523e-15
10
-18.456871039317125
20
24.100495949428023
30
-8.8817841970012523e-15
10
-19.161293232842215
20
22.885912279611986
30
0
10
-20.376705676295188
20
21.64099928623201
30
0
10
-21.953037774072985
20
20.371010169345986
30
0
10
-23.733680182851113
20
19.101532628286648
30
0
10
-25.592287037946534
20
17.889880432381553
30
0
10
-27.455254565798718
20
16.828969660800311
30
-8.8817841970012523e-15
10
-29.281706824784312
20
16.026862534300012
30
0
10
-31.05075677206576
20
15.590499955413495
30
0
10
-32.74610037034806
20
15.607764840949516
30
-8.8817841970012523e-15
10
-34.341814962210073
20
16.130073697700375
30
-8.8817841970012523e-15
10
-35.787652133343535
20
17.154420059500136
30
0
10
-37.01961905731779
20
18.631809162233058
30
0
10
-37.970494666638182
20
20.475223970499794
30
0
10
-38.580155820479114
20
22.567481431249732
30
-8.8817841970012523e-15
10
-38.806573432095739
20
24.768545648425192
30
8.8817841970012523e-15
10
-38.635259685802048
20
26.923549071621551
30
0
10
-38.072806298788741
20
28.878856290779488
30
8.8817841970012523e-15
10
-37.328110546654422
20
30.173744302323513
30
-8.8817841970012523e-15
10
-36.618890277461851
20
30.946336690424321
30
0
10
-36.084350508394103
20
31.365640650299941
30
0
10
-35.802312087597656
20
31.550953904031964
30
-8.8817841970012523e-15
0
SPLINE
5
208
100
AcDbEntity
8
0
100
AcDbSpline
70
1064
71
5
72
41
73
35
74
0
42
0.000000001
43
0.0000000001
44
0.0000000001
40
0
40
0
40
0
40
0
40
0
40
0
40
0.033333333333333333
40
0.066666666666666666
40
0.10000000000000001
40
0.13333333333333333
40
0.16666666666666666
40
0.19999999999999998
40
0.23333333333333331
40
0.26666666666666666
40
0.29999999999999999
40
0.33333333333333331
40
0.36666666666666664
40
0.39999999999999997
40
0.43333333333333329
40
0.46666666666666662
40
0.49999999999999994
40
0.53333333333333333
40
0.56666666666666665
40
0.59999999999999998
40
0.6333333333333333
40
0.66666666666666663
40
0.69999999999999996
40
0.73333333333333328
40
0.76666666666666661
40
0.79999999999999993
40
0.83333333333333326
40
0.86666666666666659
40
0.89999999999999991
40
0.93333333333333324
40
0.96666666666666656
40
1
40
1
40
1
40
1
40
1
40
1
10
12.154746028634889
20
41.059139618173504
30
-8.8817841970012523e-15
10
12.31988870001928
20
41.485506030969795
30
0
10
12.653498514823436
20
42.329849137447582
30
0
10
13.158955552688745
20
43.558020135904144
30
0
10
13.834302332773582
20
45.057419803931218
30
-8.8817841970012523e-15
10
14.696815386480059
20
46.534645147782385
30
0
10
15.613713306070053
20
47.4672751090894
30
-8.8817841970012523e-15
10
16.624498108408027
20
47.755800820169405
30
0
10
17.753252251069721
20
47.386556418614859
30
0
10
18.996902054417458
20
46.442992620889967
30
-8.8817841970012523e-15
10
20.328600954870559
20
45.0622549404643
30
8.8817841970012523e-15
10
21.697487770937123
20
43.40268945730331
30
0
10
23.030281077864277
20
41.609547001400855
30
0
10
24.23038693017164
20
39.775765459649264
30
0
10
25.189704747272938
20
37.949953233941876
30
0
10
25.802869281716823
20
36.15519043121018
30
-8.8817841970012523e-15
10
25.98125983616919
20
34.404595284748389
30
0
10
25.666025774121866
20
32.716510001137763
30
-8.8817841970012523e-15
10
24.84487133475572
20
31.133809495677074
30
-8.8817841970012523e-15
10
23.55625879793363
20
29.726830472334065
30
0
10
21.877854495454333
20
28.576033990721264
30
0
10
19.919568780034417
20
27.759429027542694
30
0
10
17.814661118287368
20
27.339089768063232
30
-8.8817841970012523e-15
10
15.712940357526515
20
27.345336722200248
30
0
10
13.77001505916262
20
27.770100983053261
30
-8.8817841970012523e-15
10
12.129672450325264
20
28.580602129712219
30
0
10
10.906514584279686
20
29.729030140309256
30
0
10
10.170496358666902
20
31.162524748816853
30
0
10
9.9248383488728145
20
32.835498635480683
30
-8.8817841970012523e-15
10
10.106159987834761
20
34.711311479043843
30
0
10
10.613633912530196
20
36.749666613251286
30
-8.8817841970012523e-15
10
11.187105696969335
20
38.467972190178244
30
-8.8817841970012523e-15
10
11.662642486517051
20
39.771650660669884
30
-8.8817841970012523e-15
10
11.989603357250493
20
40.632773205377219
30
0
10
12.154746028634889
20
41.059139618173504
30
-8.8817841970012523e-15
0
SPLINE
5
209
100
AcDbEntity
8
0
100
AcDbSpline
70
1064
71
5
72
46
73
40
74
0
42
0.000000001
43
0.0000000001
44
0.0000000001
40
0
40
0
40
0
40
0
40
0
40
0
40
0.028571428571428571
40
0.057142857142857141
40
0.085714285714285715
40
0.11428571428571428
40
0.14285714285714285
40
0.17142857142857143
40
0.20000000000000001
40
0.22857142857142859
40
0.25714285714285717
40
0.28571428571428575
40
0.31428571428571433
40
0.34285714285714292
40
0.3714285714285715
40
0.40000000000000008
40
0.42857142857142866
40
0.45714285714285724
40
0.48571428571428582
40
0.51428571428571435
40
0.54285714285714293
40
0.57142857142857151
40
0.60000000000000009
40
0.62857142857142867
40
0.65714285714285725
40
0.68571428571428583
40
0.71428571428571441
40
0.74285714285714299
40
0.77142857142857157
40
0.80000000000000016
40
0.82857142857142874
40
0.85714285714285732
40
0.8857142857142859
40
0.91428571428571448
40
0.94285714285714306
40
0.97142857142857164
40
1
40
1
40
1
40
1
40
1
40
1
10
-13.135811434718295
20
25.068928913751769
30
-8.8817841970012523e-15
10
-13.147252240128939
20
25.281484701777465
30
0
10
-13.117614372369514
20
25.704998980373951
30
0
10
-12.916106968307673
20
26.337032052396875
30
-8.8817841970012523e-15
10
-12.351568547300785
20
27.179511672878878
30
8.8817841970012523e-15
10
-11.250789052149283
20
28.241199870219241
30
-8.8817841970012523e-15
10
-9.8757270755074593
20
29.306424239779325
30
-8.8817841970012523e-15
10
-8.3432317947695687
20
30.350050029172181
30
0
10
-6.7327696092177138
20
31.317199243791485
30
0
10
-5.0876489927153958
20
32.131961012191475
30
0
10
-3.4293592826593846
20
32.712847745573605
30
0
10
-1.7678677682530783
20
32.986599373508568
30
-8.8817841970012523e-15
10
-0.11274126671963813
20
32.901441602952012
30
-8.8817841970012523e-15
10
1.5142187181544764
20
32.44381209973951
30
0
10
3.0734211636609228
20
31.643202965639357
30
0
10
4.5152153407134241
20
30.555615371649271
30
-8.8817841970012523e-15
10
5.7845979464058717
20
29.251767370265128
30
-8.8817841970012523e-15
10
6.8270450694535132
20
27.804017612809599
30
0
10
7.5940297245492259
20
26.272744884785947
30
0
10
8.0482527500851511
20
24.696338406594162
30
0
10
8.1653414363596291
20
23.103119662238655
30
0
10
7.9363239297119161
20
21.52108264755995
30
0
10
7.3694334811783682
20
19.987371242618607
30
0
10
6.4934869096288974
20
18.560496789732369
30
0
10
5.3570099311525965
20
17.323068293780683
30
0
10
4.017858857304649
20
16.362475874033201
30
-8.8817841970012523e-15
10
2.5342579454854617
20
15.75514577798412
30
0
10
0.95647399192501092
20
15.55109620187716
30
8.8817841970012523e-15
10
-0.68460962739443243
20
15.753855140588399
30
-8.8817841970012523e-15
10
-2.3767003962304476
20
16.318987549183984
30
8.8817841970012523e-15
10
-4.1119743495664327
20
17.172926143313109
30
0
10
-5.8767922031688258
20
18.226020713457252
30
0
10
-7.6393048315270997
20
19.388097509125622
30
0
10
-9.339094641050524
20
20.582194631440274
30
-8.8817841970012523e-15
10
-10.872566784877687
20
21.760953047269957
30
0
10
-12.114288550415997
20
22.902503470788762
30
0
10
-12.777801636739319
20
23.783255503099426
30
-8.8817841970012523e-15
10
-13.048969539905658
20
24.429664252219801
30
-8.8817841970012523e-15
10
-13.124370629307656
20
24.856373125726073
30
0
10
-13.135811434718295
20
25.068928913751769
30
-8.8817841970012523e-15
0
ARC
5
210
100
AcDbEntity
8
0
100
AcDbCircle
10
-44.999999999999986
20
24.999999999999982
30
1.5407439555097887e-31
40
3.4999999999999947
100
AcDbArc
50
-59.826535072246948
51
143.492807998122
0
SPLINE
5
211
100
AcDbEntity
8
0
100
AcDbSpline
70
1064
71
5
72
31
73
25
74
0
42
0.000000001
43
0.0000000001
44
0.0000000001
40
0.34006128685197362
40
0.34006128685197362
40
0.34006128685197362
40
0.34006128685197362
40
0.34006128685197362
40
0.34006128685197362
40
0.36666666666666664
40
0.39999999999999997
40
0.43333333333333329
40
0.46666666666666662
40
0.49999999999999994
40
0.53333333333333333
40
0.56666666666666665
40
0.59999999999999998
40
0.6333333333333333
40
0.66666666666666663
40
0.69999999999999996
40
0.73333333333333328
40
0.76666666666666661
40
0.79999999999999993
40
0.83333333333333326
40
0.86666666666666659
40
0.89999999999999991
40
0.93333333333333324
40
0.96666666666666656
40
1
40
1
40
1
40
1
40
1
40
1
10
-43.24083130910644
20
21.974223154794803
30
0
10
-43.134316638509887
20
21.682302116335592
30
8.8817841970012523e-15
10
-42.923621982182844
20
21.016941806943894
30
0
10
-42.700552573253674
20
19.961594544016737
30
0
10
-42.625659372289483
20
18.520833063885306
30
-8.8817841970012523e-15
10
-42.914987690721432
20
16.775915131240605
30
0
10
-43.607136959573964
20
15.135544854012435
30
8.8817841970012523e-15
10
-44.642982803908367
20
13.750391115525138
30
-8.8817841970012523e-15
10
-45.966093970058921
20
12.672365539271585
30
-8.8817841970012523e-15
10
-47.518260504332218
20
11.916739711349697
30
0
10
-49.241468739947805
20
11.4660643976801
30
0
10
-51.07506304802417
20
11.286198257752183
30
0
10
-52.953954821680433
20
11.33945846709285
30
0
10
-54.806965586306049
20
11.597152198182512
30
0
10
-56.55351980590649
20
12.056512714751168
30
0
10
-58.107462632408456
20
12.738313322485379
30
0
10
-59.386721799442803
20
13.66864428828238
30
-8.8817841970012523e-15
10
-60.321470000245711
20
14.865028249702634
30
-8.8817841970012523e-15
10
-60.862746515632239
20
16.321167415931249
30
0
10
-60.991863705279989
20
17.990724652833514
30
0
10
-60.715367197423269
20
19.796416194895386
30
0
10
-60.190306562227896
20
21.272070931910541
30
-8.8817841970012523e-15
10
-59.64341364635348
20
22.348087781726495
30
-8.8817841970012523e-15
10
-59.217174427815912
20
23.037550904680565
30
0
10
-58.989469495031329
20
23.373622635780226
30
0
0
SPLINE
5
212
100
AcDbEntity
8
0
100
AcDbSpline
70
1064
71
5
72
18
73
12
74
0
42
0.000000001
43
0.0000000001
44
0.0000000001
40
0
40
0
40
0
40
0
40
0
40
0
40
0.033333333333333333
40
0.066666666666666666
40
0.10000000000000001
40
0.13333333333333333
40
0.16666666666666666
40
0.19999999999999998
40
0.22093637528167787
40
0.22093637528167787
40
0.22093637528167787
40
0.22093637528167787
40
0.22093637528167787
40
0.22093637528167787
10
-58.989469495031329
20
23.373622635780226
30
0
10
-58.761764562246725
20
23.709694366879909
30
0
10
-58.277184049645996
20
24.364518168324505
30
0
10
-57.467755310484122
20
25.284658071346566
30
8.8817841970012523e-15
10
-56.243834722326056
20
26.348903868888733
30
-8.8817841970012523e-15
10
-54.528127315721463
20
27.326877047764423
30
0
10
-52.687304467893739
20
27.889932210994942
30
-8.8817841970012523e-15
10
-50.930065588385375
20
27.990634948753794
30
0
10
-49.564049087188963
20
27.762606508339239
30
-8.8817841970012523e-15
10
-48.606405256596545
20
27.442729964506185
30
-8.8817841970012523e-15
10
-48.031779659489622
20
27.188457826133074
30
0
10
-47.813237663887193
20
27.082232899194135
30
0
0
SPLINE
5
213
100
AcDbEntity
8
0
100
AcDbSpline
70
1064
71
5
72
41
73
35
74
0
42
0.000000001
43
0.0000000001
44
0.0000000001
40
0
40
0
40
0
40
0
40
0
40
0
40
0.033333333333333333
40
0.066666666666666666
40
0.10000000000000001
40
0.13333333333333333
40
0.16666666666666666
40
0.19999999999999998
40
0.23333333333333331
40
0.26666666666666666
40
0.29999999999999999
40
0.33333333333333331
40
0.36666666666666664
40
0.39999999999999997
40
0.43333333333333329
40
0.46666666666666662
40
0.49999999999999994
40
0.53333333333333333
40
0.56666666666666665
40
0.59999999999999998
40
0.6333333333333333
40
0.66666666666666663
40
0.69999999999999996
40
0.73333333333333328
40
0.76666666666666661
40
0.79999999999999993
40
0.83333333333333326
40
0.86666666666666659
40
0.89999999999999991
40
0.93333333333333324
40
0.96666666666666656
40
1
40
1
40
1
40
1
40
1
40
1
10
12.218037631936854
20
18.539721050188518
30
-8.8817841970012523e-15
10
12.336448747263223
20
18.847703582703495
30
0
10
12.61994143234082
20
19.444907226346249
30
0
10
13.182837969585945
20
20.278878712747648
30
0
10
14.189621656531177
20
21.248318561020181
30
0
10
15.793325053219316
20
22.189003946581394
30
8.8817841970012523e-15
10
17.640143008950865
20
22.835422055659627
30
-8.8817841970012523e-15
10
19.621042699714167
20
23.1719889130582
30
0
10
21.634481767044637
20
23.187493994121127
30
0
10
23.597458182896457
20
22.873208226496775
30
-8.8817841970012523e-15
10
25.440068199596841
20
22.227091078441632
30
-8.8817841970012523e-15
10
27.102317871895245
20
21.257295904060083
30
0
10
28.530174462046986
20
19.98607775762553
30
8.8817841970012523e-15
10
29.672003619134767
20
18.453724787686227
30
-8.8817841970012523e-15
10
30.474993125779903
20
16.722612506183697
30
-8.8817841970012523e-15
10
30.892268253705208
20
14.87110605399733
30
0
10
30.890059722215803
20
12.987658685640364
30
0
10
30.454867677595661
20
11.164968005388685
30
0
10
29.601198279053133
20
9.4941324772155937
30
0
10
28.378385764670732
20
8.0589013453213472
30
0
10
26.85925850088292
20
6.9321293323826065
30
0
10
25.129779412791194
20
6.171931799108183
30
0
10
23.278831076573169
20
5.8179612632992121
30
-8.8817841970012523e-15
10
21.387276112687928
20
5.8870224311636381
30
-8.8817841970012523e-15
10
19.519584840697974
20
6.3699029677894643
30
0
10
17.730681451923608
20
7.2359460173025925
30
-8.8817841970012523e-15
10
16.070846610361507
20
8.43650456259601
30
0
10
14.591435810282409
20
9.9085907137895273
30
0
10
13.349937076646736
20
11.578272859858282
30
-8.8817841970012523e-15
10
12.416079207357839
20
13.363952871517808
30
0
10
11.860630244095114
20
15.181163159063152
30
0
10
11.766612292960417
20
16.594187752368974
30
-8.8817841970012523e-15
10
11.909474740382578
20
17.597012031256341
30
0
10
12.099626516610485
20
18.231738517673534
30
0
10
12.218037631936854
20
18.539721050188518
30
-8.8817841970012523e-15
0
SPLINE
5
214
100
AcDbEntity
8
0
100
AcDbSpline
70
1064
71
5
72
41
73
35
74
0
42
0.000000001
43
0.0000000001
44
0.0000000001
40
0
40
0
40
0
40
0
40
0
40
0
40
0.033333333333333333
40
0.066666666666666666
40
0.10000000000000001
40
0.13333333333333333
40
0.16666666666666666
40
0.19999999999999998
40
0.23333333333333331
40
0.26666666666666666
40
0.29999999999999999
40
0.33333333333333331
40
0.36666666666666664
40
0.39999999999999997
40
0.43333333333333329
40
0.46666666666666662
40
0.49999999999999994
40
0.53333333333333333
40
0.56666666666666665
40
0.59999999999999998
40
0.6333333333333333
40
0.66666666666666663
40
0.69999999999999996
40
0.73333333333333328
40
0.76666666666666661
40
0.79999999999999993
40
0.83333333333333326
40
0.86666666666666659
40
0.89999999999999991
40
0.93333333333333324
40
0.96666666666666656
40
1
40
1
40
1
40
1
40
1
40
1
10
-20.529147832879296
20
16.283819460904649
30
0
10
-20.173472754999466
20
16.523888557447822
30
-8.8817841970012523e-15
10
-19.437601237354304
20
16.968532192554427
30
0
10
-18.271827654489002
20
17.519105807666776
30
-8.8817841970012523e-15
10
-16.641914920253228
20
17.989473166663462
30
8.8817841970012523e-15
10
-14.601062964746145
20
18.09857025726307
30
0
10
-12.672452122981166
20
17.722513080447147
30
0
10
-10.956242168850302
20
16.883166963770517
30
-8.8817841970012523e-15
10
-9.5293759285491575
20
15.626069645247187
30
-8.8817841970012523e-15
10
-8.4347132380631091
20
14.015788122323645
30
0
10
-7.6830701317919692
20
12.132967911652736
30
0
10
-7.2630475824288085
20
10.072411648365003
30
0
10
-7.1482780878477614
20
7.941075661330359
30
-8.8817841970012523e-15
10
-7.3054923034372301
20
5.8560919341755096
30
0
10
-7.7021977000625146
20
3.9432375683647125
30
0
10
-8.3141481523636358
20
2.3343343487019386
30
0
10
-9.1238244240538222
20
1.146224040071171
30
0
10
-10.119501856184304
20
0.45886475620857015
30
0
10
-11.293708941710159
20
0.29642862743622045
30
0
10
-12.642919118475524
20
0.59912542847089689
30
0
10
-14.160332988010305
20
1.2464822271335241
30
0
10
-15.826137669562446
20
2.0979070916580609
30
0
10
-17.59888843722689
20
3.026279524700425
30
-8.8817841970012523e-15
10
-19.405334216370576
20
3.9565884181212461
30
-8.8817841970012523e-15
10
-21.133272273008199
20
4.8964772557813401
30
-8.8817841970012523e-15
10
-22.652122396782403
20
5.9009332587766519
30
-8.8817841970012523e-15
10
-23.831161163331153
20
7.0425148448399986
30
0
10
-24.558470841610642
20
8.3799882798790435
30
-8.8817841970012523e-15
10
-24.760160287154129
20
9.9268080970830788
30
0
10
-24.418659662909846
20
11.621525825322864
30
0
10
-23.562120156859393
20
13.35322729593191
30
0
10
-22.516733030528201
20
14.658092976364564
30
0
10
-21.571651704633339
20
15.5281176132954
30
0
10
-20.884822910759144
20
16.043750364361486
30
8.8817841970012523e-15
10
-20.529147832879296
20
16.283819460904649
30
0
0
SPLINE
5
215
100
AcDbEntity
8
0
100
AcDbSpline
70
1064
71
5
72
46
73
40
74
0
42
0.000000001
43
0.0000000001
44
0.0000000001
40
0
40
0
40
0
40
0
40
0
40
0
40
0.028571428571428571
40
0.057142857142857141
40
0.085714285714285715
40
0.11428571428571428
40
0.14285714285714285
40
0.17142857142857143
40
0.20000000000000001
40
0.22857142857142859
40
0.25714285714285717
40
0.28571428571428575
40
0.31428571428571433
40
0.34285714285714292
40
0.3714285714285715
40
0.40000000000000008
40
0.42857142857142866
40
0.45714285714285724
40
0.48571428571428582
40
0.51428571428571435
40
0.54285714285714293
40
0.57142857142857151
40
0.60000000000000009
40
0.62857142857142867
40
0.65714285714285725
40
0.68571428571428583
40
0.71428571428571441
40
0.74285714285714299
40
0.77142857142857157
40
0.80000000000000016
40
0.82857142857142874
40
0.85714285714285732
40
0.8857142857142859
40
0.91428571428571448
40
0.94285714285714306
40
0.97142857142857164
40
1
40
1
40
1
40
1
40
1
40
1
10
35.021677552155992
20
9.628852445583556
30
0
10
35.137304000262311
20
9.9574707476470099
30
-8.8817841970012523e-15
10
35.401514575796767
20
10.602994559847449
30
0
10
35.89452128298128
20
11.530523607151453
30
-8.8817841970012523e-15
10
36.732970368966171
20
12.664513993026592
30
-1.7763568394002505e-14
10
38.038536363989074
20
13.865072349623617
30
8.8817841970012523e-15
10
39.547594374867799
20
14.811170516599768
30
0
10
41.200421601407207
20
15.474507324127124
30
-8.8817841970012523e-15
10
42.93540884838913
20
15.837017545713056
30
-8.8817841970012523e-15
10
44.693124140814703
20
15.892136003240742
30
0
10
46.417326913136264
20
15.643850480170915
30
0
10
48.055648811587659
20
15.10556191039533
30
-8.8817841970012523e-15
10
49.560427201121897
20
14.299114181626493
30
-8.8817841970012523e-15
10
50.889481035870062
20
13.253804491871197
30
-8.8817841970012523e-15
10
52.007025852700899
20
12.005563064225385
30
0
10
52.88391561381745
20
10.59533128234926
30
0
10
53.497806855344088
20
9.0673315749642054
30
-8.8817841970012523e-15
10
53.833413495130401
20
7.4674120376821058
30
0
10
53.882789922785676
20
5.8413919692940635
30
0
10
53.645684780430187
20
4.2334053746873508
30
0
10
53.12919236293466
20
2.6861426864463644
30
8.8817841970012523e-15
10
52.347456638713716
20
1.2411487205108984
30
8.8817841970012523e-15
10
51.321411445095421
20
-0.060985379453983857
30
8.8817841970012523e-15
10
50.078611596190541
20
-1.1802321560325058
30
8.8817841970012523e-15
10
48.652984413048436
20
-2.0773516481558008
30
0
10
47.08403068275986
20
-2.7166956158918754
30
0
10
45.416170287822283
20
-3.0687506053104774
30
0
10
43.698028092855239
20
-3.1127070319867278
30
-8.8817841970012523e-15
10
41.981900441413146
20
-2.8394126716744705
30
-8.8817841970012523e-15
10
40.322804591685291
20
-2.2532538571630378
30
-8.8817841970012523e-15
10
38.776276493893548
20
-1.3706371352287383
30
8.8817841970012523e-15
10
37.396386172014218
20
-0.2191817545283814
30
0
10
36.233656467318347
20
1.1633076571001388
30
0
10
35.33297565458372
20
2.7295944263760874
30
0
10
34.731497942168652
20
4.4240544062268743
30
-8.8817841970012523e-15
10
34.456811308178352
20
6.1857862053682471
30
8.8817841970012523e-15
10
34.51136829386607
20
7.5983405728233659
30
0
10
34.707755887158875
20
8.6312847474667702
30
8.8817841970012523e-15
10
34.906051104049681
20
9.3002341435201181
30
-8.8817841970012523e-15
10
35.021677552155992
20
9.628852445583556
30
0
0
SPLINE
5
216
100
AcDbEntity
8
0
100
AcDbSpline
70
1064
71
5
72
46
73
40
74
0
42
0.000000001
43
0.0000000001
44
0.0000000001
40
0
40
0
40
0
40
0
40
0
40
0
40
0.028571428571428571
40
0.057142857142857141
40
0.085714285714285715
40
0.11428571428571428
40
0.14285714285714285
40
0.17142857142857143
40
0.20000000000000001
40
0.22857142857142859
40
0.25714285714285717
40
0.28571428571428575
40
0.31428571428571433
40
0.34285714285714292
40
0.3714285714285715
40
0.40000000000000008
40
0.42857142857142866
40
0.45714285714285724
40
0.48571428571428582
40
0.51428571428571435
40
0.54285714285714293
40
0.57142857142857151
40
0.60000000000000009
40
0.62857142857142867
40
0.65714285714285725
40
0.68571428571428583
40
0.71428571428571441
40
0.74285714285714299
40
0.77142857142857157
40
0.80000000000000016
40
0.82857142857142874
40
0.85714285714285732
40
0.8857142857142859
40
0.91428571428571448
40
0.94285714285714306
40
0.97142857142857164
40
1
40
1
40
1
40
1
40
1
40
1
10
-42.343922931824636
20
9.8741950457907901
30
0
10
-42.130766457382464
20
10.086364636160503
30
-8.8817841970012523e-15
10
-41.676459954950047
20
10.477907193708138
30
0
10
-40.912741020815716
20
10.965172864345291
30
-8.8817841970012523e-15
10
-39.74351205091822
20
11.414072807252326
30
-8.8817841970012523e-15
10
-38.090920969782353
20
11.659770468043064
30
8.8817841970012523e-15
10
-36.327560899178728
20
11.621647624610196
30
-8.8817841970012523e-15
10
-34.546827498736654
20
11.335007247084253
30
0
10
-32.848565293805223
20
10.830682303737035
30
0
10
-31.332589865920998
20
10.125598837425576
30
-8.8817841970012523e-15
10
-30.090160698615733
20
9.2274831079692383
30
-8.8817841970012523e-15
10
-29.194968983482902
20
8.1413314910393098
30
0
10
-28.694544736685668
20
6.8750976685681167
30
0
10
-28.600492621488275
20
5.446094447341105
30
0
10
-28.88140133843612
20
3.8861174721856422
30
8.8817841970012523e-15
10
-29.477590052541505
20
2.2372904016268493
30
-8.8817841970012523e-15
10
-30.313358397622629
20
0.54889330629580679
30
0
10
-31.310497921707402
20
-1.1262145366044662
30
0
10
-32.400166852447676
20
-2.7347708226395522
30
0
10
-33.538138436532819
20
-4.2269546007597798
30
-8.8817841970012523e-15
10
-34.701111406302289
20
-5.5566560913897254
30
-8.8817841970012523e-15
10
-35.877552065210672
20
-6.6807791221801871
30
0
10
-37.06002988726879
20
-7.5587440652454116
30
0
10
-38.237858865804256
20
-8.1522915741270836
30
8.8817841970012523e-15
10
-39.387417920036462
20
-8.4243534148900263
30
0
10
-40.471320825185558
20
-8.3414452426846566
30
0
10
-41.451249241939358
20
-7.8815715633358643
30
0
10
-42.296631030479332
20
-7.0403669597989449
30
0
10
-42.997028810936555
20
-5.8393220498942551
30
0
10
-43.556527705526676
20
-4.3228526436445849
30
-8.8817841970012523e-15
10
-43.985037150551491
20
-2.5532639012379796
30
0
10
-44.290253243936213
20
-0.60661068857061018
30
0
10
-44.47036002048678
20
1.4317886639339354
30
0
10
-44.503866355643325
20
3.4713854191945277
30
0
10
-44.353625054036499
20
5.4217167436408058
30
0
10
-43.97795020374258
20
7.1983192683288353
30
0
10
-43.467175753799587
20
8.4224543721252143
30
0
10
-42.95539880160316
20
9.2048896514898644
30
0
10
-42.557079406266809
20
9.6620254554210803
30
-8.8817841970012523e-15
10
-42.343922931824636
20
9.8741950457907901
30
0
0
ARC
5
217
100
AcDbEntity
8
0
100
AcDbCircle
10
-2.7755575615628914e-15
20
9.9999999999999982
30
3.8518598887744717e-33
40
3.4999999999999991
100
AcDbArc
50
18.549693619061031
51
231.66326154867969
0
SPLINE
5
218
100
AcDbEntity
8
0
100
AcDbSpline
70
1064
71
5
72
36
73
30
74
0
42
0.000000001
43
0.0000000001
44
0.0000000001
40
0.17151587160699508
40
0.17151587160699508
40
0.17151587160699508
40
0.17151587160699508
40
0.17151587160699508
40
0.17151587160699508
40
0.19999999999999998
40
0.23333333333333331
40
0.26666666666666666
40
0.29999999999999999
40
0.33333333333333331
40
0.36666666666666664
40
0.39999999999999997
40
0.43333333333333329
40
0.46666666666666662
40
0.49999999999999994
40
0.53333333333333333
40
0.56666666666666665
40
0.59999999999999998
40
0.6333333333333333
40
0.66666666666666663
40
0.69999999999999996
40
0.73333333333333328
40
0.76666666666666661
40
0.79999999999999993
40
0.83333333333333326
40
0.86666666666666659
40
0.89999999999999991
40
0.93333333333333324
40
0.96666666666666656
40
1
40
1
40
1
40
1
40
1
40
1
10
3.3181683316224979
20
11.113444620543634
30
8.8817841970012523e-15
10
3.626641473807577
20
11.165870609757047
30
-8.8817841970012523e-15
10
4.3009458230949695
20
11.241996925449984
30
-8.8817841970012523e-15
10
5.3484685911171184
20
11.232088922598173
30
0
10
6.7534465722304047
20
10.954972590699118
30
-8.8817841970012523e-15
10
8.4324054572104341
20
10.187784126030071
30
0
10
9.9882946604679077
20
9.0098732351568973
30
-8.8817841970012523e-15
10
11.304542684000147
20
7.5188692649482292
30
0
10
12.328732060632463
20
5.795212438198889
30
-8.8817841970012523e-15
10
13.02613179482851
20
3.9151765406103167
30
0
10
13.377971515272417
20
1.9521479284763443
30
0
10
13.379568075828958
20
-0.021617946260878984
30
-8.8817841970012523e-15
10
13.038667996403159
20
-1.9331583217070958
30
0
10
12.373913310367442
20
-3.7075525968158618
30
-8.8817841970012523e-15
10
11.41331988423298
20
-5.2649896990001466
30
0
10
10.193438142387048
20
-6.5263615784574984
30
0
10
8.7588747124215285
20
-7.4227208925605765
30
0
10
7.1618032800285878
20
-7.9035466224777178
30
0
10
5.4616066953366005
20
-7.9458593049064863
30
8.8817841970012523e-15
10
3.7245083424795302
20
-7.5628215272130621
30
0
10
2.0208860496791834
20
-6.79370257114895
30
8.8817841970012523e-15
10
0.42267734029481141
20
-5.6943597470149898
30
-8.8817841970012523e-15
10
-0.99925220384576074
20
-4.3279722265154552
30
0
10
-2.1777069288240849
20
-2.7553182285735689
30
-8.8817841970012523e-15
10
-3.0519421347630926
20
-1.0267728130702491
30
0
10
-3.5716663531188142
20
0.81074714117180591
30
0
10
-3.675170527134707
20
2.3286717535656831
30
0
10
-3.5694048348587817
20
3.4682217930618542
30
0
10
-3.4181537335978973
20
4.2188451436318708
30
0
10
-3.3226679240035226
20
4.5905205688521651
30
-8.8817841970012523e-15
0
SPLINE
5
219
100
AcDbEntity
8
0
100
AcDbSpline
70
1064
71
5
72
13
73
7
74
0
42
0.000000001
43
0.0000000001
44
0.0000000001
40
0
40
0
40
0
40
0
40
0
40
0
40
0.033333333333333333
40
0.050163044553425198
40
0.050163044553425198
40
0.050163044553425198
40
0.050163044553425198
40
0.050163044553425198
40
0.050163044553425198
10
-3.3226679240035226
20
4.5905205688521651
30
-8.8817841970012523e-15
10
-3.2271821144091462
20
4.9621959940724576
30
0
10
-3.0535988151245732
20
5.5160549602945119
30
0
10
-2.8357738309363976
20
6.0585828927041918
30
0
10
-2.5755947044622349
20
6.5845377515591075
30
-8.8817841970012523e-15
10
-2.2758767640018842
20
7.0883489748559958
30
0
10
-2.1709873794139778
20
7.2546741908426799
30
-8.8817841970012523e-15
0
SPLINE
5
220
100
AcDbEntity
8
0
100
AcDbSpline
70
1064
71
5
72
46
73
40
74
0
42
0.000000001
43
0.0000000001
44
0.0000000001
40
0
40
0
40
0
40
0
40
0
40
0
40
0.028571428571428571
40
0.057142857142857141
40
0.085714285714285715
40
0.11428571428571428
40
0.14285714285714285
40
0.17142857142857143
40
0.20000000000000001
40
0.22857142857142859
40
0.25714285714285717
40
0.28571428571428575
40
0.31428571428571433
40
0.34285714285714292
40
0.3714285714285715
40
0.40000000000000008
40
0.42857142857142866
40
0.45714285714285724
40
0.48571428571428582
40
0.51428571428571435
40
0.54285714285714293
40
0.57142857142857151
40
0.60000000000000009
40
0.62857142857142867
40
0.65714285714285725
40
0.68571428571428583
40
0.71428571428571441
40
0.74285714285714299
40
0.77142857142857157
40
0.80000000000000016
40
0.82857142857142874
40
0.85714285714285732
40
0.8857142857142859
40
0.91428571428571448
40
0.94285714285714306
40
0.97142857142857164
40
1
40
1
40
1
40
1
40
1
40
1
10
-7.6718719816853689
20
86.726660756918506
30
-1.7763568394002505e-14
10
-7.5754235443585696
20
87.016914531583524
30
-8.8817841970012523e-15
10
-7.3532647531767683
20
87.587776181889723
30
8.8817841970012523e-15
10
-6.9323307761398425
20
88.412366946887886
30
-8.8817841970012523e-15
10
-6.2017857150805602
20
89.437899059801424
30
0
10
-5.0431687623442381
20
90.571382272667762
30
0
10
-3.690243252323179
20
91.53063008114124
30
8.8817841970012523e-15
10
-2.2016100846353472
20
92.287735287440981
30
0
10
-0.63623040769921313
20
92.810910824641937
30
0
10
0.95302593192304497
20
93.063411911514763
30
0
10
2.5178030520478742
20
93.010579613537985
30
-8.8817841970012523e-15
10
4.0131638571295056
20
92.626634900829146
30
0
10
5.396449419057415
20
91.901140861913774
30
-1.7763568394002505e-14
10
6.6259068970860699
20
90.846893705748329
30
0
10
7.6602968048971007
20
89.503648432515376
30
8.8817841970012523e-15
10
8.4614479157824416
20
87.929376655741237
30
8.8817841970012523e-15
10
8.9963210698567107
20
86.19385023738964
30
8.8817841970012523e-15
10
9.2393040494098564
20
84.371450849547358
30
-8.8817841970012523e-15
10
9.1745094509873635
20
82.53427528515661
30
8.8817841970012523e-15
10
8.7980680477882451
20
80.745393521099587
30
0
10
8.1185039386225828
20
79.060378013404673
30
-1.7763568394002505e-14
10
7.1571364113685085
20
77.528403401179929
30
0
10
5.9488279717526229
20
76.193592841101378
30
-8.8817841970012523e-15
10
4.5421196131093975
20
75.095914734505016
30
-1.7763568394002505e-14
10
3.0011720201611434
20
74.272967364123588
30
8.8817841970012523e-15
10
1.4006699723626392
20
73.75804636845821
30
0
10
-0.18378103368411725
20
73.575829333263499
30
0
10
-1.6844142983030796
20
73.73841306048574
30
-8.8817841970012523e-15
10
-3.0492983489148848
20
74.241723641244818
30
0
10
-4.2536062284216056
20
75.060082255397234
30
-8.8817841970012523e-15
10
-5.2951736550024817
20
76.149283143342103
30
8.8817841970012523e-15
10
-6.1819067208593372
20
77.454079846699244
30
-8.8817841970012523e-15
10
-6.9217033616719394
20
78.914239257378185
30
0
10
-7.511633111979469
20
80.471028962178167
30
8.8817841970012523e-15
10
-7.9266882721533092
20
82.073754768513197
30
-1.7763568394002505e-14
10
-8.1292551396028507
20
83.678890456228714
30
-8.8817841970012523e-15
10
-8.0895321054198579
20
84.934849677674691
30
8.8817841970012523e-15
10
-7.9319553771376059
20
85.8462535338995
30
-1.7763568394002505e-14
10
-7.7683204190121726
20
86.436406982253473
30
8.8817841970012523e-15
10
-7.6718719816853689
20
86.726660756918506
30
-1.7763568394002505e-14
0
SPLINE
5
221
100
AcDbEntity
8
0
100
AcDbSpline
70
1064
71
5
72
36
73
30
74
0
42
0.000000001
43
0.0000000001
44
0.0000000001
40
0
40
0
40
0
40
0
40
0
40
0
40
0.040000000000000001
40
0.080000000000000002
40
0.12
40
0.16
40
0.20000000000000001
40
0.24000000000000002
40
0.28000000000000003
40
0.32000000000000001
40
0.35999999999999999
40
0.39999999999999997
40
0.43999999999999995
40
0.47999999999999993
40
0.51999999999999991
40
0.55999999999999994
40
0.59999999999999998
40
0.64000000000000001
40
0.68000000000000005
40
0.72000000000000008
40
0.76000000000000012
40
0.80000000000000016
40
0.84000000000000019
40
0.88000000000000023
40
0.92000000000000026
40
0.9600000000000003
40
1
40
1
40
1
40
1
40
1
40
1
10
-26.386012825872363
20
73.701824024846971
30
-8.8817841970012523e-15
10
-26.317319006415062
20
74.098726314020354
30
8.8817841970012523e-15
10
-26.136259847635841
20
74.881394642569859
30
8.8817841970012523e-15
10
-25.733065661513766
20
76.008417374055398
30
0
10
-24.933203186929319
20
77.369802286084706
30
0
10
-23.520272033809391
20
78.748684733491899
30
-8.8817841970012523e-15
10
-21.745223598935929
20
79.745070680363384
30
0
10
-19.691974098239388
20
80.323975840275523
30
-8.8817841970012523e-15
10
-17.482984505051181
20
80.472360012631157
30
0
10
-15.287145572380936
20
80.196719936191144
30
8.8817841970012523e-15
10
-13.294835758814481
20
79.520936263533159
30
-8.8817841970012523e-15
10
-11.691320873451856
20
78.484388656898091
30
0
10
-10.630093066959303
20
77.140323613424329
30
8.8817841970012523e-15
10
-10.207227226127287
20
75.55443580858956
30
-1.7763568394002505e-14
10
-10.430778597177543
20
73.803672233277169
30
8.8817841970012523e-15
10
-11.239089996830057
20
71.974706681754284
30
8.8817841970012523e-15
10
-12.524020896570672
20
70.162366577539089
30
0
10
-14.152002785736631
20
68.468431755475464
30
-1.7763568394002505e-14
10
-15.984532362447929
20
66.999859930476347
30
-8.8817841970012523e-15
10
-17.900960805828813
20
65.868592221837517
30
-8.8817841970012523e-15
10
-19.798906252477572
20
65.179061054352516
30
-8.8817841970012523e-15
10
-21.590501288456608
20
65.013599999107271
30
-8.8817841970012523e-15
10
-23.200186420763906
20
65.417535466722043
30
0
10
-24.562181602206149
20
66.385357875594536
30
-8.8817841970012523e-15
10
-25.617897004261682
20
67.841650995038407
30
-8.8817841970012523e-15
10
-26.316927715372692
20
69.657940034987504
30
0
10
-26.55857327171708
20
71.27273192785924
30
-8.8817841970012523e-15
10
-26.548422764379698
20
72.499980907529547
30
-8.8817841970012523e-15
10
-26.454706645329679
20
73.304921735673574
30
0
10
-26.386012825872363
20
73.701824024846971
30
-8.8817841970012523e-15
0
SPLINE
5
222
100
AcDbEntity
8
0
100
AcDbSpline
70
1064
71
5
72
41
73
35
74
0
42
0.000000001
43
0.0000000001
44
0.0000000001
40
0
40
0
40
0
40
0
40
0
40
0
40
0.033333333333333333
40
0.066666666666666666
40
0.10000000000000001
40
0.13333333333333333
40
0.16666666666666666
40
0.19999999999999998
40
0.23333333333333331
40
0.26666666666666666
40
0.29999999999999999
40
0.33333333333333331
40
0.36666666666666664
40
0.39999999999999997
40
0.43333333333333329
40
0.46666666666666662
40
0.49999999999999994
40
0.53333333333333333
40
0.56666666666666665
40
0.59999999999999998
40
0.6333333333333333
40
0.66666666666666663
40
0.69999999999999996
40
0.73333333333333328
40
0.76666666666666661
40
0.79999999999999993
40
0.83333333333333326
40
0.86666666666666659
40
0.89999999999999991
40
0.93333333333333324
40
0.96666666666666656
40
1
40
1
40
1
40
1
40
1
40
1
10
-45.642091328343319
20
76.384775754049315
30
-8.8817841970012523e-15
10
-45.507304461699817
20
76.667510750221169
30
8.8817841970012523e-15
10
-45.197131622700496
20
77.213855628355631
30
-8.8817841970012523e-15
10
-44.613859193033115
20
77.972488169438364
30
8.8817841970012523e-15
10
-43.620260908722621
20
78.857502840208127
30
-8.8817841970012523e-15
10
-42.088330735073441
20
79.77021124256855
30
0
10
-40.35076527404086
20
80.518811962406176
30
0
10
-38.501217167319169
20
81.127217327004985
30
8.8817841970012523e-15
10
-36.637643471891181
20
81.598250236828932
30
8.8817841970012523e-15
10
-34.857544520016248
20
81.892433155240397
30
-8.8817841970012523e-15
10
-33.251512312390368
20
81.941808500495313
30
-8.8817841970012523e-15
10
-31.896077611918045
20
81.67376226762579
30
-8.8817841970012523e-15
10
-30.846993999823077
20
81.030883835588412
30
-1.7763568394002505e-14
10
-30.13141421464562
20
79.993906877726332
30
8.8817841970012523e-15
10
-29.742366236205182
20
78.599941384308948
30
8.8817841970012523e-15
10
-29.652147931016781
20
76.92581755125164
30
-8.8817841970012523e-15
10
-29.824432651866676
20
75.0745095904132
30
8.8817841970012523e-15
10
-30.22546048167959
20
73.161322645275831
30
8.8817841970012523e-15
10
-30.838561580669378
20
71.298792718095982
30
-8.8817841970012523e-15
10
-31.666086103432733
20
69.587996041018471
30
8.8817841970012523e-15
10
-32.715912681124031
20
68.117988408569445
30
1.7763568394002505e-14
10
-33.991734833054544
20
66.963021787055098
30
-8.8817841970012523e-15
10
-35.482162986285168
20
66.180557385433374
30
8.8817841970012523e-15
10
-37.149226116492365
20
65.808641552090023
30
-8.8817841970012523e-15
10
-38.919751581896605
20
65.863646215693436
30
8.8817841970012523e-15
10
-40.698713079241536
20
66.340123171572827
30
-8.8817841970012523e-15
10
-42.379982228371169
20
67.210282024766954
30
0
10
-43.858020652343214
20
68.423287593750331
30
8.8817841970012523e-15
10
-45.039045811057875
20
69.904526343962971
30
1.7763568394002505e-14
10
-45.852848301667848
20
71.554198147582014
30
-8.8817841970012523e-15
10
-46.25292914209831
20
73.261293474926362
30
-8.8817841970012523e-15
10
-46.223733300816136
20
74.586687082355098
30
0
10
-46.005852822561621
20
75.517445651324664
30
0
10
-45.776878194986843
20
76.102040757877504
30
8.8817841970012523e-15
10
-45.642091328343319
20
76.384775754049315
30
-8.8817841970012523e-15
0
SPLINE
5
223
100
AcDbEntity
8
0
100
AcDbSpline
70
1064
71
5
72
36
73
30
74
0
42
0.000000001
43
0.0000000001
44
0.0000000001
40
0
40
0
40
0
40
0
40
0
40
0
40
0.040000000000000001
40
0.080000000000000002
40
0.12
40
0.16
40
0.20000000000000001
40
0.24000000000000002
40
0.28000000000000003
40
0.32000000000000001
40
0.35999999999999999
40
0.39999999999999997
40
0.43999999999999995
40
0.47999999999999993
40
0.51999999999999991
40
0.55999999999999994
40
0.59999999999999998
40
0.64000000000000001
40
0.68000000000000005
40
0.72000000000000008
40
0.76000000000000012
40
0.80000000000000016
40
0.84000000000000019
40
0.88000000000000023
40
0.92000000000000026
40
0.9600000000000003
40
1
40
1
40
1
40
1
40
1
40
1
10
28.030537075525682
20
77.493561903092626
30
-8.8817841970012523e-15
10
28.386114195817008
20
77.745538257542933
30
8.8817841970012523e-15
10
29.119873672893423
20
78.215910819113091
30
-8.8817841970012523e-15
10
30.275835360626452
20
78.812737332651736
30
8.8817841970012523e-15
10
31.877330569466103
20
79.359833721735924
30
0
10
33.856318580712291
20
79.564453706693342
30
-1.7763568394002505e-14
10
35.697222557578186
20
79.248069696463972
30
0
10
37.298009848984542
20
78.401738834525261
30
0
10
38.575381293911775
20
77.060435028017565
30
-8.8817841970012523e-15
10
39.469782297542942
20
75.312106481036551
30
8.8817841970012523e-15
10
39.942869593457566
20
73.281374502526205
30
8.8817841970012523e-15
10
39.975857100987191
20
71.115612836386219
30
-8.8817841970012523e-15
10
39.567957793765899
20
68.970648189295559
30
-8.8817841970012523e-15
10
38.73510684927794
20
66.996604669153712
30
8.8817841970012523e-15
10
37.509180928913153
20
65.324372453952549
30
-8.8817841970012523e-15
10
35.940179715685119
20
64.061522816078465
30
0
10
34.098614498455404
20
63.287125676300818
30
-8.8817841970012523e-15
10
32.077909514196826
20
63.046752793800536
30
-8.8817841970012523e-15
10
29.997826967547741
20
63.346312355348658
30
8.8817841970012523e-15
10
28.005956554764737
20
64.147236645349906
30
8.8817841970012523e-15
10
26.258240390712977
20
65.378266026331175
30
0
10
24.90121390307625
20
66.945449965210486
30
-8.8817841970012523e-15
10
24.0535447147866
20
68.742327403261243
30
0
10
23.787255774770127
20
70.659758436760782
30
0
10
24.108993397216029
20
72.595540293005612
30
-8.8817841970012523e-15
10
24.974008786322543
20
74.453504746399972
30
0
10
26.033896391852412
20
75.80500485288853
30
0
10
26.986410951145427
20
76.704052692411267
30
0
10
27.674959955234357
20
77.241585548642334
30
8.8817841970012523e-15
10
28.030537075525682
20
77.493561903092626
30
-8.8817841970012523e-15
0
SPLINE
5
224
100
AcDbEntity
8
0
100
AcDbSpline
70
1064
71
5
72
46
73
40
74
0
42
0.000000001
43
0.0000000001
44
0.0000000001
40
0
40
0
40
0
40
0
40
0
40
0
40
0.028571428571428571
40
0.057142857142857141
40
0.085714285714285715
40
0.11428571428571428
40
0.14285714285714285
40
0.17142857142857143
40
0.20000000000000001
40
0.22857142857142859
40
0.25714285714285717
40
0.28571428571428575
40
0.31428571428571433
40
0.34285714285714292
40
0.3714285714285715
40
0.40000000000000008
40
0.42857142857142866
40
0.45714285714285724
40
0.48571428571428582
40
0.51428571428571435
40
0.54285714285714293
40
0.57142857142857151
40
0.60000000000000009
40
0.62857142857142867
40
0.65714285714285725
40
0.68571428571428583
40
0.71428571428571441
40
0.74285714285714299
40
0.77142857142857157
40
0.80000000000000016
40
0.82857142857142874
40
0.85714285714285732
40
0.8857142857142859
40
0.91428571428571448
40
0.94285714285714306
40
0.97142857142857164
40
1
40
1
40
1
40
1
40
1
40
1
10
7.985764049557825
20
71.693971264163196
30
0
10
8.273667458655428
20
71.927351624568828
30
-8.8817841970012523e-15
10
8.863839457831185
20
72.368349412063452
30
8.8817841970012523e-15
10
9.7849433314933147
20
72.946308872184176
30
-8.8817841970012523e-15
10
11.058283763678405
20
73.527046061613419
30
8.8817841970012523e-15
10
12.66856588821198
20
73.893586617333895
30
0
10
14.247246770651781
20
73.875175853283025
30
-1.7763568394002505e-14
10
15.747703432171354
20
73.46688291977722
30
0
10
17.123900531548848
20
72.687974685487418
30
8.8817841970012523e-15
10
18.327636181995214
20
71.585198251354967
30
-8.8817841970012523e-15
10
19.314036370336702
20
70.222317934832972
30
0
10
20.046899872997241
20
68.670052998954418
30
0
10
20.504083959968614
20
66.996061894829467
30
-8.8817841970012523e-15
10
20.683152917084943
20
65.25467231243438
30
0
10
20.606532932728999
20
63.477424137285858
30
0
10
20.312792727122368
20
61.684722742669138
30
8.8817841970012523e-15
10
19.848758042958092
20
59.896112500750235
30
0
10
19.261057144947536
20
58.141970058254834
30
-1.7763568394002505e-14
10
18.588714064990562
20
56.472542875155625
30
8.8817841970012523e-15
10
17.853371531852098
20
54.973407542524917
30
0
10
17.058174324226332
20
53.75710030937902
30
0
10
16.194574696889788
20
52.931493390413202
30
-8.8817841970012523e-15
10
15.246965763329394
20
52.576378720145982
30
-8.8817841970012523e-15
10
14.197988252278682
20
52.712507312060481
30
8.8817841970012523e-15
10
13.034064735397015
20
53.285842433114581
30
0
10
11.752932559262392
20
54.201174204931561
30
8.8817841970012523e-15
10
10.371187052952477
20
55.348243677890629
30
8.8817841970012523e-15
10
8.9312603957232515
20
56.629452004723973
30
8.8817841970012523e-15
10
7.510537983270055
20
57.989978016061499
30
8.8817841970012523e-15
10
6.2083081176702928
20
59.40879278251046
30
0
10
5.130290963618255
20
60.884851345330247
30
8.8817841970012523e-15
10
4.3736157381250749
20
62.424804172067994
30
8.8817841970012523e-15
10
4.0125961813457698
20
64.03087211882908
30
-8.8817841970012523e-15
10
4.0815379528299642
20
65.686841313845306
30
-8.8817841970012523e-15
10
4.5666203257499207
20
67.350595620232255
30
8.8817841970012523e-15
10
5.4210433824359763
20
68.963579206275114
30
-8.8817841970012523e-15
10
6.3446017584072232
20
70.15824138964939
30
-1.7763568394002505e-14
10
7.1364190032455586
20
70.968067249629655
30
-1.7763568394002505e-14
10
7.6978606404602221
20
71.460590903757563
30
8.8817841970012523e-15
10
7.985764049557825
20
71.693971264163196
30
0
0
ARC
5
225
100
AcDbEntity
8
0
100
AcDbCircle
10
-25.000000000000004
20
60
30
-8.8817841970012523e-15
40
3.5000000000000027
100
AcDbArc
50
-34.04452116058922
51
126.73468955674963
0
SPLINE
5
226
100
AcDbEntity
8
0
100
AcDbSpline
70
1064
71
5
72
28
73
22
74
0
42
0.000000001
43
0.0000000001
44
0.0000000001
40
0.44923285427431203
40
0.44923285427431203
40
0.44923285427431203
40
0.44923285427431203
40
0.44923285427431203
40
0.44923285427431203
40
0.46666666666666662
40
0.49999999999999994
40
0.53333333333333333
40
0.56666666666666665
40
0.59999999999999998
40
0.6333333333333333
40
0.66666666666666663
40
0.69999999999999996
40
0.73333333333333328
40
0.76666666666666661
40
0.79999999999999993
40
0.83333333333333326
40
0.86666666666666659
40
0.89999999999999991
40
0.93333333333333324
40
0.96666666666666656
40
1
40
1
40
1
40
1
40
1
40
1
10
-22.099890176926131
20
58.040570742764501
30
0
10
-22.056449031018698
20
57.880272369765663
30
8.8817841970012523e-15
10
-21.945694649013042
20
57.407468803059572
30
-8.8817841970012523e-15
10
-21.839615591077056
20
56.597035450458996
30
-8.8817841970012523e-15
10
-21.878711034025681
20
55.415616595141572
30
0
10
-22.272305674924663
20
53.855924854447309
30
-8.8817841970012523e-15
10
-23.119510485524216
20
52.157548976147119
30
-8.8817841970012523e-15
10
-24.336406005165131
20
50.569884370587133
30
8.8817841970012523e-15
10
-25.862206032274603
20
49.178304265076065
30
-8.8817841970012523e-15
10
-27.623252436072857
20
48.063622874407706
30
-8.8817841970012523e-15
10
-29.538606283209837
20
47.297105444387938
30
-8.8817841970012523e-15
10
-31.523737206376779
20
46.935429003289286
30
0
10
-33.49225394939382
20
47.015735129074145
30
0
10
-35.358121634536936
20
47.550273574522549
30
0
10
-37.037734904106351
20
48.521326101376701
30
-8.8817841970012523e-15
10
-38.451942875601524
20
49.874784205645952
30
0
10
-39.528574268251283
20
51.516610224249476
30
0
10
-40.208322616116199
20
53.330060504570497
30
0
10
-40.401983882402234
20
54.818413645014878
30
8.8817841970012523e-15
10
-40.342932271532973
20
55.903212850040873
30
8.8817841970012523e-15
10
-40.214664278642822
20
56.599905338962557
30
8.8817841970012523e-15
10
-40.128850078331041
20
56.940380896094368
30
0
0
SPLINE
5
227
100
AcDbEntity
8
0
100
AcDbSpline
70
1064
71
5
72
20
73
14
74
0
42
0.000000001
43
0.0000000001
44
0.0000000001
40
0
40
0
40
0
40
0
40
0
40
0
40
0.033333333333333333
40
0.066666666666666666
40
0.10000000000000001
40
0.13333333333333333
40
0.16666666666666666
40
0.19999999999999998
40
0.23333333333333331
40
0.26666666666666666
40
0.29880131859010539
40
0.29880131859010539
40
0.29880131859010539
40
0.29880131859010539
40
0.29880131859010539
40
0.29880131859010539
10
-40.128850078331041
20
56.940380896094368
30
0
10
-40.043035878019268
20
57.280856453226193
30
-1.7763568394002505e-14
10
-39.828047069662318
20
57.946066192831864
30
0
10
-39.378751789190176
20
58.889193025932798
30
8.8817841970012523e-15
10
-38.54652453095806
20
60.015177441673409
30
-8.8817841970012523e-15
10
-37.193530603914581
20
61.176964213118325
30
-8.8817841970012523e-15
10
-35.616443805124035
20
62.085875735850692
30
8.8817841970012523e-15
10
-33.904896431682509
20
62.744778019463148
30
8.8817841970012523e-15
10
-32.137336312228079
20
63.157068547857378
30
-8.8817841970012523e-15
10
-30.382983571892677
20
63.316999278102145
30
-8.8817841970012523e-15
10
-29.016534135421633
20
63.241001482936795
30
8.8817841970012523e-15
10
-28.030609572274944
20
63.066895761905286
30
-8.8817841970012523e-15
10
-27.398135924089217
20
62.899582173073902
30
-8.8817841970012523e-15
10
-27.093386645191945
20
62.804947834404757
30
8.8817841970012523e-15
0
ENDSEC
0
SECTION
2
OBJECTS
0
DICTIONARY
5
C
100
AcDbDictionary
3
ACAD_GROUP
350
D
3
ACAD_MLINESTYLE
350
17
0
DICTIONARY
5
D
100
AcDbDictionary
0
DICTIONARY
5
1A
330
C
100
AcDbDictionary
0
DICTIONARY
5
17
100
AcDbDictionary
0
ENDSEC
0
EOF
