  0
SECTION
  2
HEADER
  9
$ACADVER
  1
AC1024
  9
$ACADMAINTVER
 70
   225
  9
$DWGCODEPAGE
  3
ANSI_1252
  9
$LASTSAVEDBY
  1
ducro
  9
$INSBASE
 10
0.0
 20
0.0
 30
0.0
  9
$EXTMIN
 10
-234.9321466906619
 20
-9.999999999999982
 30
0.0
  9
$EXTMAX
 10
656.7750014572615
 20
301.1400186775322
 30
0.0
  9
$LIMMIN
 10
0.0
 20
0.0
  9
$LIMMAX
 10
12.0
 20
9.0
  9
$ORTHOMODE
 70
     0
  9
$REGENMODE
 70
     1
  9
$FILLMODE
 70
     1
  9
$QTEXTMODE
 70
     0
  9
$MIRRTEXT
 70
     0
  9
$LTSCALE
 40
1.0
  9
$ATTMODE
 70
     1
  9
$TEXTSIZE
 40
0.2
  9
$TRACEWID
 40
0.05
  9
$TEXTSTYLE
  7
STANDARD
  9
$CLAYER
  8
0
  9
$CELTYPE
  6
Continuous
  9
$CECOLOR
 62
   256
  9
$CELTSCALE
 40
1.0
  9
$DISPSILH
 70
     0
  9
$DIMSCALE
 40
1.0
  9
$DIMASZ
 40
0.18
  9
$DIMEXO
 40
0.0625
  9
$DIMDLI
 40
0.38
  9
$DIMRND
 40
0.0
  9
$DIMDLE
 40
0.0
  9
$DIMEXE
 40
0.18
  9
$DIMTP
 40
0.0
  9
$DIMTM
 40
0.0
  9
$DIMTXT
 40
0.18
  9
$DIMCEN
 40
0.09
  9
$DIMTSZ
 40
0.0
  9
$DIMTOL
 70
     0
  9
$DIMLIM
 70
     0
  9
$DIMTIH
 70
     1
  9
$DIMTOH
 70
     1
  9
$DIMSE1
 70
     0
  9
$DIMSE2
 70
     0
  9
$DIMTAD
 70
     0
  9
$DIMZIN
 70
     0
  9
$DIMBLK
  1

  9
$DIMASO
 70
     1
  9
$DIMSHO
 70
     1
  9
$DIMPOST
  1

  9
$DIMAPOST
  1

  9
$DIMALT
 70
     0
  9
$DIMALTD
 70
     2
  9
$DIMALTF
 40
25.4
  9
$DIMLFAC
 40
1.0
  9
$DIMTOFL
 70
     0
  9
$DIMTVP
 40
0.0
  9
$DIMTIX
 70
     0
  9
$DIMSOXD
 70
     0
  9
$DIMSAH
 70
     0
  9
$DIMBLK1
  1

  9
$DIMBLK2
  1

  9
$DIMSTYLE
  2
Standard
  9
$DIMCLRD
 70
     0
  9
$DIMCLRE
 70
     0
  9
$DIMCLRT
 70
     0
  9
$DIMTFAC
 40
1.0
  9
$DIMGAP
 40
0.09
  9
$DIMJUST
 70
     0
  9
$DIMSD1
 70
     0
  9
$DIMSD2
 70
     0
  9
$DIMTOLJ
 70
     1
  9
$DIMTZIN
 70
     0
  9
$DIMALTZ
 70
     0
  9
$DIMALTTZ
 70
     0
  9
$DIMUPT
 70
     0
  9
$DIMDEC
 70
     4
  9
$DIMTDEC
 70
     4
  9
$DIMALTU
 70
     2
  9
$DIMALTTD
 70
     2
  9
$DIMTXSTY
  7
STANDARD
  9
$DIMAUNIT
 70
     0
  9
$DIMADEC
 70
     0
  9
$DIMALTRND
 40
0.0
  9
$DIMAZIN
 70
     0
  9
$DIMDSEP
 70
    46
  9
$DIMATFIT
 70
     3
  9
$DIMFRAC
 70
     0
  9
$DIMLDRBLK
  1

  9
$DIMLUNIT
 70
     2
  9
$DIMLWD
 70
    -2
  9
$DIMLWE
 70
    -2
  9
$DIMTMOVE
 70
     0
  9
$DIMFXL
 40
1.0
  9
$DIMFXLON
 70
     0
  9
$DIMJOGANG
 40
0.7853981633974483
  9
$DIMTFILL
 70
     0
  9
$DIMTFILLCLR
 70
     0
  9
$DIMARCSYM
 70
     0
  9
$DIMLTYPE
  6

  9
$DIMLTEX1
  6

  9
$DIMLTEX2
  6

  9
$DIMTXTDIRECTION
 70
     0
  9
$LUNITS
 70
     2
  9
$LUPREC
 70
     4
  9
$SKETCHINC
 40
0.1
  9
$FILLETRAD
 40
0.0
  9
$AUNITS
 70
     0
  9
$AUPREC
 70
     0
  9
$MENU
  1
.
  9
$ELEVATION
 40
0.0
  9
$PELEVATION
 40
0.0
  9
$THICKNESS
 40
0.0
  9
$LIMCHECK
 70
     0
  9
$CHAMFERA
 40
0.0
  9
$CHAMFERB
 40
0.0
  9
$CHAMFERC
 40
0.0
  9
$CHAMFERD
 40
0.0
  9
$SKPOLY
 70
     0
  9
$TDCREATE
 40
2458524.855787037
  9
$TDUCREATE
 40
2458524.814120371
  9
$TDUPDATE
 40
2458524.862141204
  9
$TDUUPDATE
 40
2458524.820474537
  9
$TDINDWG
 40
0.0063541667
  9
$TDUSRTIMER
 40
0.0063541667
  9
$USRTIMER
 70
     1
  9
$ANGBASE
 50
0.0
  9
$ANGDIR
 70
     0
  9
$PDMODE
 70
     0
  9
$PDSIZE
 40
0.0
  9
$PLINEWID
 40
0.0
  9
$SPLFRAME
 70
     0
  9
$SPLINETYPE
 70
     6
  9
$SPLINESEGS
 70
     8
  9
$HANDSEED
  5
1010527
  9
$SURFTAB1
 70
     6
  9
$SURFTAB2
 70
     6
  9
$SURFTYPE
 70
     6
  9
$SURFU
 70
     6
  9
$SURFV
 70
     6
  9
$UCSBASE
  2

  9
$UCSNAME
  2

  9
$UCSORG
 10
0.0
 20
0.0
 30
0.0
  9
$UCSXDIR
 10
1.0
 20
0.0
 30
0.0
  9
$UCSYDIR
 10
0.0
 20
1.0
 30
0.0
  9
$UCSORTHOREF
  2

  9
$UCSORTHOVIEW
 70
     0
  9
$UCSORGTOP
 10
0.0
 20
0.0
 30
0.0
  9
$UCSORGBOTTOM
 10
0.0
 20
0.0
 30
0.0
  9
$UCSORGLEFT
 10
0.0
 20
0.0
 30
0.0
  9
$UCSORGRIGHT
 10
0.0
 20
0.0
 30
0.0
  9
$UCSORGFRONT
 10
0.0
 20
0.0
 30
0.0
  9
$UCSORGBACK
 10
0.0
 20
0.0
 30
0.0
  9
$PUCSBASE
  2

  9
$PUCSNAME
  2

  9
$PUCSORG
 10
0.0
 20
0.0
 30
0.0
  9
$PUCSXDIR
 10
1.0
 20
0.0
 30
0.0
  9
$PUCSYDIR
 10
0.0
 20
1.0
 30
0.0
  9
$PUCSORTHOREF
  2

  9
$PUCSORTHOVIEW
 70
     0
  9
$PUCSORGTOP
 10
0.0
 20
0.0
 30
0.0
  9
$PUCSORGBOTTOM
 10
0.0
 20
0.0
 30
0.0
  9
$PUCSORGLEFT
 10
0.0
 20
0.0
 30
0.0
  9
$PUCSORGRIGHT
 10
0.0
 20
0.0
 30
0.0
  9
$PUCSORGFRONT
 10
0.0
 20
0.0
 30
0.0
  9
$PUCSORGBACK
 10
0.0
 20
0.0
 30
0.0
  9
$USERI1
 70
     0
  9
$USERI2
 70
     0
  9
$USERI3
 70
     0
  9
$USERI4
 70
     0
  9
$USERI5
 70
     0
  9
$USERR1
 40
0.0
  9
$USERR2
 40
0.0
  9
$USERR3
 40
0.0
  9
$USERR4
 40
0.0
  9
$USERR5
 40
0.0
  9
$WORLDVIEW
 70
     1
  9
$SHADEDGE
 70
     3
  9
$SHADEDIF
 70
    70
  9
$TILEMODE
 70
     1
  9
$MAXACTVP
 70
    64
  9
$PINSBASE
 10
0.0
 20
0.0
 30
0.0
  9
$PLIMCHECK
 70
     0
  9
$PEXTMIN
 10
1.000000000000000E+20
 20
1.000000000000000E+20
 30
1.000000000000000E+20
  9
$PEXTMAX
 10
-1.000000000000000E+20
 20
-1.000000000000000E+20
 30
-1.000000000000000E+20
  9
$PLIMMIN
 10
0.0
 20
0.0
  9
$PLIMMAX
 10
12.0
 20
9.0
  9
$UNITMODE
 70
     0
  9
$VISRETAIN
 70
     1
  9
$PLINEGEN
 70
     0
  9
$PSLTSCALE
 70
     1
  9
$TREEDEPTH
 70
  3020
  9
$CMLSTYLE
  2
Standard
  9
$CMLJUST
 70
     0
  9
$CMLSCALE
 40
1.0
  9
$PROXYGRAPHICS
 70
     1
  9
$MEASUREMENT
 70
     0
  9
$CELWEIGHT
370
    -1
  9
$ENDCAPS
280
     0
  9
$JOINSTYLE
280
     0
  9
$LWDISPLAY
290
     0
  9
$INSUNITS
 70
     4
  9
$HYPERLINKBASE
  1

  9
$STYLESHEET
  1

  9
$XEDIT
290
     1
  9
$CEPSNTYPE
380
     0
  9
$PSTYLEMODE
290
     1
  9
$FINGERPRINTGUID
  2
{C3F403F9-B89E-1941-A01F-2CA58BC2CA7B}
  9
$VERSIONGUID
  2
{90117FA5-674B-CC45-9691-F6FB6C8AD3C4}
  9
$EXTNAMES
290
     1
  9
$PSVPSCALE
 40
0.0
  9
$OLESTARTUP
290
     0
  9
$SORTENTS
280
   127
  9
$INDEXCTL
280
     0
  9
$HIDETEXT
280
     0
  9
$XCLIPFRAME
280
     2
  9
$HALOGAP
280
     0
  9
$OBSCOLOR
 70
   257
  9
$OBSLTYPE
280
     0
  9
$INTERSECTIONDISPLAY
280
     0
  9
$INTERSECTIONCOLOR
 70
   257
  9
$DIMASSOC
280
     1
  9
$PROJECTNAME
  1

  9
$CAMERADISPLAY
290
     0
  9
$LENSLENGTH
 40
50.0
  9
$CAMERAHEIGHT
 40
0.0
  9
$STEPSPERSEC
 40
2.0
  9
$STEPSIZE
 40
6.0
  9
$3DDWFPREC
 40
2.0
  9
$PSOLWIDTH
 40
0.25
  9
$PSOLHEIGHT
 40
4.0
  9
$LOFTANG1
 40
1.570796326794896
  9
$LOFTANG2
 40
1.570796326794896
  9
$LOFTMAG1
 40
0.0
  9
$LOFTMAG2
 40
0.0
  9
$LOFTPARAM
 70
     7
  9
$LOFTNORMALS
280
     1
  9
$LATITUDE
 40
37.795
  9
$LONGITUDE
 40
-122.394
  9
$NORTHDIRECTION
 40
0.0
  9
$TIMEZONE
 70
 -8000
  9
$LIGHTGLYPHDISPLAY
280
     1
  9
$TILEMODELIGHTSYNCH
280
     1
  9
$CMATERIAL
347
1010005
  9
$SOLIDHIST
280
     0
  9
$SHOWHIST
280
     1
  9
$DWFFRAME
280
     2
  9
$DGNFRAME
280
     0
  9
$REALWORLDSCALE
290
     1
  9
$INTERFERECOLOR
 62
     1
  9
$INTERFEREOBJVS
345
1010027
  9
$INTERFEREVPVS
346
1010024
  9
$CSHADOW
280
     0
  9
$SHADOWPLANELOCATION
 40
0.0
  0
ENDSEC
  0
SECTION
  2
CLASSES
  0
CLASS
  1
ACDBDICTIONARYWDFLT
  2
AcDbDictionaryWithDefault
  3
ObjectDBX Classes
 90
        0
 91
        1
280
     0
281
     0
  0
CLASS
  1
MATERIAL
  2
AcDbMaterial
  3
ObjectDBX Classes
 90
     1153
 91
        3
280
     0
281
     0
  0
CLASS
  1
VISUALSTYLE
  2
AcDbVisualStyle
  3
ObjectDBX Classes
 90
     4095
 91
       24
280
     0
281
     0
  0
CLASS
  1
TABLESTYLE
  2
AcDbTableStyle
  3
ObjectDBX Classes
 90
     4095
 91
        1
280
     0
281
     0
  0
CLASS
  1
SCALE
  2
AcDbScale
  3
ObjectDBX Classes
 90
     1153
 91
       17
280
     0
281
     0
  0
CLASS
  1
MLEADERSTYLE
  2
AcDbMLeaderStyle
  3
ACDB_MLEADERSTYLE_CLASS
 90
     4095
 91
        1
280
     0
281
     0
  0
CLASS
  1
ACDBSECTIONVIEWSTYLE
  2
AcDbSectionViewStyle
  3
ObjectDBX Classes
 90
     1025
 91
        1
280
     0
281
     0
  0
CLASS
  1
ACDBDETAILVIEWSTYLE
  2
AcDbDetailViewStyle
  3
ObjectDBX Classes
 90
     1025
 91
        1
280
     0
281
     0
  0
CLASS
  1
SORTENTSTABLE
  2
AcDbSortentsTable
  3
ObjectDBX Classes
 90
        0
 91
        1
280
     0
281
     0
  0
CLASS
  1
DICTIONARYVAR
  2
AcDbDictionaryVar
  3
ObjectDBX Classes
 90
        0
 91
        9
280
     0
281
     0
  0
CLASS
  1
CELLSTYLEMAP
  2
AcDbCellStyleMap
  3
ObjectDBX Classes
 90
     1152
 91
        1
280
     0
281
     0
  0
ENDSEC
  0
SECTION
  2
TABLES
  0
TABLE
  2
VPORT
  5
8
330
0
100
AcDbSymbolTable
 70
     1
  0
VPORT
  5
1010059
330
8
100
AcDbSymbolTableRecord
100
AcDbViewportTableRecord
  2
*Active
 70
     0
 10
0.0
 20
0.0
 11
1.0
 21
1.0
 12
333.3915233212762
 22
98.40197054602572
 13
0.0
 23
0.0
 14
1.0
 24
1.0
 15
0.0
 25
0.0
 16
0.0
 26
0.0
 36
1.0
 17
0.0
 27
0.0
 37
0.0
 40
458.5311721415187
 41
2.292712066905615
 42
50.0
 43
0.0
 44
0.0
 50
0.0
 51
0.0
 71
     0
 72
  1000
 73
     1
 74
     3
 75
     0
 76
     0
 77
     0
 78
     0
281
     0
 65
     1
110
-28.16322564748799
120
-11.93629080731713
130
0.0
111
1.0
121
0.0
131
0.0
112
0.0
122
1.0
132
0.0
 79
     0
146
0.0
348
1010023
 60
     3
 61
     5
292
     1
282
     1
141
0.0
142
0.0
 63
   250
421
  3355443
1001
ACAD_NAV_VCDISPLAY
1070
     1
  0
ENDTAB
  0
TABLE
  2
LTYPE
  5
5
330
0
100
AcDbSymbolTable
 70
     3
  0
LTYPE
  5
14
330
5
100
AcDbSymbolTableRecord
100
AcDbLinetypeTableRecord
  2
BYBLOCK
 70
     0
  3

 72
    65
 73
     0
 40
0.0
  0
LTYPE
  5
15
330
5
100
AcDbSymbolTableRecord
100
AcDbLinetypeTableRecord
  2
BYLAYER
 70
     0
  3

 72
    65
 73
     0
 40
0.0
  0
LTYPE
  5
1010001
330
5
100
AcDbSymbolTableRecord
100
AcDbLinetypeTableRecord
  2
Continuous
 70
     0
  3
Solid line
 72
    65
 73
     0
 40
0.0
  0
ENDTAB
  0
TABLE
  2
LAYER
  5
2
330
0
100
AcDbSymbolTable
 70
     3
  0
LAYER
  5
50
102
{ACAD_XDICTIONARY
360
10104E0
102
}
330
2
100
AcDbSymbolTableRecord
100
AcDbLayerTableRecord
  2
0
 70
     0
 62
     7
  6
Continuous
370
    -3
390
1010003
347
1010015
  0
LAYER
  5
51
102
{ACAD_XDICTIONARY
360
10104E2
102
}
330
2
100
AcDbSymbolTableRecord
100
AcDbLayerTableRecord
  2
CUTOUTS
 70
     0
 62
     1
  6
Continuous
370
    -3
390
1010003
347
1010015
  0
LAYER
  5
52
102
{ACAD_XDICTIONARY
360
10104E4
102
}
330
2
100
AcDbSymbolTableRecord
100
AcDbLayerTableRecord
  2
PERIMETER
 70
     0
 62
     5
  6
Continuous
370
    -3
390
1010003
347
1010015
  0
ENDTAB
  0
TABLE
  2
STYLE
  5
3
330
0
100
AcDbSymbolTable
 70
     1
  0
STYLE
  5
11
330
3
100
AcDbSymbolTableRecord
100
AcDbTextStyleTableRecord
  2
STANDARD
 70
     0
 40
0.0
 41
1.0
 50
0.0
 71
     0
 42
0.2
  3

  4

  0
ENDTAB
  0
TABLE
  2
VIEW
  5
6
330
0
100
AcDbSymbolTable
 70
     0
  0
ENDTAB
  0
TABLE
  2
UCS
  5
7
330
0
100
AcDbSymbolTable
 70
     0
  0
ENDTAB
  0
TABLE
  2
APPID
  5
9
330
0
100
AcDbSymbolTable
 70
     3
  0
APPID
  5
12
330
9
100
AcDbSymbolTableRecord
100
AcDbRegAppTableRecord
  2
ACAD
 70
     0
  0
APPID
  5
1010058
330
9
100
AcDbSymbolTableRecord
100
AcDbRegAppTableRecord
  2
ACAD_NAV_VCDISPLAY
 70
     0
  0
APPID
  5
1010177
330
9
100
AcDbSymbolTableRecord
100
AcDbRegAppTableRecord
  2
ACAD_EXEMPT_FROM_CAD_STANDARDS
 70
     0
  0
ENDTAB
  0
TABLE
  2
DIMSTYLE
  5
A
330
0
100
AcDbSymbolTable
 70
     2
100
AcDbDimStyleTable
 71
     1
340
1010052
  0
DIMSTYLE
105
1010052
330
A
100
AcDbSymbolTableRecord
100
AcDbDimStyleTableRecord
  2
Standard
 70
     0
340
11
  0
ENDTAB
  0
TABLE
  2
BLOCK_RECORD
  5
1
330
0
100
AcDbSymbolTable
 70
     6
  0
BLOCK_RECORD
  5
1F
102
{ACAD_XDICTIONARY
360
1010130
102
}
330
1
100
AcDbSymbolTableRecord
100
AcDbBlockTableRecord
  2
*MODEL_SPACE
340
1010055
 70
     0
280
     1
281
     0
  0
BLOCK_RECORD
  5
1B
330
1
100
AcDbSymbolTableRecord
100
AcDbBlockTableRecord
  2
*PAPER_SPACE
340
1010056
 70
     0
280
     1
281
     0
  0
BLOCK_RECORD
  5
10100A0
330
1
100
AcDbSymbolTableRecord
100
AcDbBlockTableRecord
  2
3
340
0
 70
     4
280
     1
281
     0
  0
BLOCK_RECORD
  5
1010180
330
1
100
AcDbSymbolTableRecord
100
AcDbBlockTableRecord
  2
5
340
0
 70
     4
280
     1
281
     0
  0
BLOCK_RECORD
  5
1010255
330
1
100
AcDbSymbolTableRecord
100
AcDbBlockTableRecord
  2
6
340
0
 70
     4
280
     1
281
     0
  0
BLOCK_RECORD
  5
101032A
330
1
100
AcDbSymbolTableRecord
100
AcDbBlockTableRecord
  2
10
340
0
 70
     4
280
     1
281
     0
  0
BLOCK_RECORD
  5
10103FF
330
1
100
AcDbSymbolTableRecord
100
AcDbBlockTableRecord
  2
14
340
0
 70
     4
280
     1
281
     0
  0
ENDTAB
  0
ENDSEC
  0
SECTION
  2
BLOCKS
  0
BLOCK
  5
20
330
1F
100
AcDbEntity
  8
0
100
AcDbBlockBegin
  2
*MODEL_SPACE
 70
     0
 10
0.0
 20
0.0
 30
0.0
  3
*MODEL_SPACE
  1

  0
ENDBLK
  5
21
330
1F
100
AcDbEntity
  8
0
100
AcDbBlockEnd
  0
BLOCK
  5
1C
330
1B
100
AcDbEntity
 67
     1
  8
0
100
AcDbBlockBegin
  2
*PAPER_SPACE
 70
     0
 10
0.0
 20
0.0
 30
0.0
  3
*PAPER_SPACE
  1

  0
ENDBLK
  5
1D
330
1B
100
AcDbEntity
 67
     1
  8
0
100
AcDbBlockEnd
  0
BLOCK
  5
10100E7
330
10100A0
100
AcDbEntity
  8
0
100
AcDbBlockBegin
  2
3
 70
     0
 10
0.0
 20
0.0
 30
0.0
  3
3
  1

  0
LINE
  5
10100A1
330
10100A0
100
AcDbEntity
  8
PERIMETER
100
AcDbLine
 10
9.825000485760496
 20
5.999999999999978
 30
0.0
 11
7.125000485760466
 21
5.999999999999978
 31
0.0
  0
LINE
  5
10100A2
330
10100A0
100
AcDbEntity
  8
PERIMETER
100
AcDbLine
 10
7.125000485760466
 20
5.999999999999978
 30
0.0
 11
7.125000485760608
 21
8.999999999999987
 31
0.0
  0
LINE
  5
10100A3
330
10100A0
100
AcDbEntity
  8
PERIMETER
100
AcDbLine
 10
7.125000485760608
 20
8.999999999999987
 30
0.0
 11
6.125000485760593
 21
9.999999999999944
 31
0.0
  0
LINE
  5
10100A4
330
10100A0
100
AcDbEntity
  8
PERIMETER
100
AcDbLine
 10
6.125000485760593
 20
9.999999999999944
 30
0.0
 11
3.125000485760622
 21
9.999999999999944
 31
0.0
  0
LINE
  5
10100A5
330
10100A0
100
AcDbEntity
  8
PERIMETER
100
AcDbLine
 10
3.125000485760622
 20
9.999999999999944
 30
0.0
 11
2.125000485760608
 21
9.000000000000056
 31
0.0
  0
LINE
  5
10100A6
330
10100A0
100
AcDbEntity
  8
PERIMETER
100
AcDbLine
 10
2.125000485760608
 20
9.000000000000056
 30
0.0
 11
2.125000485760892
 21
5.999999999999996
 31
0.0
  0
LINE
  5
10100A7
330
10100A0
100
AcDbEntity
  8
PERIMETER
100
AcDbLine
 10
2.125000485760892
 20
5.999999999999996
 30
0.0
 11
-0.624999514239093
 21
5.999999999999996
 31
0.0
  0
LINE
  5
10100A8
330
10100A0
100
AcDbEntity
  8
PERIMETER
100
AcDbLine
 10
-0.624999514239093
 20
5.999999999999996
 30
0.0
 11
-0.624999514238951
 21
9.000000000000198
 31
0.0
  0
LINE
  5
10100A9
330
10100A0
100
AcDbEntity
  8
PERIMETER
100
AcDbLine
 10
-0.624999514238951
 20
9.000000000000198
 30
0.0
 11
-1.624999514238965
 21
9.999999999999964
 31
0.0
  0
LINE
  5
10100AA
330
10100A0
100
AcDbEntity
  8
PERIMETER
100
AcDbLine
 10
-1.624999514238965
 20
9.999999999999964
 30
0.0
 11
-4.624999514238936
 21
9.999999999999964
 31
0.0
  0
LINE
  5
10100AB
330
10100A0
100
AcDbEntity
  8
PERIMETER
100
AcDbLine
 10
-4.624999514238936
 20
9.999999999999964
 30
0.0
 11
-5.62499951423895
 21
9.000000000000092
 31
0.0
  0
LINE
  5
10100AC
330
10100A0
100
AcDbEntity
  8
PERIMETER
100
AcDbLine
 10
-5.62499951423895
 20
9.000000000000092
 30
0.0
 11
-5.624999514238666
 21
6.000000000000014
 31
0.0
  0
LINE
  5
10100AD
330
10100A0
100
AcDbEntity
  8
PERIMETER
100
AcDbLine
 10
-5.624999514238666
 20
6.000000000000014
 30
0.0
 11
-8.424999514238677
 21
6.000000000000014
 31
0.0
  0
LINE
  5
10100AE
330
10100A0
100
AcDbEntity
  8
PERIMETER
100
AcDbLine
 10
-8.424999514238677
 20
6.000000000000014
 30
0.0
 11
-8.424999514238677
 21
9.000000000000003
 31
0.0
  0
LINE
  5
10100AF
330
10100A0
100
AcDbEntity
  8
PERIMETER
100
AcDbLine
 10
-8.424999514238677
 20
9.000000000000003
 30
0.0
 11
-9.42499951423869
 21
9.999999999999964
 31
0.0
  0
LINE
  5
10100B0
330
10100A0
100
AcDbEntity
  8
PERIMETER
100
AcDbLine
 10
-9.42499951423869
 20
9.999999999999964
 30
0.0
 11
-12.42499951423866
 21
9.999999999999964
 31
0.0
  0
LINE
  5
10100B1
330
10100A0
100
AcDbEntity
  8
PERIMETER
100
AcDbLine
 10
-12.42499951423866
 20
9.999999999999964
 30
0.0
 11
-13.42499951423868
 21
9.000000000000003
 31
0.0
  0
LINE
  5
10100B2
330
10100A0
100
AcDbEntity
  8
PERIMETER
100
AcDbLine
 10
-13.42499951423868
 20
9.000000000000003
 30
0.0
 11
-13.42499951423868
 21
6.000000000000014
 31
0.0
  0
LINE
  5
10100B3
330
10100A0
100
AcDbEntity
  8
PERIMETER
100
AcDbLine
 10
-13.42499951423868
 20
6.000000000000014
 30
0.0
 11
-16.27499951423864
 21
6.000000000000031
 31
0.0
  0
LINE
  5
10100B4
330
10100A0
100
AcDbEntity
  8
PERIMETER
100
AcDbLine
 10
-16.27499951423864
 20
6.000000000000031
 30
0.0
 11
-16.27499951423864
 21
9.000000000000003
 31
0.0
  0
LINE
  5
10100B5
330
10100A0
100
AcDbEntity
  8
PERIMETER
100
AcDbLine
 10
-16.27499951423864
 20
9.000000000000003
 30
0.0
 11
-17.27499951423844
 21
9.999999999999982
 31
0.0
  0
LINE
  5
10100B6
330
10100A0
100
AcDbEntity
  8
PERIMETER
100
AcDbLine
 10
-17.27499951423844
 20
9.999999999999982
 30
0.0
 11
-20.27499951423842
 21
9.999999999999982
 31
0.0
  0
LINE
  5
10100B7
330
10100A0
100
AcDbEntity
  8
PERIMETER
100
AcDbLine
 10
-20.27499951423842
 20
9.999999999999982
 30
0.0
 11
-21.27499951423843
 21
9.000000000000003
 31
0.0
  0
LINE
  5
10100B8
330
10100A0
100
AcDbEntity
  8
PERIMETER
100
AcDbLine
 10
-21.27499951423843
 20
9.000000000000003
 30
0.0
 11
-21.27499951423843
 21
6.000000000000031
 31
0.0
  0
LINE
  5
10100B9
330
10100A0
100
AcDbEntity
  8
PERIMETER
100
AcDbLine
 10
-21.27499951423843
 20
6.000000000000031
 30
0.0
 11
-24.17499951423843
 21
6.000000000000031
 31
0.0
  0
LINE
  5
10100BA
330
10100A0
100
AcDbEntity
  8
PERIMETER
100
AcDbLine
 10
-24.17499951423843
 20
6.000000000000031
 30
0.0
 11
-24.17499951423843
 21
9.000000000000003
 31
0.0
  0
LINE
  5
10100BB
330
10100A0
100
AcDbEntity
  8
PERIMETER
100
AcDbLine
 10
-24.17499951423843
 20
9.000000000000003
 30
0.0
 11
-25.17499951423844
 21
9.999999999999982
 31
0.0
  0
LINE
  5
10100BC
330
10100A0
100
AcDbEntity
  8
PERIMETER
100
AcDbLine
 10
-25.17499951423844
 20
9.999999999999982
 30
0.0
 11
-28.17499951423841
 21
9.999999999999982
 31
0.0
  0
LINE
  5
10100BD
330
10100A0
100
AcDbEntity
  8
PERIMETER
100
AcDbLine
 10
-28.17499951423841
 20
9.999999999999982
 30
0.0
 11
-29.17499951423814
 21
9.000000000000003
 31
0.0
  0
LINE
  5
10100BE
330
10100A0
100
AcDbEntity
  8
PERIMETER
100
AcDbLine
 10
-29.17499951423814
 20
9.000000000000003
 30
0.0
 11
-29.17499951423814
 21
6.000000000000049
 31
0.0
  0
LINE
  5
10100BF
330
10100A0
100
AcDbEntity
  8
PERIMETER
100
AcDbLine
 10
-29.17499951423814
 20
6.000000000000049
 30
0.0
 11
-32.12499951423815
 21
6.000000000000049
 31
0.0
  0
LINE
  5
10100C0
330
10100A0
100
AcDbEntity
  8
PERIMETER
100
AcDbLine
 10
-32.12499951423815
 20
6.000000000000049
 30
0.0
 11
-32.12499951423815
 21
9.000000000000003
 31
0.0
  0
LINE
  5
10100C1
330
10100A0
100
AcDbEntity
  8
PERIMETER
100
AcDbLine
 10
-32.12499951423815
 20
9.000000000000003
 30
0.0
 11
-33.12499951423817
 21
10.0
 31
0.0
  0
LINE
  5
10100C2
330
10100A0
100
AcDbEntity
  8
PERIMETER
100
AcDbLine
 10
-33.12499951423817
 20
10.0
 30
0.0
 11
-36.12499951423815
 21
10.0
 31
0.0
  0
LINE
  5
10100C3
330
10100A0
100
AcDbEntity
  8
PERIMETER
100
AcDbLine
 10
-36.12499951423815
 20
10.0
 30
0.0
 11
-37.12499951423794
 21
9.000000000000003
 31
0.0
  0
LINE
  5
10100C4
330
10100A0
100
AcDbEntity
  8
PERIMETER
100
AcDbLine
 10
-37.12499951423794
 20
9.000000000000003
 30
0.0
 11
-37.12499951423766
 21
6.000000000000049
 31
0.0
  0
LINE
  5
10100C5
330
10100A0
100
AcDbEntity
  8
PERIMETER
100
AcDbLine
 10
-37.12499951423766
 20
6.000000000000049
 30
0.0
 11
-40.12499951423762
 21
6.000000000000068
 31
0.0
  0
LINE
  5
10100C6
330
10100A0
100
AcDbEntity
  8
PERIMETER
100
AcDbLine
 10
-40.12499951423762
 20
6.000000000000068
 30
0.0
 11
-40.12499951423762
 21
9.000000000000003
 31
0.0
  0
LINE
  5
10100C7
330
10100A0
100
AcDbEntity
  8
PERIMETER
100
AcDbLine
 10
-40.12499951423762
 20
9.000000000000003
 30
0.0
 11
-41.12499951423743
 21
10.0
 31
0.0
  0
LINE
  5
10100C8
330
10100A0
100
AcDbEntity
  8
PERIMETER
100
AcDbLine
 10
-41.12499951423743
 20
10.0
 30
0.0
 11
-44.12499951423739
 21
10.0
 31
0.0
  0
LINE
  5
10100C9
330
10100A0
100
AcDbEntity
  8
PERIMETER
100
AcDbLine
 10
-44.12499951423739
 20
10.0
 30
0.0
 11
-44.12500048575928
 21
-10.0
 31
0.0
  0
LINE
  5
10100CA
330
10100A0
100
AcDbEntity
  8
PERIMETER
100
AcDbLine
 10
-44.12500048575928
 20
-10.0
 30
0.0
 11
44.12500048575936
 21
-9.999999999999928
 31
0.0
  0
LINE
  5
10100CB
330
10100A0
100
AcDbEntity
  8
PERIMETER
100
AcDbLine
 10
44.12500048575936
 20
-9.999999999999928
 30
0.0
 11
44.12500048575936
 21
9.999999999999911
 31
0.0
  0
LINE
  5
10100CC
330
10100A0
100
AcDbEntity
  8
PERIMETER
100
AcDbLine
 10
44.12500048575936
 20
9.999999999999911
 30
0.0
 11
41.12500048575937
 21
9.999999999999911
 31
0.0
  0
LINE
  5
10100CD
330
10100A0
100
AcDbEntity
  8
PERIMETER
100
AcDbLine
 10
41.12500048575937
 20
9.999999999999911
 30
0.0
 11
40.12500048575936
 21
9.000000000000003
 31
0.0
  0
LINE
  5
10100CE
330
10100A0
100
AcDbEntity
  8
PERIMETER
100
AcDbLine
 10
40.12500048575936
 20
9.000000000000003
 30
0.0
 11
40.12500048575936
 21
5.999999999999924
 31
0.0
  0
LINE
  5
10100CF
330
10100A0
100
AcDbEntity
  8
PERIMETER
100
AcDbLine
 10
40.12500048575936
 20
5.999999999999924
 30
0.0
 11
37.62500048575937
 21
5.999999999999924
 31
0.0
  0
LINE
  5
10100D0
330
10100A0
100
AcDbEntity
  8
PERIMETER
100
AcDbLine
 10
37.62500048575937
 20
5.999999999999924
 30
0.0
 11
37.62500048575937
 21
9.000000000000003
 31
0.0
  0
LINE
  5
10100D1
330
10100A0
100
AcDbEntity
  8
PERIMETER
100
AcDbLine
 10
37.62500048575937
 20
9.000000000000003
 30
0.0
 11
36.62500048575971
 21
9.999999999999911
 31
0.0
  0
LINE
  5
10100D2
330
10100A0
100
AcDbEntity
  8
PERIMETER
100
AcDbLine
 10
36.62500048575971
 20
9.999999999999911
 30
0.0
 11
33.62500048575974
 21
9.999999999999928
 31
0.0
  0
LINE
  5
10100D3
330
10100A0
100
AcDbEntity
  8
PERIMETER
100
AcDbLine
 10
33.62500048575974
 20
9.999999999999928
 30
0.0
 11
32.62500048575973
 21
9.000000000000003
 31
0.0
  0
LINE
  5
10100D4
330
10100A0
100
AcDbEntity
  8
PERIMETER
100
AcDbLine
 10
32.62500048575973
 20
9.000000000000003
 30
0.0
 11
32.62500048575973
 21
5.999999999999943
 31
0.0
  0
LINE
  5
10100D5
330
10100A0
100
AcDbEntity
  8
PERIMETER
100
AcDbLine
 10
32.62500048575973
 20
5.999999999999943
 30
0.0
 11
30.0750004857597
 21
5.999999999999943
 31
0.0
  0
LINE
  5
10100D6
330
10100A0
100
AcDbEntity
  8
PERIMETER
100
AcDbLine
 10
30.0750004857597
 20
5.999999999999943
 30
0.0
 11
30.07500048575984
 21
9.000000000000181
 31
0.0
  0
LINE
  5
10100D7
330
10100A0
100
AcDbEntity
  8
PERIMETER
100
AcDbLine
 10
30.07500048575984
 20
9.000000000000181
 30
0.0
 11
29.07500048575983
 21
9.999999999999928
 31
0.0
  0
LINE
  5
10100D8
330
10100A0
100
AcDbEntity
  8
PERIMETER
100
AcDbLine
 10
29.07500048575983
 20
9.999999999999928
 30
0.0
 11
26.07500048575986
 21
9.999999999999928
 31
0.0
  0
LINE
  5
10100D9
330
10100A0
100
AcDbEntity
  8
PERIMETER
100
AcDbLine
 10
26.07500048575986
 20
9.999999999999928
 30
0.0
 11
25.07500048575984
 21
9.000000000000323
 31
0.0
  0
LINE
  5
10100DA
330
10100A0
100
AcDbEntity
  8
PERIMETER
100
AcDbLine
 10
25.07500048575984
 20
9.000000000000323
 30
0.0
 11
25.07500048576013
 21
5.99999999999996
 31
0.0
  0
LINE
  5
10100DB
330
10100A0
100
AcDbEntity
  8
PERIMETER
100
AcDbLine
 10
25.07500048576013
 20
5.99999999999996
 30
0.0
 11
22.47500048576015
 21
5.99999999999996
 31
0.0
  0
LINE
  5
10100DC
330
10100A0
100
AcDbEntity
  8
PERIMETER
100
AcDbLine
 10
22.47500048576015
 20
5.99999999999996
 30
0.0
 11
22.47500048576015
 21
9.000000000000003
 31
0.0
  0
LINE
  5
10100DD
330
10100A0
100
AcDbEntity
  8
PERIMETER
100
AcDbLine
 10
22.47500048576015
 20
9.000000000000003
 30
0.0
 11
21.47500048576013
 21
9.999999999999928
 31
0.0
  0
LINE
  5
10100DE
330
10100A0
100
AcDbEntity
  8
PERIMETER
100
AcDbLine
 10
21.47500048576013
 20
9.999999999999928
 30
0.0
 11
18.47500048576016
 21
9.999999999999944
 31
0.0
  0
LINE
  5
10100DF
330
10100A0
100
AcDbEntity
  8
PERIMETER
100
AcDbLine
 10
18.47500048576016
 20
9.999999999999944
 30
0.0
 11
17.47500048576014
 21
9.000000000000003
 31
0.0
  0
LINE
  5
10100E0
330
10100A0
100
AcDbEntity
  8
PERIMETER
100
AcDbLine
 10
17.47500048576014
 20
9.000000000000003
 30
0.0
 11
17.47500048576014
 21
5.99999999999996
 31
0.0
  0
LINE
  5
10100E1
330
10100A0
100
AcDbEntity
  8
PERIMETER
100
AcDbLine
 10
17.47500048576014
 20
5.99999999999996
 30
0.0
 11
14.82500048576014
 21
5.999999999999978
 31
0.0
  0
LINE
  5
10100E2
330
10100A0
100
AcDbEntity
  8
PERIMETER
100
AcDbLine
 10
14.82500048576014
 20
5.999999999999978
 30
0.0
 11
14.82500048576078
 21
9.000000000000181
 31
0.0
  0
LINE
  5
10100E3
330
10100A0
100
AcDbEntity
  8
PERIMETER
100
AcDbLine
 10
14.82500048576078
 20
9.000000000000181
 30
0.0
 11
13.82500048576076
 21
9.999999999999944
 31
0.0
  0
LINE
  5
10100E4
330
10100A0
100
AcDbEntity
  8
PERIMETER
100
AcDbLine
 10
13.82500048576076
 20
9.999999999999944
 30
0.0
 11
10.82500048576079
 21
9.999999999999944
 31
0.0
  0
LINE
  5
10100E5
330
10100A0
100
AcDbEntity
  8
PERIMETER
100
AcDbLine
 10
10.82500048576079
 20
9.999999999999944
 30
0.0
 11
9.825000485760783
 21
9.000000000000003
 31
0.0
  0
LINE
  5
10100E6
330
10100A0
100
AcDbEntity
  8
PERIMETER
100
AcDbLine
 10
9.825000485760783
 20
9.000000000000003
 30
0.0
 11
9.825000485760496
 21
5.999999999999978
 31
0.0
  0
ENDBLK
  5
10100E8
330
10100A0
100
AcDbEntity
  8
0
100
AcDbBlockEnd
  0
BLOCK
  5
10101C7
330
1010180
100
AcDbEntity
  8
0
100
AcDbBlockBegin
  2
5
 70
     0
 10
0.0
 20
0.0
 30
0.0
  3
5
  1

  0
LINE
  5
1010181
330
1010180
100
AcDbEntity
  8
PERIMETER
100
AcDbLine
 10
-1.624999514239107
 20
3.999999999999968
 30
0.0
 11
-1.624999514238822
 21
8.999999999999966
 31
0.0
  0
LINE
  5
1010182
330
1010180
100
AcDbEntity
  8
PERIMETER
100
AcDbLine
 10
-1.624999514238822
 20
8.999999999999966
 30
0.0
 11
-2.624999514238836
 21
9.999999999999928
 31
0.0
  0
LINE
  5
1010183
330
1010180
100
AcDbEntity
  8
PERIMETER
100
AcDbLine
 10
-2.624999514238836
 20
9.999999999999928
 30
0.0
 11
-7.624999514238837
 21
9.999999999999944
 31
0.0
  0
LINE
  5
1010184
330
1010180
100
AcDbEntity
  8
PERIMETER
100
AcDbLine
 10
-7.624999514238837
 20
9.999999999999944
 30
0.0
 11
-8.624999514238851
 21
9.000000000000092
 31
0.0
  0
LINE
  5
1010185
330
1010180
100
AcDbEntity
  8
PERIMETER
100
AcDbLine
 10
-8.624999514238851
 20
9.000000000000092
 30
0.0
 11
-8.624999514238425
 21
3.999999999999985
 31
0.0
  0
LINE
  5
1010186
330
1010180
100
AcDbEntity
  8
PERIMETER
100
AcDbLine
 10
-8.624999514238425
 20
3.999999999999985
 30
0.0
 11
-13.42499951423839
 21
3.999999999999985
 31
0.0
  0
LINE
  5
1010187
330
1010180
100
AcDbEntity
  8
PERIMETER
100
AcDbLine
 10
-13.42499951423839
 20
3.999999999999985
 30
0.0
 11
-13.42499951423839
 21
9.000000000000003
 31
0.0
  0
LINE
  5
1010188
330
1010180
100
AcDbEntity
  8
PERIMETER
100
AcDbLine
 10
-13.42499951423839
 20
9.000000000000003
 30
0.0
 11
-14.4249995142384
 21
9.999999999999944
 31
0.0
  0
LINE
  5
1010189
330
1010180
100
AcDbEntity
  8
PERIMETER
100
AcDbLine
 10
-14.4249995142384
 20
9.999999999999944
 30
0.0
 11
-19.4249995142384
 21
9.999999999999944
 31
0.0
  0
LINE
  5
101018A
330
1010180
100
AcDbEntity
  8
PERIMETER
100
AcDbLine
 10
-19.4249995142384
 20
9.999999999999944
 30
0.0
 11
-20.42499951423843
 21
9.000000000000003
 31
0.0
  0
LINE
  5
101018B
330
1010180
100
AcDbEntity
  8
PERIMETER
100
AcDbLine
 10
-20.42499951423843
 20
9.000000000000003
 30
0.0
 11
-20.42499951423843
 21
4.000000000000004
 31
0.0
  0
LINE
  5
101018C
330
1010180
100
AcDbEntity
  8
PERIMETER
100
AcDbLine
 10
-20.42499951423843
 20
4.000000000000004
 30
0.0
 11
-25.27499951423842
 21
4.000000000000004
 31
0.0
  0
LINE
  5
101018D
330
1010180
100
AcDbEntity
  8
PERIMETER
100
AcDbLine
 10
-25.27499951423842
 20
4.000000000000004
 30
0.0
 11
-25.27499951423842
 21
9.000000000000003
 31
0.0
  0
LINE
  5
101018E
330
1010180
100
AcDbEntity
  8
PERIMETER
100
AcDbLine
 10
-25.27499951423842
 20
9.000000000000003
 30
0.0
 11
-26.27499951423807
 21
9.999999999999964
 31
0.0
  0
LINE
  5
101018F
330
1010180
100
AcDbEntity
  8
PERIMETER
100
AcDbLine
 10
-26.27499951423807
 20
9.999999999999964
 30
0.0
 11
-31.27499951423807
 21
9.999999999999964
 31
0.0
  0
LINE
  5
1010190
330
1010180
100
AcDbEntity
  8
PERIMETER
100
AcDbLine
 10
-31.27499951423807
 20
9.999999999999964
 30
0.0
 11
-32.27499951423809
 21
9.000000000000003
 31
0.0
  0
LINE
  5
1010191
330
1010180
100
AcDbEntity
  8
PERIMETER
100
AcDbLine
 10
-32.27499951423809
 20
9.000000000000003
 30
0.0
 11
-32.27499951423809
 21
4.00000000000002
 31
0.0
  0
LINE
  5
1010192
330
1010180
100
AcDbEntity
  8
PERIMETER
100
AcDbLine
 10
-32.27499951423809
 20
4.00000000000002
 30
0.0
 11
-37.17499951423811
 21
4.00000000000002
 31
0.0
  0
LINE
  5
1010193
330
1010180
100
AcDbEntity
  8
PERIMETER
100
AcDbLine
 10
-37.17499951423811
 20
4.00000000000002
 30
0.0
 11
-37.17499951423811
 21
9.000000000000003
 31
0.0
  0
LINE
  5
1010194
330
1010180
100
AcDbEntity
  8
PERIMETER
100
AcDbLine
 10
-37.17499951423811
 20
9.000000000000003
 30
0.0
 11
-38.17499951423813
 21
9.999999999999982
 31
0.0
  0
LINE
  5
1010195
330
1010180
100
AcDbEntity
  8
PERIMETER
100
AcDbLine
 10
-38.17499951423813
 20
9.999999999999982
 30
0.0
 11
-43.17499951423813
 21
9.999999999999982
 31
0.0
  0
LINE
  5
1010196
330
1010180
100
AcDbEntity
  8
PERIMETER
100
AcDbLine
 10
-43.17499951423813
 20
9.999999999999982
 30
0.0
 11
-44.17499951423785
 21
9.000000000000003
 31
0.0
  0
LINE
  5
1010197
330
1010180
100
AcDbEntity
  8
PERIMETER
100
AcDbLine
 10
-44.17499951423785
 20
9.000000000000003
 30
0.0
 11
-44.17499951423785
 21
4.000000000000039
 31
0.0
  0
LINE
  5
1010198
330
1010180
100
AcDbEntity
  8
PERIMETER
100
AcDbLine
 10
-44.17499951423785
 20
4.000000000000039
 30
0.0
 11
-49.12499951423782
 21
4.000000000000039
 31
0.0
  0
LINE
  5
1010199
330
1010180
100
AcDbEntity
  8
PERIMETER
100
AcDbLine
 10
-49.12499951423782
 20
4.000000000000039
 30
0.0
 11
-49.12499951423782
 21
9.000000000000003
 31
0.0
  0
LINE
  5
101019A
330
1010180
100
AcDbEntity
  8
PERIMETER
100
AcDbLine
 10
-49.12499951423782
 20
9.000000000000003
 30
0.0
 11
-50.12499951423784
 21
9.999999999999982
 31
0.0
  0
LINE
  5
101019B
330
1010180
100
AcDbEntity
  8
PERIMETER
100
AcDbLine
 10
-50.12499951423784
 20
9.999999999999982
 30
0.0
 11
-55.12499951423784
 21
10.0
 31
0.0
  0
LINE
  5
101019C
330
1010180
100
AcDbEntity
  8
PERIMETER
100
AcDbLine
 10
-55.12499951423784
 20
10.0
 30
0.0
 11
-56.12499951423764
 21
9.000000000000003
 31
0.0
  0
LINE
  5
101019D
330
1010180
100
AcDbEntity
  8
PERIMETER
100
AcDbLine
 10
-56.12499951423764
 20
9.000000000000003
 30
0.0
 11
-56.12499951423722
 21
4.000000000000056
 31
0.0
  0
LINE
  5
101019E
330
1010180
100
AcDbEntity
  8
PERIMETER
100
AcDbLine
 10
-56.12499951423722
 20
4.000000000000056
 30
0.0
 11
-61.12499951423722
 21
4.000000000000074
 31
0.0
  0
LINE
  5
101019F
330
1010180
100
AcDbEntity
  8
PERIMETER
100
AcDbLine
 10
-61.12499951423722
 20
4.000000000000074
 30
0.0
 11
-61.12499951423722
 21
9.000000000000003
 31
0.0
  0
LINE
  5
10101A0
330
1010180
100
AcDbEntity
  8
PERIMETER
100
AcDbLine
 10
-61.12499951423722
 20
9.000000000000003
 30
0.0
 11
-62.12499951423702
 21
10.0
 31
0.0
  0
LINE
  5
10101A1
330
1010180
100
AcDbEntity
  8
PERIMETER
100
AcDbLine
 10
-62.12499951423702
 20
10.0
 30
0.0
 11
-67.12499951423701
 21
9.999999999999982
 31
0.0
  0
LINE
  5
10101A2
330
1010180
100
AcDbEntity
  8
PERIMETER
100
AcDbLine
 10
-67.12499951423701
 20
9.999999999999982
 30
0.0
 11
-67.12500048575889
 21
-10.0
 31
0.0
  0
LINE
  5
10101A3
330
1010180
100
AcDbEntity
  8
PERIMETER
100
AcDbLine
 10
-67.12500048575889
 20
-10.0
 30
0.0
 11
67.12500048575883
 21
-9.999999999999875
 31
0.0
  0
LINE
  5
10101A4
330
1010180
100
AcDbEntity
  8
PERIMETER
100
AcDbLine
 10
67.12500048575883
 20
-9.999999999999875
 30
0.0
 11
67.12500048575883
 21
9.999999999999857
 31
0.0
  0
LINE
  5
10101A5
330
1010180
100
AcDbEntity
  8
PERIMETER
100
AcDbLine
 10
67.12500048575883
 20
9.999999999999857
 30
0.0
 11
62.12500048575883
 21
9.999999999999875
 31
0.0
  0
LINE
  5
10101A6
330
1010180
100
AcDbEntity
  8
PERIMETER
100
AcDbLine
 10
62.12500048575883
 20
9.999999999999875
 30
0.0
 11
61.12500048575881
 21
9.000000000000003
 31
0.0
  0
LINE
  5
10101A7
330
1010180
100
AcDbEntity
  8
PERIMETER
100
AcDbLine
 10
61.12500048575881
 20
9.000000000000003
 30
0.0
 11
61.12500048575881
 21
3.999999999999861
 31
0.0
  0
LINE
  5
10101A8
330
1010180
100
AcDbEntity
  8
PERIMETER
100
AcDbLine
 10
61.12500048575881
 20
3.999999999999861
 30
0.0
 11
56.62500048575878
 21
3.999999999999879
 31
0.0
  0
LINE
  5
10101A9
330
1010180
100
AcDbEntity
  8
PERIMETER
100
AcDbLine
 10
56.62500048575878
 20
3.999999999999879
 30
0.0
 11
56.62500048575878
 21
9.000000000000003
 31
0.0
  0
LINE
  5
10101AA
330
1010180
100
AcDbEntity
  8
PERIMETER
100
AcDbLine
 10
56.62500048575878
 20
9.000000000000003
 30
0.0
 11
55.62500048575913
 21
9.999999999999875
 31
0.0
  0
LINE
  5
10101AB
330
1010180
100
AcDbEntity
  8
PERIMETER
100
AcDbLine
 10
55.62500048575913
 20
9.999999999999875
 30
0.0
 11
50.62500048575913
 21
9.999999999999875
 31
0.0
  0
LINE
  5
10101AC
330
1010180
100
AcDbEntity
  8
PERIMETER
100
AcDbLine
 10
50.62500048575913
 20
9.999999999999875
 30
0.0
 11
49.62500048575911
 21
9.000000000000003
 31
0.0
  0
LINE
  5
10101AD
330
1010180
100
AcDbEntity
  8
PERIMETER
100
AcDbLine
 10
49.62500048575911
 20
9.000000000000003
 30
0.0
 11
49.62500048575911
 21
3.999999999999879
 31
0.0
  0
LINE
  5
10101AE
330
1010180
100
AcDbEntity
  8
PERIMETER
100
AcDbLine
 10
49.62500048575911
 20
3.999999999999879
 30
0.0
 11
45.07500048575914
 21
3.999999999999896
 31
0.0
  0
LINE
  5
10101AF
330
1010180
100
AcDbEntity
  8
PERIMETER
100
AcDbLine
 10
45.07500048575914
 20
3.999999999999896
 30
0.0
 11
45.07500048575941
 21
9.000000000000072
 31
0.0
  0
LINE
  5
10101B0
330
1010180
100
AcDbEntity
  8
PERIMETER
100
AcDbLine
 10
45.07500048575941
 20
9.000000000000072
 30
0.0
 11
44.07500048575941
 21
9.999999999999891
 31
0.0
  0
LINE
  5
10101B1
330
1010180
100
AcDbEntity
  8
PERIMETER
100
AcDbLine
 10
44.07500048575941
 20
9.999999999999891
 30
0.0
 11
39.0750004857594
 21
9.999999999999891
 31
0.0
  0
LINE
  5
10101B2
330
1010180
100
AcDbEntity
  8
PERIMETER
100
AcDbLine
 10
39.0750004857594
 20
9.999999999999891
 30
0.0
 11
38.07500048575938
 21
9.000000000000216
 31
0.0
  0
LINE
  5
10101B3
330
1010180
100
AcDbEntity
  8
PERIMETER
100
AcDbLine
 10
38.07500048575938
 20
9.000000000000216
 30
0.0
 11
38.07500048575981
 21
3.999999999999896
 31
0.0
  0
LINE
  5
10101B4
330
1010180
100
AcDbEntity
  8
PERIMETER
100
AcDbLine
 10
38.07500048575981
 20
3.999999999999896
 30
0.0
 11
33.47500048575981
 21
3.999999999999914
 31
0.0
  0
LINE
  5
10101B5
330
1010180
100
AcDbEntity
  8
PERIMETER
100
AcDbLine
 10
33.47500048575981
 20
3.999999999999914
 30
0.0
 11
33.47500048575981
 21
9.000000000000003
 31
0.0
  0
LINE
  5
10101B6
330
1010180
100
AcDbEntity
  8
PERIMETER
100
AcDbLine
 10
33.47500048575981
 20
9.000000000000003
 30
0.0
 11
32.4750004857598
 21
9.999999999999891
 31
0.0
  0
LINE
  5
10101B7
330
1010180
100
AcDbEntity
  8
PERIMETER
100
AcDbLine
 10
32.4750004857598
 20
9.999999999999891
 30
0.0
 11
27.4750004857598
 21
9.999999999999911
 31
0.0
  0
LINE
  5
10101B8
330
1010180
100
AcDbEntity
  8
PERIMETER
100
AcDbLine
 10
27.4750004857598
 20
9.999999999999911
 30
0.0
 11
26.47500048575977
 21
9.000000000000003
 31
0.0
  0
LINE
  5
10101B9
330
1010180
100
AcDbEntity
  8
PERIMETER
100
AcDbLine
 10
26.47500048575977
 20
9.000000000000003
 30
0.0
 11
26.47500048575977
 21
3.999999999999914
 31
0.0
  0
LINE
  5
10101BA
330
1010180
100
AcDbEntity
  8
PERIMETER
100
AcDbLine
 10
26.47500048575977
 20
3.999999999999914
 30
0.0
 11
21.82500048575974
 21
3.999999999999932
 31
0.0
  0
LINE
  5
10101BB
330
1010180
100
AcDbEntity
  8
PERIMETER
100
AcDbLine
 10
21.82500048575974
 20
3.999999999999932
 30
0.0
 11
21.82500048576081
 21
9.000000000000072
 31
0.0
  0
LINE
  5
10101BC
330
1010180
100
AcDbEntity
  8
PERIMETER
100
AcDbLine
 10
21.82500048576081
 20
9.000000000000072
 30
0.0
 11
20.8250004857608
 21
9.999999999999911
 31
0.0
  0
LINE
  5
10101BD
330
1010180
100
AcDbEntity
  8
PERIMETER
100
AcDbLine
 10
20.8250004857608
 20
9.999999999999911
 30
0.0
 11
15.82500048576079
 21
9.999999999999911
 31
0.0
  0
LINE
  5
10101BE
330
1010180
100
AcDbEntity
  8
PERIMETER
100
AcDbLine
 10
15.82500048576079
 20
9.999999999999911
 30
0.0
 11
14.82500048576078
 21
9.000000000000003
 31
0.0
  0
LINE
  5
10101BF
330
1010180
100
AcDbEntity
  8
PERIMETER
100
AcDbLine
 10
14.82500048576078
 20
9.000000000000003
 30
0.0
 11
14.82500048576021
 21
3.999999999999932
 31
0.0
  0
LINE
  5
10101C0
330
1010180
100
AcDbEntity
  8
PERIMETER
100
AcDbLine
 10
14.82500048576021
 20
3.999999999999932
 30
0.0
 11
10.12500048576022
 21
3.99999999999995
 31
0.0
  0
LINE
  5
10101C1
330
1010180
100
AcDbEntity
  8
PERIMETER
100
AcDbLine
 10
10.12500048576022
 20
3.99999999999995
 30
0.0
 11
10.1250004857605
 21
8.999999999999987
 31
0.0
  0
LINE
  5
10101C2
330
1010180
100
AcDbEntity
  8
PERIMETER
100
AcDbLine
 10
10.1250004857605
 20
8.999999999999987
 30
0.0
 11
9.125000485760496
 21
9.999999999999928
 31
0.0
  0
LINE
  5
10101C3
330
1010180
100
AcDbEntity
  8
PERIMETER
100
AcDbLine
 10
9.125000485760496
 20
9.999999999999928
 30
0.0
 11
4.125000485760494
 21
9.999999999999928
 31
0.0
  0
LINE
  5
10101C4
330
1010180
100
AcDbEntity
  8
PERIMETER
100
AcDbLine
 10
4.125000485760494
 20
9.999999999999928
 30
0.0
 11
3.12500048576048
 21
8.999999999999987
 31
0.0
  0
LINE
  5
10101C5
330
1010180
100
AcDbEntity
  8
PERIMETER
100
AcDbLine
 10
3.12500048576048
 20
8.999999999999987
 30
0.0
 11
3.125000485760907
 21
3.999999999999968
 31
0.0
  0
LINE
  5
10101C6
330
1010180
100
AcDbEntity
  8
PERIMETER
100
AcDbLine
 10
3.125000485760907
 20
3.999999999999968
 30
0.0
 11
-1.624999514239107
 21
3.999999999999968
 31
0.0
  0
ENDBLK
  5
10101C8
330
1010180
100
AcDbEntity
  8
0
100
AcDbBlockEnd
  0
BLOCK
  5
101029C
330
1010255
100
AcDbEntity
  8
0
100
AcDbBlockBegin
  2
6
 70
     0
 10
0.0
 20
0.0
 30
0.0
  3
6
  1

  0
LINE
  5
1010256
330
1010255
100
AcDbEntity
  8
PERIMETER
100
AcDbLine
 10
-2.124999514238723
 20
2.999999999999936
 30
0.0
 11
-2.124999514238368
 21
9.000000000000072
 31
0.0
  0
LINE
  5
1010257
330
1010255
100
AcDbEntity
  8
PERIMETER
100
AcDbLine
 10
-2.124999514238368
 20
9.000000000000072
 30
0.0
 11
-3.124999514238382
 21
9.999999999999911
 31
0.0
  0
LINE
  5
1010258
330
1010255
100
AcDbEntity
  8
PERIMETER
100
AcDbLine
 10
-3.124999514238382
 20
9.999999999999911
 30
0.0
 11
-9.124999514238396
 21
9.999999999999911
 31
0.0
  0
LINE
  5
1010259
330
1010255
100
AcDbEntity
  8
PERIMETER
100
AcDbLine
 10
-9.124999514238396
 20
9.999999999999911
 30
0.0
 11
-10.12499951423841
 21
8.999999999999912
 31
0.0
  0
LINE
  5
101025A
330
1010255
100
AcDbEntity
  8
PERIMETER
100
AcDbLine
 10
-10.12499951423841
 20
8.999999999999912
 30
0.0
 11
-10.12499951423791
 21
2.999999999999953
 31
0.0
  0
LINE
  5
101025B
330
1010255
100
AcDbEntity
  8
PERIMETER
100
AcDbLine
 10
-10.12499951423791
 20
2.999999999999953
 30
0.0
 11
-15.92499951423789
 21
2.999999999999953
 31
0.0
  0
LINE
  5
101025C
330
1010255
100
AcDbEntity
  8
PERIMETER
100
AcDbLine
 10
-15.92499951423789
 20
2.999999999999953
 30
0.0
 11
-15.92499951423789
 21
8.999999999999987
 31
0.0
  0
LINE
  5
101025D
330
1010255
100
AcDbEntity
  8
PERIMETER
100
AcDbLine
 10
-15.92499951423789
 20
8.999999999999987
 30
0.0
 11
-16.92499951423791
 21
9.999999999999928
 31
0.0
  0
LINE
  5
101025E
330
1010255
100
AcDbEntity
  8
PERIMETER
100
AcDbLine
 10
-16.92499951423791
 20
9.999999999999928
 30
0.0
 11
-22.92499951423792
 21
9.999999999999928
 31
0.0
  0
LINE
  5
101025F
330
1010255
100
AcDbEntity
  8
PERIMETER
100
AcDbLine
 10
-22.92499951423792
 20
9.999999999999928
 30
0.0
 11
-23.92499951423793
 21
8.999999999999987
 31
0.0
  0
LINE
  5
1010260
330
1010255
100
AcDbEntity
  8
PERIMETER
100
AcDbLine
 10
-23.92499951423793
 20
8.999999999999987
 30
0.0
 11
-23.92499951423793
 21
2.999999999999971
 31
0.0
  0
LINE
  5
1010261
330
1010255
100
AcDbEntity
  8
PERIMETER
100
AcDbLine
 10
-23.92499951423793
 20
2.999999999999971
 30
0.0
 11
-29.77499951423795
 21
2.999999999999989
 31
0.0
  0
LINE
  5
1010262
330
1010255
100
AcDbEntity
  8
PERIMETER
100
AcDbLine
 10
-29.77499951423795
 20
2.999999999999989
 30
0.0
 11
-29.77499951423795
 21
8.999999999999987
 31
0.0
  0
LINE
  5
1010263
330
1010255
100
AcDbEntity
  8
PERIMETER
100
AcDbLine
 10
-29.77499951423795
 20
8.999999999999987
 30
0.0
 11
-30.77499951423782
 21
9.999999999999944
 31
0.0
  0
LINE
  5
1010264
330
1010255
100
AcDbEntity
  8
PERIMETER
100
AcDbLine
 10
-30.77499951423782
 20
9.999999999999944
 30
0.0
 11
-36.77499951423784
 21
9.999999999999944
 31
0.0
  0
LINE
  5
1010265
330
1010255
100
AcDbEntity
  8
PERIMETER
100
AcDbLine
 10
-36.77499951423784
 20
9.999999999999944
 30
0.0
 11
-37.77499951423786
 21
8.999999999999987
 31
0.0
  0
LINE
  5
1010266
330
1010255
100
AcDbEntity
  8
PERIMETER
100
AcDbLine
 10
-37.77499951423786
 20
8.999999999999987
 30
0.0
 11
-37.77499951423786
 21
2.999999999999989
 31
0.0
  0
LINE
  5
1010267
330
1010255
100
AcDbEntity
  8
PERIMETER
100
AcDbLine
 10
-37.77499951423786
 20
2.999999999999989
 30
0.0
 11
-43.67499951423788
 21
3.000000000000007
 31
0.0
  0
LINE
  5
1010268
330
1010255
100
AcDbEntity
  8
PERIMETER
100
AcDbLine
 10
-43.67499951423788
 20
3.000000000000007
 30
0.0
 11
-43.67499951423788
 21
8.999999999999987
 31
0.0
  0
LINE
  5
1010269
330
1010255
100
AcDbEntity
  8
PERIMETER
100
AcDbLine
 10
-43.67499951423788
 20
8.999999999999987
 30
0.0
 11
-44.67499951423789
 21
9.999999999999944
 31
0.0
  0
LINE
  5
101026A
330
1010255
100
AcDbEntity
  8
PERIMETER
100
AcDbLine
 10
-44.67499951423789
 20
9.999999999999944
 30
0.0
 11
-50.67499951423791
 21
9.999999999999964
 31
0.0
  0
LINE
  5
101026B
330
1010255
100
AcDbEntity
  8
PERIMETER
100
AcDbLine
 10
-50.67499951423791
 20
9.999999999999964
 30
0.0
 11
-51.67499951423771
 21
8.999999999999987
 31
0.0
  0
LINE
  5
101026C
330
1010255
100
AcDbEntity
  8
PERIMETER
100
AcDbLine
 10
-51.67499951423771
 20
8.999999999999987
 30
0.0
 11
-51.67499951423771
 21
3.000000000000024
 31
0.0
  0
LINE
  5
101026D
330
1010255
100
AcDbEntity
  8
PERIMETER
100
AcDbLine
 10
-51.67499951423771
 20
3.000000000000024
 30
0.0
 11
-57.6249995142377
 21
3.000000000000024
 31
0.0
  0
LINE
  5
101026E
330
1010255
100
AcDbEntity
  8
PERIMETER
100
AcDbLine
 10
-57.6249995142377
 20
3.000000000000024
 30
0.0
 11
-57.6249995142377
 21
8.999999999999987
 31
0.0
  0
LINE
  5
101026F
330
1010255
100
AcDbEntity
  8
PERIMETER
100
AcDbLine
 10
-57.6249995142377
 20
8.999999999999987
 30
0.0
 11
-58.62499951423771
 21
9.999999999999964
 31
0.0
  0
LINE
  5
1010270
330
1010255
100
AcDbEntity
  8
PERIMETER
100
AcDbLine
 10
-58.62499951423771
 20
9.999999999999964
 30
0.0
 11
-64.62499951423772
 21
9.999999999999982
 31
0.0
  0
LINE
  5
1010271
330
1010255
100
AcDbEntity
  8
PERIMETER
100
AcDbLine
 10
-64.62499951423772
 20
9.999999999999982
 30
0.0
 11
-65.6249995142376
 21
8.999999999999987
 31
0.0
  0
LINE
  5
1010272
330
1010255
100
AcDbEntity
  8
PERIMETER
100
AcDbLine
 10
-65.6249995142376
 20
8.999999999999987
 30
0.0
 11
-65.6249995142371
 21
3.000000000000042
 31
0.0
  0
LINE
  5
1010273
330
1010255
100
AcDbEntity
  8
PERIMETER
100
AcDbLine
 10
-65.6249995142371
 20
3.000000000000042
 30
0.0
 11
-71.62499951423713
 21
3.000000000000042
 31
0.0
  0
LINE
  5
1010274
330
1010255
100
AcDbEntity
  8
PERIMETER
100
AcDbLine
 10
-71.62499951423713
 20
3.000000000000042
 30
0.0
 11
-71.62499951423713
 21
8.999999999999987
 31
0.0
  0
LINE
  5
1010275
330
1010255
100
AcDbEntity
  8
PERIMETER
100
AcDbLine
 10
-71.62499951423713
 20
8.999999999999987
 30
0.0
 11
-72.62499951423698
 21
9.999999999999982
 31
0.0
  0
LINE
  5
1010276
330
1010255
100
AcDbEntity
  8
PERIMETER
100
AcDbLine
 10
-72.62499951423698
 20
9.999999999999982
 30
0.0
 11
-78.62499951423699
 21
9.999999999999964
 31
0.0
  0
LINE
  5
1010277
330
1010255
100
AcDbEntity
  8
PERIMETER
100
AcDbLine
 10
-78.62499951423699
 20
9.999999999999964
 30
0.0
 11
-78.6250004857589
 21
-10.0
 31
0.0
  0
LINE
  5
1010278
330
1010255
100
AcDbEntity
  8
PERIMETER
100
AcDbLine
 10
-78.6250004857589
 20
-10.0
 30
0.0
 11
78.62500048575896
 21
-9.99999999999984
 31
0.0
  0
LINE
  5
1010279
330
1010255
100
AcDbEntity
  8
PERIMETER
100
AcDbLine
 10
78.62500048575896
 20
-9.99999999999984
 30
0.0
 11
78.62500048575896
 21
9.99999999999984
 31
0.0
  0
LINE
  5
101027A
330
1010255
100
AcDbEntity
  8
PERIMETER
100
AcDbLine
 10
78.62500048575896
 20
9.99999999999984
 30
0.0
 11
72.62500048575893
 21
9.99999999999984
 31
0.0
  0
LINE
  5
101027B
330
1010255
100
AcDbEntity
  8
PERIMETER
100
AcDbLine
 10
72.62500048575893
 20
9.99999999999984
 30
0.0
 11
71.62500048575893
 21
8.999999999999987
 31
0.0
  0
LINE
  5
101027C
330
1010255
100
AcDbEntity
  8
PERIMETER
100
AcDbLine
 10
71.62500048575893
 20
8.999999999999987
 30
0.0
 11
71.62500048575893
 21
2.999999999999812
 31
0.0
  0
LINE
  5
101027D
330
1010255
100
AcDbEntity
  8
PERIMETER
100
AcDbLine
 10
71.62500048575893
 20
2.999999999999812
 30
0.0
 11
66.12500048575896
 21
2.999999999999829
 31
0.0
  0
LINE
  5
101027E
330
1010255
100
AcDbEntity
  8
PERIMETER
100
AcDbLine
 10
66.12500048575896
 20
2.999999999999829
 30
0.0
 11
66.12500048575896
 21
8.999999999999987
 31
0.0
  0
LINE
  5
101027F
330
1010255
100
AcDbEntity
  8
PERIMETER
100
AcDbLine
 10
66.12500048575896
 20
8.999999999999987
 30
0.0
 11
65.12500048575923
 21
9.99999999999984
 31
0.0
  0
LINE
  5
1010280
330
1010255
100
AcDbEntity
  8
PERIMETER
100
AcDbLine
 10
65.12500048575923
 20
9.99999999999984
 30
0.0
 11
59.12500048575922
 21
9.999999999999857
 31
0.0
  0
LINE
  5
1010281
330
1010255
100
AcDbEntity
  8
PERIMETER
100
AcDbLine
 10
59.12500048575922
 20
9.999999999999857
 30
0.0
 11
58.1250004857592
 21
8.999999999999987
 31
0.0
  0
LINE
  5
1010282
330
1010255
100
AcDbEntity
  8
PERIMETER
100
AcDbLine
 10
58.1250004857592
 20
8.999999999999987
 30
0.0
 11
58.1250004857592
 21
2.999999999999829
 31
0.0
  0
LINE
  5
1010283
330
1010255
100
AcDbEntity
  8
PERIMETER
100
AcDbLine
 10
58.1250004857592
 20
2.999999999999829
 30
0.0
 11
52.57500048575921
 21
2.999999999999847
 31
0.0
  0
LINE
  5
1010284
330
1010255
100
AcDbEntity
  8
PERIMETER
100
AcDbLine
 10
52.57500048575921
 20
2.999999999999847
 30
0.0
 11
52.57500048575956
 21
8.999999999999966
 31
0.0
  0
LINE
  5
1010285
330
1010255
100
AcDbEntity
  8
PERIMETER
100
AcDbLine
 10
52.57500048575956
 20
8.999999999999966
 30
0.0
 11
51.57500048575953
 21
9.999999999999857
 31
0.0
  0
LINE
  5
1010286
330
1010255
100
AcDbEntity
  8
PERIMETER
100
AcDbLine
 10
51.57500048575953
 20
9.999999999999857
 30
0.0
 11
45.57500048575953
 21
9.999999999999857
 31
0.0
  0
LINE
  5
1010287
330
1010255
100
AcDbEntity
  8
PERIMETER
100
AcDbLine
 10
45.57500048575953
 20
9.999999999999857
 30
0.0
 11
44.57500048575952
 21
9.00000000000027
 31
0.0
  0
LINE
  5
1010288
330
1010255
100
AcDbEntity
  8
PERIMETER
100
AcDbLine
 10
44.57500048575952
 20
9.00000000000027
 30
0.0
 11
44.57500048576001
 21
2.999999999999865
 31
0.0
  0
LINE
  5
1010289
330
1010255
100
AcDbEntity
  8
PERIMETER
100
AcDbLine
 10
44.57500048576001
 20
2.999999999999865
 30
0.0
 11
38.97500048575999
 21
2.999999999999865
 31
0.0
  0
LINE
  5
101028A
330
1010255
100
AcDbEntity
  8
PERIMETER
100
AcDbLine
 10
38.97500048575999
 20
2.999999999999865
 30
0.0
 11
38.97500048575999
 21
8.999999999999987
 31
0.0
  0
LINE
  5
101028B
330
1010255
100
AcDbEntity
  8
PERIMETER
100
AcDbLine
 10
38.97500048575999
 20
8.999999999999987
 30
0.0
 11
37.97500048575998
 21
9.999999999999875
 31
0.0
  0
LINE
  5
101028C
330
1010255
100
AcDbEntity
  8
PERIMETER
100
AcDbLine
 10
37.97500048575998
 20
9.999999999999875
 30
0.0
 11
31.97500048575996
 21
9.999999999999875
 31
0.0
  0
LINE
  5
101028D
330
1010255
100
AcDbEntity
  8
PERIMETER
100
AcDbLine
 10
31.97500048575996
 20
9.999999999999875
 30
0.0
 11
30.97500048575995
 21
8.999999999999987
 31
0.0
  0
LINE
  5
101028E
330
1010255
100
AcDbEntity
  8
PERIMETER
100
AcDbLine
 10
30.97500048575995
 20
8.999999999999987
 30
0.0
 11
30.97500048575995
 21
2.999999999999882
 31
0.0
  0
LINE
  5
101028F
330
1010255
100
AcDbEntity
  8
PERIMETER
100
AcDbLine
 10
30.97500048575995
 20
2.999999999999882
 30
0.0
 11
25.32500048575997
 21
2.999999999999882
 31
0.0
  0
LINE
  5
1010290
330
1010255
100
AcDbEntity
  8
PERIMETER
100
AcDbLine
 10
25.32500048575997
 20
2.999999999999882
 30
0.0
 11
25.32500048576125
 21
9.000000000000287
 31
0.0
  0
LINE
  5
1010291
330
1010255
100
AcDbEntity
  8
PERIMETER
100
AcDbLine
 10
25.32500048576125
 20
9.000000000000287
 30
0.0
 11
24.32500048576124
 21
9.999999999999891
 31
0.0
  0
LINE
  5
1010292
330
1010255
100
AcDbEntity
  8
PERIMETER
100
AcDbLine
 10
24.32500048576124
 20
9.999999999999891
 30
0.0
 11
18.32500048576122
 21
9.999999999999891
 31
0.0
  0
LINE
  5
1010293
330
1010255
100
AcDbEntity
  8
PERIMETER
100
AcDbLine
 10
18.32500048576122
 20
9.999999999999891
 30
0.0
 11
17.3250004857612
 21
8.999999999999987
 31
0.0
  0
LINE
  5
1010294
330
1010255
100
AcDbEntity
  8
PERIMETER
100
AcDbLine
 10
17.3250004857612
 20
8.999999999999987
 30
0.0
 11
17.32500048576049
 21
2.9999999999999
 31
0.0
  0
LINE
  5
1010295
330
1010255
100
AcDbEntity
  8
PERIMETER
100
AcDbLine
 10
17.32500048576049
 20
2.9999999999999
 30
0.0
 11
11.62500048576049
 21
2.999999999999918
 31
0.0
  0
LINE
  5
1010296
330
1010255
100
AcDbEntity
  8
PERIMETER
100
AcDbLine
 10
11.62500048576049
 20
2.999999999999918
 30
0.0
 11
11.62500048576085
 21
8.999999999999861
 31
0.0
  0
LINE
  5
1010297
330
1010255
100
AcDbEntity
  8
PERIMETER
100
AcDbLine
 10
11.62500048576085
 20
8.999999999999861
 30
0.0
 11
10.62500048576083
 21
9.999999999999891
 31
0.0
  0
LINE
  5
1010298
330
1010255
100
AcDbEntity
  8
PERIMETER
100
AcDbLine
 10
10.62500048576083
 20
9.999999999999891
 30
0.0
 11
4.625000485760821
 21
9.999999999999911
 31
0.0
  0
LINE
  5
1010299
330
1010255
100
AcDbEntity
  8
PERIMETER
100
AcDbLine
 10
4.625000485760821
 20
9.999999999999911
 30
0.0
 11
3.625000485760808
 21
9.000000000000039
 31
0.0
  0
LINE
  5
101029A
330
1010255
100
AcDbEntity
  8
PERIMETER
100
AcDbLine
 10
3.625000485760808
 20
9.000000000000039
 30
0.0
 11
3.625000485761304
 21
2.999999999999918
 31
0.0
  0
LINE
  5
101029B
330
1010255
100
AcDbEntity
  8
PERIMETER
100
AcDbLine
 10
3.625000485761304
 20
2.999999999999918
 30
0.0
 11
-2.124999514238723
 21
2.999999999999936
 31
0.0
  0
ENDBLK
  5
101029D
330
1010255
100
AcDbEntity
  8
0
100
AcDbBlockEnd
  0
BLOCK
  5
1010371
330
101032A
100
AcDbEntity
  8
0
100
AcDbBlockBegin
  2
10
 70
     0
 10
0.0
 20
0.0
 30
0.0
  3
10
  1

  0
LINE
  5
101032B
330
101032A
100
AcDbEntity
  8
PERIMETER
100
AcDbLine
 10
-26.92499951423663
 20
9.999999999999911
 30
0.0
 11
-36.92499951423663
 21
9.999999999999928
 31
0.0
  0
LINE
  5
101032C
330
101032A
100
AcDbEntity
  8
PERIMETER
100
AcDbLine
 10
-36.92499951423663
 20
9.999999999999928
 30
0.0
 11
-37.92499951423665
 21
9.000000000000003
 31
0.0
  0
LINE
  5
101032D
330
101032A
100
AcDbEntity
  8
PERIMETER
100
AcDbLine
 10
-37.92499951423665
 20
9.000000000000003
 30
0.0
 11
-37.92499951423665
 21
-1.000000000000067
 31
0.0
  0
LINE
  5
101032E
330
101032A
100
AcDbEntity
  8
PERIMETER
100
AcDbLine
 10
-37.92499951423665
 20
-1.000000000000067
 30
0.0
 11
-47.77499951423664
 21
-1.000000000000049
 31
0.0
  0
LINE
  5
101032F
330
101032A
100
AcDbEntity
  8
PERIMETER
100
AcDbLine
 10
-47.77499951423664
 20
-1.000000000000049
 30
0.0
 11
-47.77499951423664
 21
9.000000000000003
 31
0.0
  0
LINE
  5
1010330
330
101032A
100
AcDbEntity
  8
PERIMETER
100
AcDbLine
 10
-47.77499951423664
 20
9.000000000000003
 30
0.0
 11
-48.77499951423651
 21
9.999999999999928
 31
0.0
  0
LINE
  5
1010331
330
101032A
100
AcDbEntity
  8
PERIMETER
100
AcDbLine
 10
-48.77499951423651
 20
9.999999999999928
 30
0.0
 11
-58.77499951423651
 21
9.999999999999944
 31
0.0
  0
LINE
  5
1010332
330
101032A
100
AcDbEntity
  8
PERIMETER
100
AcDbLine
 10
-58.77499951423651
 20
9.999999999999944
 30
0.0
 11
-59.77499951423652
 21
9.000000000000003
 31
0.0
  0
LINE
  5
1010333
330
101032A
100
AcDbEntity
  8
PERIMETER
100
AcDbLine
 10
-59.77499951423652
 20
9.000000000000003
 30
0.0
 11
-59.77499951423652
 21
-1.000000000000031
 31
0.0
  0
LINE
  5
1010334
330
101032A
100
AcDbEntity
  8
PERIMETER
100
AcDbLine
 10
-59.77499951423652
 20
-1.000000000000031
 30
0.0
 11
-69.67499951423654
 21
-1.000000000000014
 31
0.0
  0
LINE
  5
1010335
330
101032A
100
AcDbEntity
  8
PERIMETER
100
AcDbLine
 10
-69.67499951423654
 20
-1.000000000000014
 30
0.0
 11
-69.67499951423654
 21
9.000000000000003
 31
0.0
  0
LINE
  5
1010336
330
101032A
100
AcDbEntity
  8
PERIMETER
100
AcDbLine
 10
-69.67499951423654
 20
9.000000000000003
 30
0.0
 11
-70.67499951423656
 21
9.999999999999964
 31
0.0
  0
LINE
  5
1010337
330
101032A
100
AcDbEntity
  8
PERIMETER
100
AcDbLine
 10
-70.67499951423656
 20
9.999999999999964
 30
0.0
 11
-80.67499951423656
 21
9.999999999999964
 31
0.0
  0
LINE
  5
1010338
330
101032A
100
AcDbEntity
  8
PERIMETER
100
AcDbLine
 10
-80.67499951423656
 20
9.999999999999964
 30
0.0
 11
-81.67499951423629
 21
9.000000000000003
 31
0.0
  0
LINE
  5
1010339
330
101032A
100
AcDbEntity
  8
PERIMETER
100
AcDbLine
 10
-81.67499951423629
 20
9.000000000000003
 30
0.0
 11
-81.67499951423629
 21
-0.9999999999999964
 31
0.0
  0
LINE
  5
101033A
330
101032A
100
AcDbEntity
  8
PERIMETER
100
AcDbLine
 10
-81.67499951423629
 20
-0.9999999999999964
 30
0.0
 11
-91.62499951423626
 21
-0.9999999999999785
 31
0.0
  0
LINE
  5
101033B
330
101032A
100
AcDbEntity
  8
PERIMETER
100
AcDbLine
 10
-91.62499951423626
 20
-0.9999999999999785
 30
0.0
 11
-91.62499951423626
 21
9.000000000000003
 31
0.0
  0
LINE
  5
101033C
330
101032A
100
AcDbEntity
  8
PERIMETER
100
AcDbLine
 10
-91.62499951423626
 20
9.000000000000003
 30
0.0
 11
-92.62499951423629
 21
9.999999999999982
 31
0.0
  0
LINE
  5
101033D
330
101032A
100
AcDbEntity
  8
PERIMETER
100
AcDbLine
 10
-92.62499951423629
 20
9.999999999999982
 30
0.0
 11
-102.6249995142362
 21
9.999999999999982
 31
0.0
  0
LINE
  5
101033E
330
101032A
100
AcDbEntity
  8
PERIMETER
100
AcDbLine
 10
-102.6249995142362
 20
9.999999999999982
 30
0.0
 11
-103.6249995142362
 21
9.000000000000003
 31
0.0
  0
LINE
  5
101033F
330
101032A
100
AcDbEntity
  8
PERIMETER
100
AcDbLine
 10
-103.6249995142362
 20
9.000000000000003
 30
0.0
 11
-103.6249995142354
 21
-0.9999999999999607
 31
0.0
  0
LINE
  5
1010340
330
101032A
100
AcDbEntity
  8
PERIMETER
100
AcDbLine
 10
-103.6249995142354
 20
-0.9999999999999607
 30
0.0
 11
-113.6249995142354
 21
-0.9999999999999431
 31
0.0
  0
LINE
  5
1010341
330
101032A
100
AcDbEntity
  8
PERIMETER
100
AcDbLine
 10
-113.6249995142354
 20
-0.9999999999999431
 30
0.0
 11
-113.6249995142354
 21
9.000000000000003
 31
0.0
  0
LINE
  5
1010342
330
101032A
100
AcDbEntity
  8
PERIMETER
100
AcDbLine
 10
-113.6249995142354
 20
9.000000000000003
 30
0.0
 11
-114.6249995142354
 21
10.0
 31
0.0
  0
LINE
  5
1010343
330
101032A
100
AcDbEntity
  8
PERIMETER
100
AcDbLine
 10
-114.6249995142354
 20
10.0
 30
0.0
 11
-124.6249995142354
 21
10.0
 31
0.0
  0
LINE
  5
1010344
330
101032A
100
AcDbEntity
  8
PERIMETER
100
AcDbLine
 10
-124.6249995142354
 20
10.0
 30
0.0
 11
-124.6250004857572
 21
-10.0
 31
0.0
  0
LINE
  5
1010345
330
101032A
100
AcDbEntity
  8
PERIMETER
100
AcDbLine
 10
-124.6250004857572
 20
-10.0
 30
0.0
 11
124.6250004857572
 21
-9.999999999999731
 31
0.0
  0
LINE
  5
1010346
330
101032A
100
AcDbEntity
  8
PERIMETER
100
AcDbLine
 10
124.6250004857572
 20
-9.999999999999731
 30
0.0
 11
124.6250004857572
 21
9.999999999999785
 31
0.0
  0
LINE
  5
1010347
330
101032A
100
AcDbEntity
  8
PERIMETER
100
AcDbLine
 10
124.6250004857572
 20
9.999999999999785
 30
0.0
 11
114.6250004857572
 21
9.999999999999785
 31
0.0
  0
LINE
  5
1010348
330
101032A
100
AcDbEntity
  8
PERIMETER
100
AcDbLine
 10
114.6250004857572
 20
9.999999999999785
 30
0.0
 11
113.6250004857571
 21
9.000000000000003
 31
0.0
  0
LINE
  5
1010349
330
101032A
100
AcDbEntity
  8
PERIMETER
100
AcDbLine
 10
113.6250004857571
 20
9.000000000000003
 30
0.0
 11
113.6250004857571
 21
-1.000000000000316
 31
0.0
  0
LINE
  5
101034A
330
101032A
100
AcDbEntity
  8
PERIMETER
100
AcDbLine
 10
113.6250004857571
 20
-1.000000000000316
 30
0.0
 11
104.1250004857571
 21
-1.000000000000298
 31
0.0
  0
LINE
  5
101034B
330
101032A
100
AcDbEntity
  8
PERIMETER
100
AcDbLine
 10
104.1250004857571
 20
-1.000000000000298
 30
0.0
 11
104.1250004857571
 21
9.000000000000003
 31
0.0
  0
LINE
  5
101034C
330
101032A
100
AcDbEntity
  8
PERIMETER
100
AcDbLine
 10
104.1250004857571
 20
9.000000000000003
 30
0.0
 11
103.1250004857574
 21
9.999999999999804
 31
0.0
  0
LINE
  5
101034D
330
101032A
100
AcDbEntity
  8
PERIMETER
100
AcDbLine
 10
103.1250004857574
 20
9.999999999999804
 30
0.0
 11
93.12500048575756
 21
9.999999999999804
 31
0.0
  0
LINE
  5
101034E
330
101032A
100
AcDbEntity
  8
PERIMETER
100
AcDbLine
 10
93.12500048575756
 20
9.999999999999804
 30
0.0
 11
92.12500048575748
 21
9.000000000000003
 31
0.0
  0
LINE
  5
101034F
330
101032A
100
AcDbEntity
  8
PERIMETER
100
AcDbLine
 10
92.12500048575748
 20
9.000000000000003
 30
0.0
 11
92.12500048575748
 21
-1.00000000000028
 31
0.0
  0
LINE
  5
1010350
330
101032A
100
AcDbEntity
  8
PERIMETER
100
AcDbLine
 10
92.12500048575748
 20
-1.00000000000028
 30
0.0
 11
82.57500048575749
 21
-1.000000000000262
 31
0.0
  0
LINE
  5
1010351
330
101032A
100
AcDbEntity
  8
PERIMETER
100
AcDbLine
 10
82.57500048575749
 20
-1.000000000000262
 30
0.0
 11
82.57500048575813
 21
8.999999999999827
 31
0.0
  0
LINE
  5
1010352
330
101032A
100
AcDbEntity
  8
PERIMETER
100
AcDbLine
 10
82.57500048575813
 20
8.999999999999827
 30
0.0
 11
81.5750004857581
 21
9.999999999999822
 31
0.0
  0
LINE
  5
1010353
330
101032A
100
AcDbEntity
  8
PERIMETER
100
AcDbLine
 10
81.5750004857581
 20
9.999999999999822
 30
0.0
 11
71.57500048575819
 21
9.999999999999822
 31
0.0
  0
LINE
  5
1010354
330
101032A
100
AcDbEntity
  8
PERIMETER
100
AcDbLine
 10
71.57500048575819
 20
9.999999999999822
 30
0.0
 11
70.57500048575819
 21
9.000000000000341
 31
0.0
  0
LINE
  5
1010355
330
101032A
100
AcDbEntity
  8
PERIMETER
100
AcDbLine
 10
70.57500048575819
 20
9.000000000000341
 30
0.0
 11
70.57500048575895
 21
-1.000000000000245
 31
0.0
  0
LINE
  5
1010356
330
101032A
100
AcDbEntity
  8
PERIMETER
100
AcDbLine
 10
70.57500048575895
 20
-1.000000000000245
 30
0.0
 11
60.97500048575896
 21
-1.000000000000227
 31
0.0
  0
LINE
  5
1010357
330
101032A
100
AcDbEntity
  8
PERIMETER
100
AcDbLine
 10
60.97500048575896
 20
-1.000000000000227
 30
0.0
 11
60.97500048575896
 21
9.000000000000003
 31
0.0
  0
LINE
  5
1010358
330
101032A
100
AcDbEntity
  8
PERIMETER
100
AcDbLine
 10
60.97500048575896
 20
9.000000000000003
 30
0.0
 11
59.97500048575894
 21
9.99999999999984
 31
0.0
  0
LINE
  5
1010359
330
101032A
100
AcDbEntity
  8
PERIMETER
100
AcDbLine
 10
59.97500048575894
 20
9.99999999999984
 30
0.0
 11
49.97500048575901
 21
9.99999999999984
 31
0.0
  0
LINE
  5
101035A
330
101032A
100
AcDbEntity
  8
PERIMETER
100
AcDbLine
 10
49.97500048575901
 20
9.99999999999984
 30
0.0
 11
48.975000485759
 21
9.000000000000003
 31
0.0
  0
LINE
  5
101035B
330
101032A
100
AcDbEntity
  8
PERIMETER
100
AcDbLine
 10
48.975000485759
 20
9.000000000000003
 30
0.0
 11
48.975000485759
 21
-1.000000000000209
 31
0.0
  0
LINE
  5
101035C
330
101032A
100
AcDbEntity
  8
PERIMETER
100
AcDbLine
 10
48.975000485759
 20
-1.000000000000209
 30
0.0
 11
39.32500048575896
 21
-1.000000000000191
 31
0.0
  0
LINE
  5
101035D
330
101032A
100
AcDbEntity
  8
PERIMETER
100
AcDbLine
 10
39.32500048575896
 20
-1.000000000000191
 30
0.0
 11
39.32500048576109
 21
9.000000000000145
 31
0.0
  0
LINE
  5
101035E
330
101032A
100
AcDbEntity
  8
PERIMETER
100
AcDbLine
 10
39.32500048576109
 20
9.000000000000145
 30
0.0
 11
38.32500048576108
 21
9.999999999999857
 31
0.0
  0
LINE
  5
101035F
330
101032A
100
AcDbEntity
  8
PERIMETER
100
AcDbLine
 10
38.32500048576108
 20
9.999999999999857
 30
0.0
 11
28.32500048576115
 21
9.999999999999857
 31
0.0
  0
LINE
  5
1010360
330
101032A
100
AcDbEntity
  8
PERIMETER
100
AcDbLine
 10
28.32500048576115
 20
9.999999999999857
 30
0.0
 11
27.32500048576114
 21
9.000000000000003
 31
0.0
  0
LINE
  5
1010361
330
101032A
100
AcDbEntity
  8
PERIMETER
100
AcDbLine
 10
27.32500048576114
 20
9.000000000000003
 30
0.0
 11
27.32500048576007
 21
-1.000000000000174
 31
0.0
  0
LINE
  5
1010362
330
101032A
100
AcDbEntity
  8
PERIMETER
100
AcDbLine
 10
27.32500048576007
 20
-1.000000000000174
 30
0.0
 11
17.62500048576008
 21
-1.000000000000156
 31
0.0
  0
LINE
  5
1010363
330
101032A
100
AcDbEntity
  8
PERIMETER
100
AcDbLine
 10
17.62500048576008
 20
-1.000000000000156
 30
0.0
 11
17.62500048576086
 21
9.000000000000003
 31
0.0
  0
LINE
  5
1010364
330
101032A
100
AcDbEntity
  8
PERIMETER
100
AcDbLine
 10
17.62500048576086
 20
9.000000000000003
 30
0.0
 11
16.62500048576113
 21
9.999999999999875
 31
0.0
  0
LINE
  5
1010365
330
101032A
100
AcDbEntity
  8
PERIMETER
100
AcDbLine
 10
16.62500048576113
 20
9.999999999999875
 30
0.0
 11
6.625000485761134
 21
9.999999999999891
 31
0.0
  0
LINE
  5
1010366
330
101032A
100
AcDbEntity
  8
PERIMETER
100
AcDbLine
 10
6.625000485761134
 20
9.999999999999891
 30
0.0
 11
5.62500048576112
 21
8.999999999999966
 31
0.0
  0
LINE
  5
1010367
330
101032A
100
AcDbEntity
  8
PERIMETER
100
AcDbLine
 10
5.62500048576112
 20
8.999999999999966
 30
0.0
 11
5.625000485761901
 21
-1.000000000000138
 31
0.0
  0
LINE
  5
1010368
330
101032A
100
AcDbEntity
  8
PERIMETER
100
AcDbLine
 10
5.625000485761901
 20
-1.000000000000138
 30
0.0
 11
-4.124999514238112
 21
-1.00000000000012
 31
0.0
  0
LINE
  5
1010369
330
101032A
100
AcDbEntity
  8
PERIMETER
100
AcDbLine
 10
-4.124999514238112
 20
-1.00000000000012
 30
0.0
 11
-4.124999514237401
 21
9.000000000000163
 31
0.0
  0
LINE
  5
101036A
330
101032A
100
AcDbEntity
  8
PERIMETER
100
AcDbLine
 10
-4.124999514237401
 20
9.000000000000163
 30
0.0
 11
-5.124999514237416
 21
9.999999999999891
 31
0.0
  0
LINE
  5
101036B
330
101032A
100
AcDbEntity
  8
PERIMETER
100
AcDbLine
 10
-5.124999514237416
 20
9.999999999999891
 30
0.0
 11
-15.12499951423741
 21
9.999999999999911
 31
0.0
  0
LINE
  5
101036C
330
101032A
100
AcDbEntity
  8
PERIMETER
100
AcDbLine
 10
-15.12499951423741
 20
9.999999999999911
 30
0.0
 11
-16.12499951423743
 21
8.999999999999772
 31
0.0
  0
LINE
  5
101036D
330
101032A
100
AcDbEntity
  8
PERIMETER
100
AcDbLine
 10
-16.12499951423743
 20
8.999999999999772
 30
0.0
 11
-16.12499951423665
 21
-1.000000000000103
 31
0.0
  0
LINE
  5
101036E
330
101032A
100
AcDbEntity
  8
PERIMETER
100
AcDbLine
 10
-16.12499951423665
 20
-1.000000000000103
 30
0.0
 11
-25.92499951423662
 21
-1.000000000000085
 31
0.0
  0
LINE
  5
101036F
330
101032A
100
AcDbEntity
  8
PERIMETER
100
AcDbLine
 10
-25.92499951423662
 20
-1.000000000000085
 30
0.0
 11
-25.92499951423662
 21
9.000000000000003
 31
0.0
  0
LINE
  5
1010370
330
101032A
100
AcDbEntity
  8
PERIMETER
100
AcDbLine
 10
-25.92499951423662
 20
9.000000000000003
 30
0.0
 11
-26.92499951423663
 21
9.999999999999911
 31
0.0
  0
ENDBLK
  5
1010372
330
101032A
100
AcDbEntity
  8
0
100
AcDbBlockEnd
  0
BLOCK
  5
1010446
330
10103FF
100
AcDbEntity
  8
0
100
AcDbBlockBegin
  2
14
 70
     0
 10
0.0
 20
0.0
 30
0.0
  3
14
  1

  0
LINE
  5
1010400
330
10103FF
100
AcDbEntity
  8
PERIMETER
100
AcDbLine
 10
97.57500048575693
 20
9.999999999999767
 30
0.0
 11
96.575000485757
 21
9.000000000000341
 31
0.0
  0
LINE
  5
1010401
330
10103FF
100
AcDbEntity
  8
PERIMETER
100
AcDbLine
 10
96.575000485757
 20
9.000000000000341
 30
0.0
 11
96.57500048575798
 21
-5.000000000000373
 31
0.0
  0
LINE
  5
1010402
330
10103FF
100
AcDbEntity
  8
PERIMETER
100
AcDbLine
 10
96.57500048575798
 20
-5.000000000000373
 30
0.0
 11
82.97500048575797
 21
-5.000000000000355
 31
0.0
  0
LINE
  5
1010403
330
10103FF
100
AcDbEntity
  8
PERIMETER
100
AcDbLine
 10
82.97500048575797
 20
-5.000000000000355
 30
0.0
 11
82.97500048575797
 21
9.000000000000003
 31
0.0
  0
LINE
  5
1010404
330
10103FF
100
AcDbEntity
  8
PERIMETER
100
AcDbLine
 10
82.97500048575797
 20
9.000000000000003
 30
0.0
 11
81.97500048575804
 21
9.999999999999767
 31
0.0
  0
LINE
  5
1010405
330
10103FF
100
AcDbEntity
  8
PERIMETER
100
AcDbLine
 10
81.97500048575804
 20
9.999999999999767
 30
0.0
 11
67.97500048575813
 21
9.999999999999785
 31
0.0
  0
LINE
  5
1010406
330
10103FF
100
AcDbEntity
  8
PERIMETER
100
AcDbLine
 10
67.97500048575813
 20
9.999999999999785
 30
0.0
 11
66.97500048575804
 21
9.000000000000003
 31
0.0
  0
LINE
  5
1010407
330
10103FF
100
AcDbEntity
  8
PERIMETER
100
AcDbLine
 10
66.97500048575804
 20
9.000000000000003
 30
0.0
 11
66.97500048575804
 21
-5.000000000000319
 31
0.0
  0
LINE
  5
1010408
330
10103FF
100
AcDbEntity
  8
PERIMETER
100
AcDbLine
 10
66.97500048575804
 20
-5.000000000000319
 30
0.0
 11
53.3250004857581
 21
-5.000000000000301
 31
0.0
  0
LINE
  5
1010409
330
10103FF
100
AcDbEntity
  8
PERIMETER
100
AcDbLine
 10
53.3250004857581
 20
-5.000000000000301
 30
0.0
 11
53.32500048576108
 21
9.000000000000072
 31
0.0
  0
LINE
  5
101040A
330
10103FF
100
AcDbEntity
  8
PERIMETER
100
AcDbLine
 10
53.32500048576108
 20
9.000000000000072
 30
0.0
 11
52.325000485761
 21
9.999999999999804
 31
0.0
  0
LINE
  5
101040B
330
10103FF
100
AcDbEntity
  8
PERIMETER
100
AcDbLine
 10
52.325000485761
 20
9.999999999999804
 30
0.0
 11
38.32500048576115
 21
9.999999999999822
 31
0.0
  0
LINE
  5
101040C
330
10103FF
100
AcDbEntity
  8
PERIMETER
100
AcDbLine
 10
38.32500048576115
 20
9.999999999999822
 30
0.0
 11
37.32500048576113
 21
9.000000000000003
 31
0.0
  0
LINE
  5
101040D
330
10103FF
100
AcDbEntity
  8
PERIMETER
100
AcDbLine
 10
37.32500048576113
 20
9.000000000000003
 30
0.0
 11
37.32500048575965
 21
-5.000000000000266
 31
0.0
  0
LINE
  5
101040E
330
10103FF
100
AcDbEntity
  8
PERIMETER
100
AcDbLine
 10
37.32500048575965
 20
-5.000000000000266
 30
0.0
 11
23.62500048575967
 21
-5.000000000000248
 31
0.0
  0
LINE
  5
101040F
330
10103FF
100
AcDbEntity
  8
PERIMETER
100
AcDbLine
 10
23.62500048575967
 20
-5.000000000000248
 30
0.0
 11
23.62500048576074
 21
9.000000000000003
 31
0.0
  0
LINE
  5
1010410
330
10103FF
100
AcDbEntity
  8
PERIMETER
100
AcDbLine
 10
23.62500048576074
 20
9.000000000000003
 30
0.0
 11
22.62500048576114
 21
9.999999999999822
 31
0.0
  0
LINE
  5
1010411
330
10103FF
100
AcDbEntity
  8
PERIMETER
100
AcDbLine
 10
22.62500048576114
 20
9.999999999999822
 30
0.0
 11
8.625000485761304
 21
9.99999999999984
 31
0.0
  0
LINE
  5
1010412
330
10103FF
100
AcDbEntity
  8
PERIMETER
100
AcDbLine
 10
8.625000485761304
 20
9.99999999999984
 30
0.0
 11
7.625000485761289
 21
8.999999999999987
 31
0.0
  0
LINE
  5
1010413
330
10103FF
100
AcDbEntity
  8
PERIMETER
100
AcDbLine
 10
7.625000485761289
 20
8.999999999999987
 30
0.0
 11
7.625000485762354
 21
-5.00000000000023
 31
0.0
  0
LINE
  5
1010414
330
10103FF
100
AcDbEntity
  8
PERIMETER
100
AcDbLine
 10
7.625000485762354
 20
-5.00000000000023
 30
0.0
 11
-6.124999514237643
 21
-5.000000000000195
 31
0.0
  0
LINE
  5
1010415
330
10103FF
100
AcDbEntity
  8
PERIMETER
100
AcDbLine
 10
-6.124999514237643
 20
-5.000000000000195
 30
0.0
 11
-6.124999514236648
 21
8.999999999999987
 31
0.0
  0
LINE
  5
1010416
330
10103FF
100
AcDbEntity
  8
PERIMETER
100
AcDbLine
 10
-6.124999514236648
 20
8.999999999999987
 30
0.0
 11
-7.124999514236662
 21
9.999999999999857
 31
0.0
  0
LINE
  5
1010417
330
10103FF
100
AcDbEntity
  8
PERIMETER
100
AcDbLine
 10
-7.124999514236662
 20
9.999999999999857
 30
0.0
 11
-21.12499951423657
 21
9.999999999999875
 31
0.0
  0
LINE
  5
1010418
330
10103FF
100
AcDbEntity
  8
PERIMETER
100
AcDbLine
 10
-21.12499951423657
 20
9.999999999999875
 30
0.0
 11
-22.12499951423645
 21
9.000000000000003
 31
0.0
  0
LINE
  5
1010419
330
10103FF
100
AcDbEntity
  8
PERIMETER
100
AcDbLine
 10
-22.12499951423645
 20
9.000000000000003
 30
0.0
 11
-22.12499951423539
 21
-5.000000000000177
 31
0.0
  0
LINE
  5
101041A
330
10103FF
100
AcDbEntity
  8
PERIMETER
100
AcDbLine
 10
-22.12499951423539
 20
-5.000000000000177
 30
0.0
 11
-35.9249995142354
 21
-5.000000000000142
 31
0.0
  0
LINE
  5
101041B
330
10103FF
100
AcDbEntity
  8
PERIMETER
100
AcDbLine
 10
-35.9249995142354
 20
-5.000000000000142
 30
0.0
 11
-35.9249995142354
 21
9.000000000000003
 31
0.0
  0
LINE
  5
101041C
330
10103FF
100
AcDbEntity
  8
PERIMETER
100
AcDbLine
 10
-35.9249995142354
 20
9.000000000000003
 30
0.0
 11
-36.92499951423542
 21
9.999999999999875
 31
0.0
  0
LINE
  5
101041D
330
10103FF
100
AcDbEntity
  8
PERIMETER
100
AcDbLine
 10
-36.92499951423542
 20
9.999999999999875
 30
0.0
 11
-50.92499951423534
 21
9.999999999999891
 31
0.0
  0
LINE
  5
101041E
330
10103FF
100
AcDbEntity
  8
PERIMETER
100
AcDbLine
 10
-50.92499951423534
 20
9.999999999999891
 30
0.0
 11
-51.92499951423535
 21
9.000000000000003
 31
0.0
  0
LINE
  5
101041F
330
10103FF
100
AcDbEntity
  8
PERIMETER
100
AcDbLine
 10
-51.92499951423535
 20
9.000000000000003
 30
0.0
 11
-51.92499951423535
 21
-5.000000000000124
 31
0.0
  0
LINE
  5
1010420
330
10103FF
100
AcDbEntity
  8
PERIMETER
100
AcDbLine
 10
-51.92499951423535
 20
-5.000000000000124
 30
0.0
 11
-65.77499951423532
 21
-5.000000000000106
 31
0.0
  0
LINE
  5
1010421
330
10103FF
100
AcDbEntity
  8
PERIMETER
100
AcDbLine
 10
-65.77499951423532
 20
-5.000000000000106
 30
0.0
 11
-65.77499951423532
 21
9.000000000000003
 31
0.0
  0
LINE
  5
1010422
330
10103FF
100
AcDbEntity
  8
PERIMETER
100
AcDbLine
 10
-65.77499951423532
 20
9.000000000000003
 30
0.0
 11
-66.77499951423515
 21
9.999999999999911
 31
0.0
  0
LINE
  5
1010423
330
10103FF
100
AcDbEntity
  8
PERIMETER
100
AcDbLine
 10
-66.77499951423515
 20
9.999999999999911
 30
0.0
 11
-80.77499951423506
 21
9.999999999999928
 31
0.0
  0
LINE
  5
1010424
330
10103FF
100
AcDbEntity
  8
PERIMETER
100
AcDbLine
 10
-80.77499951423506
 20
9.999999999999928
 30
0.0
 11
-81.77499951423515
 21
9.000000000000003
 31
0.0
  0
LINE
  5
1010425
330
10103FF
100
AcDbEntity
  8
PERIMETER
100
AcDbLine
 10
-81.77499951423515
 20
9.000000000000003
 30
0.0
 11
-81.77499951423515
 21
-5.000000000000071
 31
0.0
  0
LINE
  5
1010426
330
10103FF
100
AcDbEntity
  8
PERIMETER
100
AcDbLine
 10
-81.77499951423515
 20
-5.000000000000071
 30
0.0
 11
-95.67499951423513
 21
-5.000000000000052
 31
0.0
  0
LINE
  5
1010427
330
10103FF
100
AcDbEntity
  8
PERIMETER
100
AcDbLine
 10
-95.67499951423513
 20
-5.000000000000052
 30
0.0
 11
-95.67499951423513
 21
9.000000000000003
 31
0.0
  0
LINE
  5
1010428
330
10103FF
100
AcDbEntity
  8
PERIMETER
100
AcDbLine
 10
-95.67499951423513
 20
9.000000000000003
 30
0.0
 11
-96.67499951423508
 21
9.999999999999944
 31
0.0
  0
LINE
  5
1010429
330
10103FF
100
AcDbEntity
  8
PERIMETER
100
AcDbLine
 10
-96.67499951423508
 20
9.999999999999944
 30
0.0
 11
-110.674999514235
 21
9.999999999999944
 31
0.0
  0
LINE
  5
101042A
330
10103FF
100
AcDbEntity
  8
PERIMETER
100
AcDbLine
 10
-110.674999514235
 20
9.999999999999944
 30
0.0
 11
-111.6749995142347
 21
9.000000000000003
 31
0.0
  0
LINE
  5
101042B
330
10103FF
100
AcDbEntity
  8
PERIMETER
100
AcDbLine
 10
-111.6749995142347
 20
9.000000000000003
 30
0.0
 11
-111.6749995142347
 21
-5.000000000000017
 31
0.0
  0
LINE
  5
101042C
330
10103FF
100
AcDbEntity
  8
PERIMETER
100
AcDbLine
 10
-111.6749995142347
 20
-5.000000000000017
 30
0.0
 11
-125.6249995142348
 21
-5.0
 31
0.0
  0
LINE
  5
101042D
330
10103FF
100
AcDbEntity
  8
PERIMETER
100
AcDbLine
 10
-125.6249995142348
 20
-5.0
 30
0.0
 11
-125.6249995142348
 21
9.000000000000003
 31
0.0
  0
LINE
  5
101042E
330
10103FF
100
AcDbEntity
  8
PERIMETER
100
AcDbLine
 10
-125.6249995142348
 20
9.000000000000003
 30
0.0
 11
-126.6249995142348
 21
9.999999999999964
 31
0.0
  0
LINE
  5
101042F
330
10103FF
100
AcDbEntity
  8
PERIMETER
100
AcDbLine
 10
-126.6249995142348
 20
9.999999999999964
 30
0.0
 11
-140.6249995142347
 21
9.999999999999982
 31
0.0
  0
LINE
  5
1010430
330
10103FF
100
AcDbEntity
  8
PERIMETER
100
AcDbLine
 10
-140.6249995142347
 20
9.999999999999982
 30
0.0
 11
-141.6249995142347
 21
8.999999999999987
 31
0.0
  0
LINE
  5
1010431
330
10103FF
100
AcDbEntity
  8
PERIMETER
100
AcDbLine
 10
-141.6249995142347
 20
8.999999999999987
 30
0.0
 11
-141.6249995142336
 21
-4.999999999999982
 31
0.0
  0
LINE
  5
1010432
330
10103FF
100
AcDbEntity
  8
PERIMETER
100
AcDbLine
 10
-141.6249995142336
 20
-4.999999999999982
 30
0.0
 11
-155.6249995142336
 21
-4.999999999999946
 31
0.0
  0
LINE
  5
1010433
330
10103FF
100
AcDbEntity
  8
PERIMETER
100
AcDbLine
 10
-155.6249995142336
 20
-4.999999999999946
 30
0.0
 11
-155.6249995142336
 21
9.000000000000003
 31
0.0
  0
LINE
  5
1010434
330
10103FF
100
AcDbEntity
  8
PERIMETER
100
AcDbLine
 10
-155.6249995142336
 20
9.000000000000003
 30
0.0
 11
-156.6249995142335
 21
10.0
 31
0.0
  0
LINE
  5
1010435
330
10103FF
100
AcDbEntity
  8
PERIMETER
100
AcDbLine
 10
-156.6249995142335
 20
10.0
 30
0.0
 11
-170.6249995142335
 21
9.999999999999964
 31
0.0
  0
LINE
  5
1010436
330
10103FF
100
AcDbEntity
  8
PERIMETER
100
AcDbLine
 10
-170.6249995142335
 20
9.999999999999964
 30
0.0
 11
-170.6250004857554
 21
-10.0
 31
0.0
  0
LINE
  5
1010437
330
10103FF
100
AcDbEntity
  8
PERIMETER
100
AcDbLine
 10
-170.6250004857554
 20
-10.0
 30
0.0
 11
170.6250004857554
 21
-9.999999999999607
 31
0.0
  0
LINE
  5
1010438
330
10103FF
100
AcDbEntity
  8
PERIMETER
100
AcDbLine
 10
170.6250004857554
 20
-9.999999999999607
 30
0.0
 11
170.6250004857554
 21
9.999999999999698
 31
0.0
  0
LINE
  5
1010439
330
10103FF
100
AcDbEntity
  8
PERIMETER
100
AcDbLine
 10
170.6250004857554
 20
9.999999999999698
 30
0.0
 11
156.6250004857554
 21
9.999999999999715
 31
0.0
  0
LINE
  5
101043A
330
10103FF
100
AcDbEntity
  8
PERIMETER
100
AcDbLine
 10
156.6250004857554
 20
9.999999999999715
 30
0.0
 11
155.6250004857554
 21
9.000000000000003
 31
0.0
  0
LINE
  5
101043B
330
10103FF
100
AcDbEntity
  8
PERIMETER
100
AcDbLine
 10
155.6250004857554
 20
9.000000000000003
 30
0.0
 11
155.6250004857554
 21
-5.000000000000461
 31
0.0
  0
LINE
  5
101043C
330
10103FF
100
AcDbEntity
  8
PERIMETER
100
AcDbLine
 10
155.6250004857554
 20
-5.000000000000461
 30
0.0
 11
142.1250004857554
 21
-5.000000000000444
 31
0.0
  0
LINE
  5
101043D
330
10103FF
100
AcDbEntity
  8
PERIMETER
100
AcDbLine
 10
142.1250004857554
 20
-5.000000000000444
 30
0.0
 11
142.1250004857554
 21
9.000000000000003
 31
0.0
  0
LINE
  5
101043E
330
10103FF
100
AcDbEntity
  8
PERIMETER
100
AcDbLine
 10
142.1250004857554
 20
9.000000000000003
 30
0.0
 11
141.125000485756
 21
9.999999999999715
 31
0.0
  0
LINE
  5
101043F
330
10103FF
100
AcDbEntity
  8
PERIMETER
100
AcDbLine
 10
141.125000485756
 20
9.999999999999715
 30
0.0
 11
127.1250004857559
 21
9.999999999999731
 31
0.0
  0
LINE
  5
1010440
330
10103FF
100
AcDbEntity
  8
PERIMETER
100
AcDbLine
 10
127.1250004857559
 20
9.999999999999731
 30
0.0
 11
126.125000485756
 21
9.000000000000003
 31
0.0
  0
LINE
  5
1010441
330
10103FF
100
AcDbEntity
  8
PERIMETER
100
AcDbLine
 10
126.125000485756
 20
9.000000000000003
 30
0.0
 11
126.125000485756
 21
-5.000000000000425
 31
0.0
  0
LINE
  5
1010442
330
10103FF
100
AcDbEntity
  8
PERIMETER
100
AcDbLine
 10
126.125000485756
 20
-5.000000000000425
 30
0.0
 11
112.5750004857559
 21
-5.00000000000039
 31
0.0
  0
LINE
  5
1010443
330
10103FF
100
AcDbEntity
  8
PERIMETER
100
AcDbLine
 10
112.5750004857559
 20
-5.00000000000039
 30
0.0
 11
112.5750004857569
 21
8.999999999999827
 31
0.0
  0
LINE
  5
1010444
330
10103FF
100
AcDbEntity
  8
PERIMETER
100
AcDbLine
 10
112.5750004857569
 20
8.999999999999827
 30
0.0
 11
111.5750004857568
 21
9.999999999999751
 31
0.0
  0
LINE
  5
1010445
330
10103FF
100
AcDbEntity
  8
PERIMETER
100
AcDbLine
 10
111.5750004857568
 20
9.999999999999751
 30
0.0
 11
97.57500048575693
 21
9.999999999999767
 31
0.0
  0
ENDBLK
  5
1010447
330
10103FF
100
AcDbEntity
  8
0
100
AcDbBlockEnd
  0
ENDSEC
  0
SECTION
  2
ENTITIES
  0
LINE
  5
100
330
1F
100
AcDbEntity
  8
0
100
AcDbLine
 10
-5.424999514239061
 20
9.999999999999982
 30
0.0
 11
-6.824999514239067
 21
9.999999999999982
 31
0.0
  0
LINE
  5
101
330
1F
100
AcDbEntity
  8
0
100
AcDbLine
 10
-6.824999514239067
 20
9.999999999999982
 30
0.0
 11
-7.824999514239081
 21
9.000000000000003
 31
0.0
  0
LINE
  5
102
330
1F
100
AcDbEntity
  8
0
100
AcDbLine
 10
-7.824999514239081
 20
9.000000000000003
 30
0.0
 11
-7.824999514239081
 21
7.600000000000033
 31
0.0
  0
LINE
  5
103
330
1F
100
AcDbEntity
  8
0
100
AcDbLine
 10
-7.824999514239081
 20
7.600000000000033
 30
0.0
 11
-9.074999514239079
 21
7.600000000000051
 31
0.0
  0
LINE
  5
104
330
1F
100
AcDbEntity
  8
0
100
AcDbLine
 10
-9.074999514239079
 20
7.600000000000051
 30
0.0
 11
-9.074999514239079
 21
9.000000000000003
 31
0.0
  0
LINE
  5
105
330
1F
100
AcDbEntity
  8
0
100
AcDbLine
 10
-9.074999514239079
 20
9.000000000000003
 30
0.0
 11
-10.07499951423888
 21
9.999999999999982
 31
0.0
  0
LINE
  5
106
330
1F
100
AcDbEntity
  8
0
100
AcDbLine
 10
-10.07499951423888
 20
9.999999999999982
 30
0.0
 11
-11.47499951423888
 21
9.999999999999982
 31
0.0
  0
LINE
  5
107
330
1F
100
AcDbEntity
  8
0
100
AcDbLine
 10
-11.47499951423888
 20
9.999999999999982
 30
0.0
 11
-12.4749995142389
 21
9.000000000000003
 31
0.0
  0
LINE
  5
108
330
1F
100
AcDbEntity
  8
0
100
AcDbLine
 10
-12.4749995142389
 20
9.000000000000003
 30
0.0
 11
-12.4749995142389
 21
7.600000000000051
 31
0.0
  0
LINE
  5
109
330
1F
100
AcDbEntity
  8
0
100
AcDbLine
 10
-12.4749995142389
 20
7.600000000000051
 30
0.0
 11
-13.77499951423893
 21
7.600000000000051
 31
0.0
  0
LINE
  5
10A
330
1F
100
AcDbEntity
  8
0
100
AcDbLine
 10
-13.77499951423893
 20
7.600000000000051
 30
0.0
 11
-13.77499951423893
 21
9.000000000000003
 31
0.0
  0
LINE
  5
10B
330
1F
100
AcDbEntity
  8
0
100
AcDbLine
 10
-13.77499951423893
 20
9.000000000000003
 30
0.0
 11
-14.77499951423894
 21
10.0
 31
0.0
  0
LINE
  5
10C
330
1F
100
AcDbEntity
  8
0
100
AcDbLine
 10
-14.77499951423894
 20
10.0
 30
0.0
 11
-16.17499951423894
 21
10.0
 31
0.0
  0
LINE
  5
10D
330
1F
100
AcDbEntity
  8
0
100
AcDbLine
 10
-16.17499951423894
 20
10.0
 30
0.0
 11
-17.17499951423875
 21
9.000000000000003
 31
0.0
  0
LINE
  5
10E
330
1F
100
AcDbEntity
  8
0
100
AcDbLine
 10
-17.17499951423875
 20
9.000000000000003
 30
0.0
 11
-17.17499951423875
 21
7.600000000000051
 31
0.0
  0
LINE
  5
10F
330
1F
100
AcDbEntity
  8
0
100
AcDbLine
 10
-17.17499951423875
 20
7.600000000000051
 30
0.0
 11
-18.52499951423872
 21
7.600000000000051
 31
0.0
  0
LINE
  5
110
330
1F
100
AcDbEntity
  8
0
100
AcDbLine
 10
-18.52499951423872
 20
7.600000000000051
 30
0.0
 11
-18.52499951423872
 21
9.000000000000003
 31
0.0
  0
LINE
  5
111
330
1F
100
AcDbEntity
  8
0
100
AcDbLine
 10
-18.52499951423872
 20
9.000000000000003
 30
0.0
 11
-19.52499951423875
 21
10.0
 31
0.0
  0
LINE
  5
112
330
1F
100
AcDbEntity
  8
0
100
AcDbLine
 10
-19.52499951423875
 20
10.0
 30
0.0
 11
-20.92499951423874
 21
10.0
 31
0.0
  0
LINE
  5
113
330
1F
100
AcDbEntity
  8
0
100
AcDbLine
 10
-20.92499951423874
 20
10.0
 30
0.0
 11
-21.92499951423855
 21
9.000000000000003
 31
0.0
  0
LINE
  5
114
330
1F
100
AcDbEntity
  8
0
100
AcDbLine
 10
-21.92499951423855
 20
9.000000000000003
 30
0.0
 11
-21.9249995142384
 21
7.600000000000068
 31
0.0
  0
LINE
  5
115
330
1F
100
AcDbEntity
  8
0
100
AcDbLine
 10
-21.9249995142384
 20
7.600000000000068
 30
0.0
 11
-23.32499951423841
 21
7.600000000000068
 31
0.0
  0
LINE
  5
116
330
1F
100
AcDbEntity
  8
0
100
AcDbLine
 10
-23.32499951423841
 20
7.600000000000068
 30
0.0
 11
-23.32499951423841
 21
9.000000000000003
 31
0.0
  0
LINE
  5
117
330
1F
100
AcDbEntity
  8
0
100
AcDbLine
 10
-23.32499951423841
 20
9.000000000000003
 30
0.0
 11
-24.32499951423821
 21
10.0
 31
0.0
  0
LINE
  5
118
330
1F
100
AcDbEntity
  8
0
100
AcDbLine
 10
-24.32499951423821
 20
10.0
 30
0.0
 11
-25.72499951423822
 21
9.999999999999982
 31
0.0
  0
LINE
  5
119
330
1F
100
AcDbEntity
  8
0
100
AcDbLine
 10
-25.72499951423822
 20
9.999999999999982
 30
0.0
 11
-25.72500048576011
 21
-9.999999999999982
 31
0.0
  0
LINE
  5
11A
330
1F
100
AcDbEntity
  8
0
100
AcDbLine
 10
-25.72500048576011
 20
-9.999999999999982
 30
0.0
 11
25.72500048576011
 21
-9.999999999999928
 31
0.0
  0
LINE
  5
11B
330
1F
100
AcDbEntity
  8
0
100
AcDbLine
 10
25.72500048576011
 20
-9.999999999999928
 30
0.0
 11
25.72500048576011
 21
9.999999999999944
 31
0.0
  0
LINE
  5
11C
330
1F
100
AcDbEntity
  8
0
100
AcDbLine
 10
25.72500048576011
 20
9.999999999999944
 30
0.0
 11
24.3250004857601
 21
9.999999999999944
 31
0.0
  0
LINE
  5
11D
330
1F
100
AcDbEntity
  8
0
100
AcDbLine
 10
24.3250004857601
 20
9.999999999999944
 30
0.0
 11
23.32500048576009
 21
9.000000000000003
 31
0.0
  0
LINE
  5
11E
330
1F
100
AcDbEntity
  8
0
100
AcDbLine
 10
23.32500048576009
 20
9.000000000000003
 30
0.0
 11
23.32500048576009
 21
7.599999999999998
 31
0.0
  0
LINE
  5
11F
330
1F
100
AcDbEntity
  8
0
100
AcDbLine
 10
23.32500048576009
 20
7.599999999999998
 30
0.0
 11
22.42500048576005
 21
7.599999999999998
 31
0.0
  0
LINE
  5
120
330
1F
100
AcDbEntity
  8
0
100
AcDbLine
 10
22.42500048576005
 20
7.599999999999998
 30
0.0
 11
22.42500048576005
 21
9.000000000000003
 31
0.0
  0
LINE
  5
121
330
1F
100
AcDbEntity
  8
0
100
AcDbLine
 10
22.42500048576005
 20
9.000000000000003
 30
0.0
 11
21.42500048576025
 21
9.999999999999944
 31
0.0
  0
LINE
  5
122
330
1F
100
AcDbEntity
  8
0
100
AcDbLine
 10
21.42500048576025
 20
9.999999999999944
 30
0.0
 11
20.02500048576024
 21
9.999999999999944
 31
0.0
  0
LINE
  5
123
330
1F
100
AcDbEntity
  8
0
100
AcDbLine
 10
20.02500048576024
 20
9.999999999999944
 30
0.0
 11
19.02500048576023
 21
9.000000000000003
 31
0.0
  0
LINE
  5
124
330
1F
100
AcDbEntity
  8
0
100
AcDbLine
 10
19.02500048576023
 20
9.000000000000003
 30
0.0
 11
19.02500048576023
 21
7.599999999999998
 31
0.0
  0
LINE
  5
125
330
1F
100
AcDbEntity
  8
0
100
AcDbLine
 10
19.02500048576023
 20
7.599999999999998
 30
0.0
 11
18.07500048576024
 21
7.599999999999998
 31
0.0
  0
LINE
  5
126
330
1F
100
AcDbEntity
  8
0
100
AcDbLine
 10
18.07500048576024
 20
7.599999999999998
 30
0.0
 11
18.07500048576032
 21
9.000000000000163
 31
0.0
  0
LINE
  5
127
330
1F
100
AcDbEntity
  8
0
100
AcDbLine
 10
18.07500048576032
 20
9.000000000000163
 30
0.0
 11
17.0750004857603
 21
9.999999999999964
 31
0.0
  0
LINE
  5
128
330
1F
100
AcDbEntity
  8
0
100
AcDbLine
 10
17.0750004857603
 20
9.999999999999964
 30
0.0
 11
15.67500048576029
 21
9.999999999999964
 31
0.0
  0
LINE
  5
129
330
1F
100
AcDbEntity
  8
0
100
AcDbLine
 10
15.67500048576029
 20
9.999999999999964
 30
0.0
 11
14.67500048576028
 21
9.000000000000216
 31
0.0
  0
LINE
  5
12A
330
1F
100
AcDbEntity
  8
0
100
AcDbLine
 10
14.67500048576028
 20
9.000000000000216
 30
0.0
 11
14.67500048576042
 21
7.599999999999998
 31
0.0
  0
LINE
  5
12B
330
1F
100
AcDbEntity
  8
0
100
AcDbLine
 10
14.67500048576042
 20
7.599999999999998
 30
0.0
 11
13.6750004857604
 21
7.599999999999998
 31
0.0
  0
LINE
  5
12C
330
1F
100
AcDbEntity
  8
0
100
AcDbLine
 10
13.6750004857604
 20
7.599999999999998
 30
0.0
 11
13.6750004857604
 21
9.000000000000003
 31
0.0
  0
LINE
  5
12D
330
1F
100
AcDbEntity
  8
0
100
AcDbLine
 10
13.6750004857604
 20
9.000000000000003
 30
0.0
 11
12.67500048576039
 21
9.999999999999964
 31
0.0
  0
LINE
  5
12E
330
1F
100
AcDbEntity
  8
0
100
AcDbLine
 10
12.67500048576039
 20
9.999999999999964
 30
0.0
 11
11.27500048576038
 21
9.999999999999964
 31
0.0
  0
LINE
  5
12F
330
1F
100
AcDbEntity
  8
0
100
AcDbLine
 10
11.27500048576038
 20
9.999999999999964
 30
0.0
 11
10.27500048576037
 21
9.000000000000003
 31
0.0
  0
LINE
  5
130
330
1F
100
AcDbEntity
  8
0
100
AcDbLine
 10
10.27500048576037
 20
9.000000000000003
 30
0.0
 11
10.27500048576037
 21
7.600000000000014
 31
0.0
  0
LINE
  5
131
330
1F
100
AcDbEntity
  8
0
100
AcDbLine
 10
10.27500048576037
 20
7.600000000000014
 30
0.0
 11
9.225000485760403
 21
7.600000000000014
 31
0.0
  0
LINE
  5
132
330
1F
100
AcDbEntity
  8
0
100
AcDbLine
 10
9.225000485760403
 20
7.600000000000014
 30
0.0
 11
9.225000485760688
 21
9.000000000000234
 31
0.0
  0
LINE
  5
133
330
1F
100
AcDbEntity
  8
0
100
AcDbLine
 10
9.225000485760688
 20
9.000000000000234
 30
0.0
 11
8.225000485760673
 21
9.999999999999964
 31
0.0
  0
LINE
  5
134
330
1F
100
AcDbEntity
  8
0
100
AcDbLine
 10
8.225000485760673
 20
9.999999999999964
 30
0.0
 11
6.825000485760668
 21
9.999999999999964
 31
0.0
  0
LINE
  5
135
330
1F
100
AcDbEntity
  8
0
100
AcDbLine
 10
6.825000485760668
 20
9.999999999999964
 30
0.0
 11
5.825000485760654
 21
9.000000000000003
 31
0.0
  0
LINE
  5
136
330
1F
100
AcDbEntity
  8
0
100
AcDbLine
 10
5.825000485760654
 20
9.000000000000003
 30
0.0
 11
5.825000485760581
 21
7.600000000000014
 31
0.0
  0
LINE
  5
137
330
1F
100
AcDbEntity
  8
0
100
AcDbLine
 10
5.825000485760581
 20
7.600000000000014
 30
0.0
 11
4.725000485760588
 21
7.600000000000014
 31
0.0
  0
LINE
  5
138
330
1F
100
AcDbEntity
  8
0
100
AcDbLine
 10
4.725000485760588
 20
7.600000000000014
 30
0.0
 11
4.725000485760659
 21
9.000000000000039
 31
0.0
  0
LINE
  5
139
330
1F
100
AcDbEntity
  8
0
100
AcDbLine
 10
4.725000485760659
 20
9.000000000000039
 30
0.0
 11
3.725000485760645
 21
9.999999999999964
 31
0.0
  0
LINE
  5
13A
330
1F
100
AcDbEntity
  8
0
100
AcDbLine
 10
3.725000485760645
 20
9.999999999999964
 30
0.0
 11
2.325000485760639
 21
9.999999999999982
 31
0.0
  0
LINE
  5
13B
330
1F
100
AcDbEntity
  8
0
100
AcDbLine
 10
2.325000485760639
 20
9.999999999999982
 30
0.0
 11
1.325000485760625
 21
9.000000000000092
 31
0.0
  0
LINE
  5
13C
330
1F
100
AcDbEntity
  8
0
100
AcDbLine
 10
1.325000485760625
 20
9.000000000000092
 30
0.0
 11
1.325000485760767
 21
7.600000000000033
 31
0.0
  0
LINE
  5
13D
330
1F
100
AcDbEntity
  8
0
100
AcDbLine
 10
1.325000485760767
 20
7.600000000000033
 30
0.0
 11
0.1750004857607479
 21
7.600000000000033
 31
0.0
  0
LINE
  5
13E
330
1F
100
AcDbEntity
  8
0
100
AcDbLine
 10
0.1750004857607479
 20
7.600000000000033
 30
0.0
 11
0.1750004857608189
 21
9.000000000000163
 31
0.0
  0
LINE
  5
13F
330
1F
100
AcDbEntity
  8
0
100
AcDbLine
 10
0.1750004857608189
 20
9.000000000000163
 30
0.0
 11
-0.824999514239195
 21
9.999999999999982
 31
0.0
  0
LINE
  5
140
330
1F
100
AcDbEntity
  8
0
100
AcDbLine
 10
-0.824999514239195
 20
9.999999999999982
 30
0.0
 11
-2.2249995142392
 21
9.999999999999982
 31
0.0
  0
LINE
  5
141
330
1F
100
AcDbEntity
  8
0
100
AcDbLine
 10
-2.2249995142392
 20
9.999999999999982
 30
0.0
 11
-3.224999514239215
 21
9.000000000000092
 31
0.0
  0
LINE
  5
142
330
1F
100
AcDbEntity
  8
0
100
AcDbLine
 10
-3.224999514239215
 20
9.000000000000092
 30
0.0
 11
-3.224999514239072
 21
7.600000000000033
 31
0.0
  0
LINE
  5
143
330
1F
100
AcDbEntity
  8
0
100
AcDbLine
 10
-3.224999514239072
 20
7.600000000000033
 30
0.0
 11
-4.424999514239048
 21
7.600000000000033
 31
0.0
  0
LINE
  5
144
330
1F
100
AcDbEntity
  8
0
100
AcDbLine
 10
-4.424999514239048
 20
7.600000000000033
 30
0.0
 11
-4.424999514239048
 21
9.000000000000003
 31
0.0
  0
LINE
  5
145
330
1F
100
AcDbEntity
  8
0
100
AcDbLine
 10
-4.424999514239048
 20
9.000000000000003
 30
0.0
 11
-5.424999514239061
 21
9.999999999999982
 31
0.0
  0
LINE
  5
101005B
330
1F
100
AcDbEntity
  8
0
100
AcDbLine
 10
56.87500048575927
 20
9.999999999999982
 30
0.0
 11
58.27500048575927
 21
9.999999999999982
 31
0.0
  0
LINE
  5
101005C
330
1F
100
AcDbEntity
  8
0
100
AcDbLine
 10
58.27500048575927
 20
9.999999999999982
 30
0.0
 11
59.27500048575929
 21
9.000000000000003
 31
0.0
  0
LINE
  5
101005D
330
1F
100
AcDbEntity
  8
0
100
AcDbLine
 10
59.27500048575929
 20
9.000000000000003
 30
0.0
 11
59.27500048575929
 21
7.600000000000033
 31
0.0
  0
LINE
  5
101005E
330
1F
100
AcDbEntity
  8
0
100
AcDbLine
 10
59.27500048575929
 20
7.600000000000033
 30
0.0
 11
60.52500048575929
 21
7.600000000000051
 31
0.0
  0
LINE
  5
101005F
330
1F
100
AcDbEntity
  8
0
100
AcDbLine
 10
60.52500048575929
 20
7.600000000000051
 30
0.0
 11
60.52500048575929
 21
9.000000000000003
 31
0.0
  0
LINE
  5
1010060
330
1F
100
AcDbEntity
  8
0
100
AcDbLine
 10
60.52500048575929
 20
9.000000000000003
 30
0.0
 11
61.52500048575909
 21
9.999999999999982
 31
0.0
  0
LINE
  5
1010061
330
1F
100
AcDbEntity
  8
0
100
AcDbLine
 10
61.52500048575909
 20
9.999999999999982
 30
0.0
 11
62.92500048575909
 21
9.999999999999982
 31
0.0
  0
LINE
  5
1010062
330
1F
100
AcDbEntity
  8
0
100
AcDbLine
 10
62.92500048575909
 20
9.999999999999982
 30
0.0
 11
63.92500048575911
 21
9.000000000000003
 31
0.0
  0
LINE
  5
1010063
330
1F
100
AcDbEntity
  8
0
100
AcDbLine
 10
63.92500048575911
 20
9.000000000000003
 30
0.0
 11
63.92500048575911
 21
7.600000000000051
 31
0.0
  0
LINE
  5
1010064
330
1F
100
AcDbEntity
  8
0
100
AcDbLine
 10
63.92500048575911
 20
7.600000000000051
 30
0.0
 11
65.22500048575913
 21
7.600000000000051
 31
0.0
  0
LINE
  5
1010065
330
1F
100
AcDbEntity
  8
0
100
AcDbLine
 10
65.22500048575913
 20
7.600000000000051
 30
0.0
 11
65.22500048575913
 21
9.000000000000003
 31
0.0
  0
LINE
  5
1010066
330
1F
100
AcDbEntity
  8
0
100
AcDbLine
 10
65.22500048575913
 20
9.000000000000003
 30
0.0
 11
66.22500048575915
 21
10.0
 31
0.0
  0
LINE
  5
1010067
330
1F
100
AcDbEntity
  8
0
100
AcDbLine
 10
66.22500048575915
 20
10.0
 30
0.0
 11
67.62500048575915
 21
10.0
 31
0.0
  0
LINE
  5
1010068
330
1F
100
AcDbEntity
  8
0
100
AcDbLine
 10
67.62500048575915
 20
10.0
 30
0.0
 11
68.62500048575896
 21
9.000000000000003
 31
0.0
  0
LINE
  5
1010069
330
1F
100
AcDbEntity
  8
0
100
AcDbLine
 10
68.62500048575896
 20
9.000000000000003
 30
0.0
 11
68.62500048575896
 21
7.600000000000051
 31
0.0
  0
LINE
  5
101006A
330
1F
100
AcDbEntity
  8
0
100
AcDbLine
 10
68.62500048575896
 20
7.600000000000051
 30
0.0
 11
69.97500048575894
 21
7.600000000000051
 31
0.0
  0
LINE
  5
101006B
330
1F
100
AcDbEntity
  8
0
100
AcDbLine
 10
69.97500048575894
 20
7.600000000000051
 30
0.0
 11
69.97500048575894
 21
9.000000000000003
 31
0.0
  0
LINE
  5
101006C
330
1F
100
AcDbEntity
  8
0
100
AcDbLine
 10
69.97500048575894
 20
9.000000000000003
 30
0.0
 11
70.97500048575895
 21
10.0
 31
0.0
  0
LINE
  5
101006D
330
1F
100
AcDbEntity
  8
0
100
AcDbLine
 10
70.97500048575895
 20
10.0
 30
0.0
 11
72.37500048575896
 21
10.0
 31
0.0
  0
LINE
  5
101006E
330
1F
100
AcDbEntity
  8
0
100
AcDbLine
 10
72.37500048575896
 20
10.0
 30
0.0
 11
73.37500048575876
 21
9.000000000000003
 31
0.0
  0
LINE
  5
101006F
330
1F
100
AcDbEntity
  8
0
100
AcDbLine
 10
73.37500048575876
 20
9.000000000000003
 30
0.0
 11
73.37500048575861
 21
7.600000000000068
 31
0.0
  0
LINE
  5
1010070
330
1F
100
AcDbEntity
  8
0
100
AcDbLine
 10
73.37500048575861
 20
7.600000000000068
 30
0.0
 11
74.77500048575862
 21
7.600000000000068
 31
0.0
  0
LINE
  5
1010071
330
1F
100
AcDbEntity
  8
0
100
AcDbLine
 10
74.77500048575862
 20
7.600000000000068
 30
0.0
 11
74.77500048575862
 21
9.000000000000003
 31
0.0
  0
LINE
  5
1010072
330
1F
100
AcDbEntity
  8
0
100
AcDbLine
 10
74.77500048575862
 20
9.000000000000003
 30
0.0
 11
75.77500048575842
 21
10.0
 31
0.0
  0
LINE
  5
1010073
330
1F
100
AcDbEntity
  8
0
100
AcDbLine
 10
75.77500048575842
 20
10.0
 30
0.0
 11
77.17500048575843
 21
9.999999999999982
 31
0.0
  0
LINE
  5
1010074
330
1F
100
AcDbEntity
  8
0
100
AcDbLine
 10
77.17500048575843
 20
9.999999999999982
 30
0.0
 11
77.17500145728031
 21
-9.999999999999982
 31
0.0
  0
LINE
  5
1010075
330
1F
100
AcDbEntity
  8
0
100
AcDbLine
 10
77.17500145728031
 20
-9.999999999999982
 30
0.0
 11
25.72500048576011
 21
-9.999999999999928
 31
0.0
  0
LINE
  5
1010076
330
1F
100
AcDbEntity
  8
0
100
AcDbLine
 10
25.72500048576011
 20
9.999999999999944
 30
0.0
 11
27.12500048576011
 21
9.999999999999944
 31
0.0
  0
LINE
  5
1010077
330
1F
100
AcDbEntity
  8
0
100
AcDbLine
 10
27.12500048576011
 20
9.999999999999944
 30
0.0
 11
28.12500048576012
 21
9.000000000000003
 31
0.0
  0
LINE
  5
1010078
330
1F
100
AcDbEntity
  8
0
100
AcDbLine
 10
28.12500048576012
 20
9.000000000000003
 30
0.0
 11
28.12500048576012
 21
7.599999999999998
 31
0.0
  0
LINE
  5
1010079
330
1F
100
AcDbEntity
  8
0
100
AcDbLine
 10
28.12500048576012
 20
7.599999999999998
 30
0.0
 11
29.02500048576017
 21
7.599999999999998
 31
0.0
  0
LINE
  5
101007A
330
1F
100
AcDbEntity
  8
0
100
AcDbLine
 10
29.02500048576017
 20
7.599999999999998
 30
0.0
 11
29.02500048576017
 21
9.000000000000003
 31
0.0
  0
LINE
  5
101007B
330
1F
100
AcDbEntity
  8
0
100
AcDbLine
 10
29.02500048576017
 20
9.000000000000003
 30
0.0
 11
30.02500048575996
 21
9.999999999999944
 31
0.0
  0
LINE
  5
101007C
330
1F
100
AcDbEntity
  8
0
100
AcDbLine
 10
30.02500048575996
 20
9.999999999999944
 30
0.0
 11
31.42500048575997
 21
9.999999999999944
 31
0.0
  0
LINE
  5
101007D
330
1F
100
AcDbEntity
  8
0
100
AcDbLine
 10
31.42500048575997
 20
9.999999999999944
 30
0.0
 11
32.42500048575998
 21
9.000000000000003
 31
0.0
  0
LINE
  5
101007E
330
1F
100
AcDbEntity
  8
0
100
AcDbLine
 10
32.42500048575998
 20
9.000000000000003
 30
0.0
 11
32.42500048575998
 21
7.599999999999998
 31
0.0
  0
LINE
  5
101007F
330
1F
100
AcDbEntity
  8
0
100
AcDbLine
 10
32.42500048575998
 20
7.599999999999998
 30
0.0
 11
33.37500048575997
 21
7.599999999999998
 31
0.0
  0
LINE
  5
1010080
330
1F
100
AcDbEntity
  8
0
100
AcDbLine
 10
33.37500048575997
 20
7.599999999999998
 30
0.0
 11
33.3750004857599
 21
9.000000000000163
 31
0.0
  0
LINE
  5
1010081
330
1F
100
AcDbEntity
  8
0
100
AcDbLine
 10
33.3750004857599
 20
9.000000000000163
 30
0.0
 11
34.37500048575991
 21
9.999999999999964
 31
0.0
  0
LINE
  5
1010082
330
1F
100
AcDbEntity
  8
0
100
AcDbLine
 10
34.37500048575991
 20
9.999999999999964
 30
0.0
 11
35.77500048575992
 21
9.999999999999964
 31
0.0
  0
LINE
  5
1010083
330
1F
100
AcDbEntity
  8
0
100
AcDbLine
 10
35.77500048575992
 20
9.999999999999964
 30
0.0
 11
36.77500048575993
 21
9.000000000000216
 31
0.0
  0
LINE
  5
1010084
330
1F
100
AcDbEntity
  8
0
100
AcDbLine
 10
36.77500048575993
 20
9.000000000000216
 30
0.0
 11
36.77500048575979
 21
7.599999999999998
 31
0.0
  0
LINE
  5
1010085
330
1F
100
AcDbEntity
  8
0
100
AcDbLine
 10
36.77500048575979
 20
7.599999999999998
 30
0.0
 11
37.7750004857598
 21
7.599999999999998
 31
0.0
  0
LINE
  5
1010086
330
1F
100
AcDbEntity
  8
0
100
AcDbLine
 10
37.7750004857598
 20
7.599999999999998
 30
0.0
 11
37.7750004857598
 21
9.000000000000003
 31
0.0
  0
LINE
  5
1010087
330
1F
100
AcDbEntity
  8
0
100
AcDbLine
 10
37.7750004857598
 20
9.000000000000003
 30
0.0
 11
38.77500048575982
 21
9.999999999999964
 31
0.0
  0
LINE
  5
1010088
330
1F
100
AcDbEntity
  8
0
100
AcDbLine
 10
38.77500048575982
 20
9.999999999999964
 30
0.0
 11
40.17500048575982
 21
9.999999999999964
 31
0.0
  0
LINE
  5
1010089
330
1F
100
AcDbEntity
  8
0
100
AcDbLine
 10
40.17500048575982
 20
9.999999999999964
 30
0.0
 11
41.17500048575983
 21
9.000000000000003
 31
0.0
  0
LINE
  5
101008A
330
1F
100
AcDbEntity
  8
0
100
AcDbLine
 10
41.17500048575983
 20
9.000000000000003
 30
0.0
 11
41.17500048575983
 21
7.600000000000014
 31
0.0
  0
LINE
  5
101008B
330
1F
100
AcDbEntity
  8
0
100
AcDbLine
 10
41.17500048575983
 20
7.600000000000014
 30
0.0
 11
42.2250004857598
 21
7.600000000000014
 31
0.0
  0
LINE
  5
101008C
330
1F
100
AcDbEntity
  8
0
100
AcDbLine
 10
42.2250004857598
 20
7.600000000000014
 30
0.0
 11
42.22500048575952
 21
9.000000000000234
 31
0.0
  0
LINE
  5
101008D
330
1F
100
AcDbEntity
  8
0
100
AcDbLine
 10
42.22500048575952
 20
9.000000000000234
 30
0.0
 11
43.22500048575953
 21
9.999999999999964
 31
0.0
  0
LINE
  5
101008E
330
1F
100
AcDbEntity
  8
0
100
AcDbLine
 10
43.22500048575953
 20
9.999999999999964
 30
0.0
 11
44.62500048575954
 21
9.999999999999964
 31
0.0
  0
LINE
  5
101008F
330
1F
100
AcDbEntity
  8
0
100
AcDbLine
 10
44.62500048575954
 20
9.999999999999964
 30
0.0
 11
45.62500048575955
 21
9.000000000000003
 31
0.0
  0
LINE
  5
1010090
330
1F
100
AcDbEntity
  8
0
100
AcDbLine
 10
45.62500048575955
 20
9.000000000000003
 30
0.0
 11
45.62500048575962
 21
7.600000000000014
 31
0.0
  0
LINE
  5
1010091
330
1F
100
AcDbEntity
  8
0
100
AcDbLine
 10
45.62500048575962
 20
7.600000000000014
 30
0.0
 11
46.72500048575962
 21
7.600000000000014
 31
0.0
  0
LINE
  5
1010092
330
1F
100
AcDbEntity
  8
0
100
AcDbLine
 10
46.72500048575962
 20
7.600000000000014
 30
0.0
 11
46.72500048575955
 21
9.000000000000039
 31
0.0
  0
LINE
  5
1010093
330
1F
100
AcDbEntity
  8
0
100
AcDbLine
 10
46.72500048575955
 20
9.000000000000039
 30
0.0
 11
47.72500048575956
 21
9.999999999999964
 31
0.0
  0
LINE
  5
1010094
330
1F
100
AcDbEntity
  8
0
100
AcDbLine
 10
47.72500048575956
 20
9.999999999999964
 30
0.0
 11
49.12500048575957
 21
9.999999999999982
 31
0.0
  0
LINE
  5
1010095
330
1F
100
AcDbEntity
  8
0
100
AcDbLine
 10
49.12500048575957
 20
9.999999999999982
 30
0.0
 11
50.12500048575958
 21
9.000000000000092
 31
0.0
  0
LINE
  5
1010096
330
1F
100
AcDbEntity
  8
0
100
AcDbLine
 10
50.12500048575958
 20
9.000000000000092
 30
0.0
 11
50.12500048575944
 21
7.600000000000033
 31
0.0
  0
LINE
  5
1010097
330
1F
100
AcDbEntity
  8
0
100
AcDbLine
 10
50.12500048575944
 20
7.600000000000033
 30
0.0
 11
51.27500048575946
 21
7.600000000000033
 31
0.0
  0
LINE
  5
1010098
330
1F
100
AcDbEntity
  8
0
100
AcDbLine
 10
51.27500048575946
 20
7.600000000000033
 30
0.0
 11
51.27500048575939
 21
9.000000000000163
 31
0.0
  0
LINE
  5
1010099
330
1F
100
AcDbEntity
  8
0
100
AcDbLine
 10
51.27500048575939
 20
9.000000000000163
 30
0.0
 11
52.2750004857594
 21
9.999999999999982
 31
0.0
  0
LINE
  5
101009A
330
1F
100
AcDbEntity
  8
0
100
AcDbLine
 10
52.2750004857594
 20
9.999999999999982
 30
0.0
 11
53.67500048575941
 21
9.999999999999982
 31
0.0
  0
LINE
  5
101009B
330
1F
100
AcDbEntity
  8
0
100
AcDbLine
 10
53.67500048575941
 20
9.999999999999982
 30
0.0
 11
54.67500048575942
 21
9.000000000000092
 31
0.0
  0
LINE
  5
101009C
330
1F
100
AcDbEntity
  8
0
100
AcDbLine
 10
54.67500048575942
 20
9.000000000000092
 30
0.0
 11
54.67500048575928
 21
7.600000000000033
 31
0.0
  0
LINE
  5
101009D
330
1F
100
AcDbEntity
  8
0
100
AcDbLine
 10
54.67500048575928
 20
7.600000000000033
 30
0.0
 11
55.87500048575925
 21
7.600000000000033
 31
0.0
  0
LINE
  5
101009E
330
1F
100
AcDbEntity
  8
0
100
AcDbLine
 10
55.87500048575925
 20
7.600000000000033
 30
0.0
 11
55.87500048575925
 21
9.000000000000003
 31
0.0
  0
LINE
  5
101009F
330
1F
100
AcDbEntity
  8
0
100
AcDbLine
 10
55.87500048575925
 20
9.000000000000003
 30
0.0
 11
56.87500048575927
 21
9.999999999999982
 31
0.0
  0
LINE
  5
10100EA
330
1F
100
AcDbEntity
  8
0
100
AcDbLine
 10
28.22500048575965
 20
45.99999999999998
 30
0.0
 11
25.52500048575962
 21
45.99999999999998
 31
0.0
  0
LINE
  5
10100EB
330
1F
100
AcDbEntity
  8
0
100
AcDbLine
 10
25.52500048575962
 20
45.99999999999998
 30
0.0
 11
25.52500048575976
 21
49.0
 31
0.0
  0
LINE
  5
10100EC
330
1F
100
AcDbEntity
  8
0
100
AcDbLine
 10
25.52500048575976
 20
49.0
 30
0.0
 11
24.52500048575975
 21
49.99999999999996
 31
0.0
  0
LINE
  5
10100ED
330
1F
100
AcDbEntity
  8
0
100
AcDbLine
 10
24.52500048575975
 20
49.99999999999996
 30
0.0
 11
21.52500048575978
 21
49.99999999999996
 31
0.0
  0
LINE
  5
10100EE
330
1F
100
AcDbEntity
  8
0
100
AcDbLine
 10
21.52500048575978
 20
49.99999999999996
 30
0.0
 11
20.52500048575976
 21
49.00000000000007
 31
0.0
  0
LINE
  5
10100EF
330
1F
100
AcDbEntity
  8
0
100
AcDbLine
 10
20.52500048575976
 20
49.00000000000007
 30
0.0
 11
20.52500048576005
 21
46.00000000000001
 31
0.0
  0
LINE
  5
10100F0
330
1F
100
AcDbEntity
  8
0
100
AcDbLine
 10
20.52500048576005
 20
46.00000000000001
 30
0.0
 11
17.77500048576006
 21
46.00000000000001
 31
0.0
  0
LINE
  5
10100F1
330
1F
100
AcDbEntity
  8
0
100
AcDbLine
 10
17.77500048576006
 20
46.00000000000001
 30
0.0
 11
17.7750004857602
 21
49.00000000000021
 31
0.0
  0
LINE
  5
10100F2
330
1F
100
AcDbEntity
  8
0
100
AcDbLine
 10
17.7750004857602
 20
49.00000000000021
 30
0.0
 11
16.77500048576019
 21
49.99999999999997
 31
0.0
  0
LINE
  5
10100F3
330
1F
100
AcDbEntity
  8
0
100
AcDbLine
 10
16.77500048576019
 20
49.99999999999997
 30
0.0
 11
13.77500048576022
 21
49.99999999999997
 31
0.0
  0
LINE
  5
10100F4
330
1F
100
AcDbEntity
  8
0
100
AcDbLine
 10
13.77500048576022
 20
49.99999999999997
 30
0.0
 11
12.7750004857602
 21
49.0000000000001
 31
0.0
  0
LINE
  5
10100F5
330
1F
100
AcDbEntity
  8
0
100
AcDbLine
 10
12.7750004857602
 20
49.0000000000001
 30
0.0
 11
12.77500048576049
 21
46.00000000000003
 31
0.0
  0
LINE
  5
10100F6
330
1F
100
AcDbEntity
  8
0
100
AcDbLine
 10
12.77500048576049
 20
46.00000000000003
 30
0.0
 11
9.975000485760475
 21
46.00000000000003
 31
0.0
  0
LINE
  5
10100F7
330
1F
100
AcDbEntity
  8
0
100
AcDbLine
 10
9.975000485760475
 20
46.00000000000003
 30
0.0
 11
9.975000485760475
 21
49.00000000000002
 31
0.0
  0
LINE
  5
10100F8
330
1F
100
AcDbEntity
  8
0
100
AcDbLine
 10
9.975000485760475
 20
49.00000000000002
 30
0.0
 11
8.975000485760462
 21
49.99999999999997
 31
0.0
  0
LINE
  5
10100F9
330
1F
100
AcDbEntity
  8
0
100
AcDbLine
 10
8.975000485760462
 20
49.99999999999997
 30
0.0
 11
5.975000485760487
 21
49.99999999999997
 31
0.0
  0
LINE
  5
10100FA
330
1F
100
AcDbEntity
  8
0
100
AcDbLine
 10
5.975000485760487
 20
49.99999999999997
 30
0.0
 11
4.975000485760476
 21
49.00000000000002
 31
0.0
  0
LINE
  5
10100FB
330
1F
100
AcDbEntity
  8
0
100
AcDbLine
 10
4.975000485760476
 20
49.00000000000002
 30
0.0
 11
4.975000485760476
 21
46.00000000000003
 31
0.0
  0
LINE
  5
10100FC
330
1F
100
AcDbEntity
  8
0
100
AcDbLine
 10
4.975000485760476
 20
46.00000000000003
 30
0.0
 11
2.125000485760509
 21
46.00000000000004
 31
0.0
  0
LINE
  5
10100FD
330
1F
100
AcDbEntity
  8
0
100
AcDbLine
 10
2.125000485760509
 20
46.00000000000004
 30
0.0
 11
2.125000485760509
 21
49.00000000000002
 31
0.0
  0
LINE
  5
10100FE
330
1F
100
AcDbEntity
  8
0
100
AcDbLine
 10
2.125000485760509
 20
49.00000000000002
 30
0.0
 11
1.125000485760708
 21
50.0
 31
0.0
  0
LINE
  5
10100FF
330
1F
100
AcDbEntity
  8
0
100
AcDbLine
 10
1.125000485760708
 20
50.0
 30
0.0
 11
-1.874999514239263
 21
50.0
 31
0.0
  0
LINE
  5
1010100
330
1F
100
AcDbEntity
  8
0
100
AcDbLine
 10
-1.874999514239263
 20
50.0
 30
0.0
 11
-2.874999514239281
 21
49.00000000000002
 31
0.0
  0
LINE
  5
1010101
330
1F
100
AcDbEntity
  8
0
100
AcDbLine
 10
-2.874999514239281
 20
49.00000000000002
 30
0.0
 11
-2.874999514239281
 21
46.00000000000004
 31
0.0
  0
LINE
  5
1010102
330
1F
100
AcDbEntity
  8
0
100
AcDbLine
 10
-2.874999514239281
 20
46.00000000000004
 30
0.0
 11
-5.774999514239272
 21
46.00000000000004
 31
0.0
  0
LINE
  5
1010103
330
1F
100
AcDbEntity
  8
0
100
AcDbLine
 10
-5.774999514239272
 20
46.00000000000004
 30
0.0
 11
-5.774999514239272
 21
49.00000000000002
 31
0.0
  0
LINE
  5
1010104
330
1F
100
AcDbEntity
  8
0
100
AcDbLine
 10
-5.774999514239272
 20
49.00000000000002
 30
0.0
 11
-6.77499951423929
 21
50.0
 31
0.0
  0
LINE
  5
1010105
330
1F
100
AcDbEntity
  8
0
100
AcDbLine
 10
-6.77499951423929
 20
50.0
 30
0.0
 11
-9.774999514239258
 21
50.0
 31
0.0
  0
LINE
  5
1010106
330
1F
100
AcDbEntity
  8
0
100
AcDbLine
 10
-9.774999514239258
 20
50.0
 30
0.0
 11
-10.77499951423898
 21
49.00000000000002
 31
0.0
  0
LINE
  5
1010107
330
1F
100
AcDbEntity
  8
0
100
AcDbLine
 10
-10.77499951423898
 20
49.00000000000002
 30
0.0
 11
-10.77499951423898
 21
46.00000000000005
 31
0.0
  0
LINE
  5
1010108
330
1F
100
AcDbEntity
  8
0
100
AcDbLine
 10
-10.77499951423898
 20
46.00000000000005
 30
0.0
 11
-13.724999514239
 21
46.00000000000005
 31
0.0
  0
LINE
  5
1010109
330
1F
100
AcDbEntity
  8
0
100
AcDbLine
 10
-13.724999514239
 20
46.00000000000005
 30
0.0
 11
-13.724999514239
 21
49.00000000000002
 31
0.0
  0
LINE
  5
101010A
330
1F
100
AcDbEntity
  8
0
100
AcDbLine
 10
-13.724999514239
 20
49.00000000000002
 30
0.0
 11
-14.72499951423901
 21
50.00000000000001
 31
0.0
  0
LINE
  5
101010B
330
1F
100
AcDbEntity
  8
0
100
AcDbLine
 10
-14.72499951423901
 20
50.00000000000001
 30
0.0
 11
-17.72499951423899
 21
50.00000000000001
 31
0.0
  0
LINE
  5
101010C
330
1F
100
AcDbEntity
  8
0
100
AcDbLine
 10
-17.72499951423899
 20
50.00000000000001
 30
0.0
 11
-18.72499951423878
 21
49.00000000000002
 31
0.0
  0
LINE
  5
101010D
330
1F
100
AcDbEntity
  8
0
100
AcDbLine
 10
-18.72499951423878
 20
49.00000000000002
 30
0.0
 11
-18.7249995142385
 21
46.00000000000005
 31
0.0
  0
LINE
  5
101010E
330
1F
100
AcDbEntity
  8
0
100
AcDbLine
 10
-18.7249995142385
 20
46.00000000000005
 30
0.0
 11
-21.72499951423847
 21
46.00000000000008
 31
0.0
  0
LINE
  5
101010F
330
1F
100
AcDbEntity
  8
0
100
AcDbLine
 10
-21.72499951423847
 20
46.00000000000008
 30
0.0
 11
-21.72499951423847
 21
49.00000000000002
 31
0.0
  0
LINE
  5
1010110
330
1F
100
AcDbEntity
  8
0
100
AcDbLine
 10
-21.72499951423847
 20
49.00000000000002
 30
0.0
 11
-22.72499951423828
 21
50.00000000000001
 31
0.0
  0
LINE
  5
1010111
330
1F
100
AcDbEntity
  8
0
100
AcDbLine
 10
-22.72499951423828
 20
50.00000000000001
 30
0.0
 11
-25.72499951423824
 21
50.00000000000001
 31
0.0
  0
LINE
  5
1010112
330
1F
100
AcDbEntity
  8
0
100
AcDbLine
 10
-25.72499951423824
 20
50.00000000000001
 30
0.0
 11
-25.72500048576014
 21
30.00000000000001
 31
0.0
  0
LINE
  5
1010113
330
1F
100
AcDbEntity
  8
0
100
AcDbLine
 10
-25.72500048576014
 20
30.00000000000001
 30
0.0
 11
62.52500048575852
 21
30.00000000000008
 31
0.0
  0
LINE
  5
1010114
330
1F
100
AcDbEntity
  8
0
100
AcDbLine
 10
62.52500048575852
 20
30.00000000000008
 30
0.0
 11
62.52500048575852
 21
49.99999999999992
 31
0.0
  0
LINE
  5
1010115
330
1F
100
AcDbEntity
  8
0
100
AcDbLine
 10
62.52500048575852
 20
49.99999999999992
 30
0.0
 11
59.52500048575853
 21
49.99999999999992
 31
0.0
  0
LINE
  5
1010116
330
1F
100
AcDbEntity
  8
0
100
AcDbLine
 10
59.52500048575853
 20
49.99999999999992
 30
0.0
 11
58.52500048575851
 21
49.00000000000002
 31
0.0
  0
LINE
  5
1010117
330
1F
100
AcDbEntity
  8
0
100
AcDbLine
 10
58.52500048575851
 20
49.00000000000002
 30
0.0
 11
58.52500048575851
 21
45.99999999999993
 31
0.0
  0
LINE
  5
1010118
330
1F
100
AcDbEntity
  8
0
100
AcDbLine
 10
58.52500048575851
 20
45.99999999999993
 30
0.0
 11
56.02500048575851
 21
45.99999999999993
 31
0.0
  0
LINE
  5
1010119
330
1F
100
AcDbEntity
  8
0
100
AcDbLine
 10
56.02500048575851
 20
45.99999999999993
 30
0.0
 11
56.02500048575851
 21
49.00000000000002
 31
0.0
  0
LINE
  5
101011A
330
1F
100
AcDbEntity
  8
0
100
AcDbLine
 10
56.02500048575851
 20
49.00000000000002
 30
0.0
 11
55.02500048575886
 21
49.99999999999992
 31
0.0
  0
LINE
  5
101011B
330
1F
100
AcDbEntity
  8
0
100
AcDbLine
 10
55.02500048575886
 20
49.99999999999992
 30
0.0
 11
52.02500048575889
 21
49.99999999999994
 31
0.0
  0
LINE
  5
101011C
330
1F
100
AcDbEntity
  8
0
100
AcDbLine
 10
52.02500048575889
 20
49.99999999999994
 30
0.0
 11
51.02500048575888
 21
49.00000000000002
 31
0.0
  0
LINE
  5
101011D
330
1F
100
AcDbEntity
  8
0
100
AcDbLine
 10
51.02500048575888
 20
49.00000000000002
 30
0.0
 11
51.02500048575888
 21
45.99999999999996
 31
0.0
  0
LINE
  5
101011E
330
1F
100
AcDbEntity
  8
0
100
AcDbLine
 10
51.02500048575888
 20
45.99999999999996
 30
0.0
 11
48.47500048575885
 21
45.99999999999996
 31
0.0
  0
LINE
  5
101011F
330
1F
100
AcDbEntity
  8
0
100
AcDbLine
 10
48.47500048575885
 20
45.99999999999996
 30
0.0
 11
48.47500048575899
 21
49.00000000000019
 31
0.0
  0
LINE
  5
1010120
330
1F
100
AcDbEntity
  8
0
100
AcDbLine
 10
48.47500048575899
 20
49.00000000000019
 30
0.0
 11
47.47500048575898
 21
49.99999999999994
 31
0.0
  0
LINE
  5
1010121
330
1F
100
AcDbEntity
  8
0
100
AcDbLine
 10
47.47500048575898
 20
49.99999999999994
 30
0.0
 11
44.47500048575901
 21
49.99999999999994
 31
0.0
  0
LINE
  5
1010122
330
1F
100
AcDbEntity
  8
0
100
AcDbLine
 10
44.47500048575901
 20
49.99999999999994
 30
0.0
 11
43.47500048575899
 21
49.00000000000034
 31
0.0
  0
LINE
  5
1010123
330
1F
100
AcDbEntity
  8
0
100
AcDbLine
 10
43.47500048575899
 20
49.00000000000034
 30
0.0
 11
43.47500048575928
 21
45.99999999999996
 31
0.0
  0
LINE
  5
1010124
330
1F
100
AcDbEntity
  8
0
100
AcDbLine
 10
43.47500048575928
 20
45.99999999999996
 30
0.0
 11
40.8750004857593
 21
45.99999999999996
 31
0.0
  0
LINE
  5
1010125
330
1F
100
AcDbEntity
  8
0
100
AcDbLine
 10
40.8750004857593
 20
45.99999999999996
 30
0.0
 11
40.8750004857593
 21
49.00000000000002
 31
0.0
  0
LINE
  5
1010126
330
1F
100
AcDbEntity
  8
0
100
AcDbLine
 10
40.8750004857593
 20
49.00000000000002
 30
0.0
 11
39.87500048575929
 21
49.99999999999994
 31
0.0
  0
LINE
  5
1010127
330
1F
100
AcDbEntity
  8
0
100
AcDbLine
 10
39.87500048575929
 20
49.99999999999994
 30
0.0
 11
36.87500048575932
 21
49.99999999999996
 31
0.0
  0
LINE
  5
1010128
330
1F
100
AcDbEntity
  8
0
100
AcDbLine
 10
36.87500048575932
 20
49.99999999999996
 30
0.0
 11
35.8750004857593
 21
49.00000000000002
 31
0.0
  0
LINE
  5
1010129
330
1F
100
AcDbEntity
  8
0
100
AcDbLine
 10
35.8750004857593
 20
49.00000000000002
 30
0.0
 11
35.8750004857593
 21
45.99999999999996
 31
0.0
  0
LINE
  5
101012A
330
1F
100
AcDbEntity
  8
0
100
AcDbLine
 10
35.8750004857593
 20
45.99999999999996
 30
0.0
 11
33.2250004857593
 21
45.99999999999998
 31
0.0
  0
LINE
  5
101012B
330
1F
100
AcDbEntity
  8
0
100
AcDbLine
 10
33.2250004857593
 20
45.99999999999998
 30
0.0
 11
33.22500048575994
 21
49.00000000000019
 31
0.0
  0
LINE
  5
101012C
330
1F
100
AcDbEntity
  8
0
100
AcDbLine
 10
33.22500048575994
 20
49.00000000000019
 30
0.0
 11
32.22500048575992
 21
49.99999999999996
 31
0.0
  0
LINE
  5
101012D
330
1F
100
AcDbEntity
  8
0
100
AcDbLine
 10
32.22500048575992
 20
49.99999999999996
 30
0.0
 11
29.22500048575995
 21
49.99999999999996
 31
0.0
  0
LINE
  5
101012E
330
1F
100
AcDbEntity
  8
0
100
AcDbLine
 10
29.22500048575995
 20
49.99999999999996
 30
0.0
 11
28.22500048575994
 21
49.00000000000002
 31
0.0
  0
LINE
  5
101012F
330
1F
100
AcDbEntity
  8
0
100
AcDbLine
 10
28.22500048575994
 20
49.00000000000002
 30
0.0
 11
28.22500048575965
 21
45.99999999999998
 31
0.0
  0
LINE
  5
1010132
330
1F
100
AcDbEntity
  8
0
100
AcDbLine
 10
96.82500048575739
 20
45.99999999999998
 30
0.0
 11
99.52500048575743
 21
45.99999999999998
 31
0.0
  0
LINE
  5
1010133
330
1F
100
AcDbEntity
  8
0
100
AcDbLine
 10
99.52500048575743
 20
45.99999999999998
 30
0.0
 11
99.52500048575728
 21
49.0
 31
0.0
  0
LINE
  5
1010134
330
1F
100
AcDbEntity
  8
0
100
AcDbLine
 10
99.52500048575728
 20
49.0
 30
0.0
 11
100.5250004857573
 21
49.99999999999996
 31
0.0
  0
LINE
  5
1010135
330
1F
100
AcDbEntity
  8
0
100
AcDbLine
 10
100.5250004857573
 20
49.99999999999996
 30
0.0
 11
103.5250004857572
 21
49.99999999999996
 31
0.0
  0
LINE
  5
1010136
330
1F
100
AcDbEntity
  8
0
100
AcDbLine
 10
103.5250004857572
 20
49.99999999999996
 30
0.0
 11
104.5250004857573
 21
49.00000000000007
 31
0.0
  0
LINE
  5
1010137
330
1F
100
AcDbEntity
  8
0
100
AcDbLine
 10
104.5250004857573
 20
49.00000000000007
 30
0.0
 11
104.525000485757
 21
46.00000000000001
 31
0.0
  0
LINE
  5
1010138
330
1F
100
AcDbEntity
  8
0
100
AcDbLine
 10
104.525000485757
 20
46.00000000000001
 30
0.0
 11
107.2750004857569
 21
46.00000000000001
 31
0.0
  0
LINE
  5
1010139
330
1F
100
AcDbEntity
  8
0
100
AcDbLine
 10
107.2750004857569
 20
46.00000000000001
 30
0.0
 11
107.2750004857568
 21
49.00000000000021
 31
0.0
  0
LINE
  5
101013A
330
1F
100
AcDbEntity
  8
0
100
AcDbLine
 10
107.2750004857568
 20
49.00000000000021
 30
0.0
 11
108.2750004857568
 21
49.99999999999997
 31
0.0
  0
LINE
  5
101013B
330
1F
100
AcDbEntity
  8
0
100
AcDbLine
 10
108.2750004857568
 20
49.99999999999997
 30
0.0
 11
111.2750004857568
 21
49.99999999999997
 31
0.0
  0
LINE
  5
101013C
330
1F
100
AcDbEntity
  8
0
100
AcDbLine
 10
111.2750004857568
 20
49.99999999999997
 30
0.0
 11
112.2750004857568
 21
49.0000000000001
 31
0.0
  0
LINE
  5
101013D
330
1F
100
AcDbEntity
  8
0
100
AcDbLine
 10
112.2750004857568
 20
49.0000000000001
 30
0.0
 11
112.2750004857565
 21
46.00000000000003
 31
0.0
  0
LINE
  5
101013E
330
1F
100
AcDbEntity
  8
0
100
AcDbLine
 10
112.2750004857565
 20
46.00000000000003
 30
0.0
 11
115.0750004857565
 21
46.00000000000003
 31
0.0
  0
LINE
  5
101013F
330
1F
100
AcDbEntity
  8
0
100
AcDbLine
 10
115.0750004857565
 20
46.00000000000003
 30
0.0
 11
115.0750004857565
 21
49.00000000000002
 31
0.0
  0
LINE
  5
1010140
330
1F
100
AcDbEntity
  8
0
100
AcDbLine
 10
115.0750004857565
 20
49.00000000000002
 30
0.0
 11
116.0750004857566
 21
49.99999999999997
 31
0.0
  0
LINE
  5
1010141
330
1F
100
AcDbEntity
  8
0
100
AcDbLine
 10
116.0750004857566
 20
49.99999999999997
 30
0.0
 11
119.0750004857565
 21
49.99999999999997
 31
0.0
  0
LINE
  5
1010142
330
1F
100
AcDbEntity
  8
0
100
AcDbLine
 10
119.0750004857565
 20
49.99999999999997
 30
0.0
 11
120.0750004857565
 21
49.00000000000002
 31
0.0
  0
LINE
  5
1010143
330
1F
100
AcDbEntity
  8
0
100
AcDbLine
 10
120.0750004857565
 20
49.00000000000002
 30
0.0
 11
120.0750004857565
 21
46.00000000000003
 31
0.0
  0
LINE
  5
1010144
330
1F
100
AcDbEntity
  8
0
100
AcDbLine
 10
120.0750004857565
 20
46.00000000000003
 30
0.0
 11
122.9250004857565
 21
46.00000000000004
 31
0.0
  0
LINE
  5
1010145
330
1F
100
AcDbEntity
  8
0
100
AcDbLine
 10
122.9250004857565
 20
46.00000000000004
 30
0.0
 11
122.9250004857565
 21
49.00000000000002
 31
0.0
  0
LINE
  5
1010146
330
1F
100
AcDbEntity
  8
0
100
AcDbLine
 10
122.9250004857565
 20
49.00000000000002
 30
0.0
 11
123.9250004857563
 21
50.0
 31
0.0
  0
LINE
  5
1010147
330
1F
100
AcDbEntity
  8
0
100
AcDbLine
 10
123.9250004857563
 20
50.0
 30
0.0
 11
126.9250004857563
 21
50.0
 31
0.0
  0
LINE
  5
1010148
330
1F
100
AcDbEntity
  8
0
100
AcDbLine
 10
126.9250004857563
 20
50.0
 30
0.0
 11
127.9250004857563
 21
49.00000000000002
 31
0.0
  0
LINE
  5
1010149
330
1F
100
AcDbEntity
  8
0
100
AcDbLine
 10
127.9250004857563
 20
49.00000000000002
 30
0.0
 11
127.9250004857563
 21
46.00000000000004
 31
0.0
  0
LINE
  5
101014A
330
1F
100
AcDbEntity
  8
0
100
AcDbLine
 10
127.9250004857563
 20
46.00000000000004
 30
0.0
 11
130.8250004857563
 21
46.00000000000004
 31
0.0
  0
LINE
  5
101014B
330
1F
100
AcDbEntity
  8
0
100
AcDbLine
 10
130.8250004857563
 20
46.00000000000004
 30
0.0
 11
130.8250004857563
 21
49.00000000000002
 31
0.0
  0
LINE
  5
101014C
330
1F
100
AcDbEntity
  8
0
100
AcDbLine
 10
130.8250004857563
 20
49.00000000000002
 30
0.0
 11
131.8250004857563
 21
50.0
 31
0.0
  0
LINE
  5
101014D
330
1F
100
AcDbEntity
  8
0
100
AcDbLine
 10
131.8250004857563
 20
50.0
 30
0.0
 11
134.8250004857563
 21
50.0
 31
0.0
  0
LINE
  5
101014E
330
1F
100
AcDbEntity
  8
0
100
AcDbLine
 10
134.8250004857563
 20
50.0
 30
0.0
 11
135.825000485756
 21
49.00000000000002
 31
0.0
  0
LINE
  5
101014F
330
1F
100
AcDbEntity
  8
0
100
AcDbLine
 10
135.825000485756
 20
49.00000000000002
 30
0.0
 11
135.825000485756
 21
46.00000000000005
 31
0.0
  0
LINE
  5
1010150
330
1F
100
AcDbEntity
  8
0
100
AcDbLine
 10
135.825000485756
 20
46.00000000000005
 30
0.0
 11
138.775000485756
 21
46.00000000000005
 31
0.0
  0
LINE
  5
1010151
330
1F
100
AcDbEntity
  8
0
100
AcDbLine
 10
138.775000485756
 20
46.00000000000005
 30
0.0
 11
138.775000485756
 21
49.00000000000002
 31
0.0
  0
LINE
  5
1010152
330
1F
100
AcDbEntity
  8
0
100
AcDbLine
 10
138.775000485756
 20
49.00000000000002
 30
0.0
 11
139.775000485756
 21
50.00000000000001
 31
0.0
  0
LINE
  5
1010153
330
1F
100
AcDbEntity
  8
0
100
AcDbLine
 10
139.775000485756
 20
50.00000000000001
 30
0.0
 11
142.775000485756
 21
50.00000000000001
 31
0.0
  0
LINE
  5
1010154
330
1F
100
AcDbEntity
  8
0
100
AcDbLine
 10
142.775000485756
 20
50.00000000000001
 30
0.0
 11
143.7750004857558
 21
49.00000000000002
 31
0.0
  0
LINE
  5
1010155
330
1F
100
AcDbEntity
  8
0
100
AcDbLine
 10
143.7750004857558
 20
49.00000000000002
 30
0.0
 11
143.7750004857555
 21
46.00000000000005
 31
0.0
  0
LINE
  5
1010156
330
1F
100
AcDbEntity
  8
0
100
AcDbLine
 10
143.7750004857555
 20
46.00000000000005
 30
0.0
 11
146.7750004857555
 21
46.00000000000008
 31
0.0
  0
LINE
  5
1010157
330
1F
100
AcDbEntity
  8
0
100
AcDbLine
 10
146.7750004857555
 20
46.00000000000008
 30
0.0
 11
146.7750004857555
 21
49.00000000000002
 31
0.0
  0
LINE
  5
1010158
330
1F
100
AcDbEntity
  8
0
100
AcDbLine
 10
146.7750004857555
 20
49.00000000000002
 30
0.0
 11
147.7750004857553
 21
50.00000000000001
 31
0.0
  0
LINE
  5
1010159
330
1F
100
AcDbEntity
  8
0
100
AcDbLine
 10
147.7750004857553
 20
50.00000000000001
 30
0.0
 11
150.7750004857552
 21
50.00000000000001
 31
0.0
  0
LINE
  5
101015A
330
1F
100
AcDbEntity
  8
0
100
AcDbLine
 10
150.7750004857552
 20
50.00000000000001
 30
0.0
 11
150.7750014572772
 21
30.00000000000001
 31
0.0
  0
LINE
  5
101015B
330
1F
100
AcDbEntity
  8
0
100
AcDbLine
 10
150.7750014572772
 20
30.00000000000001
 30
0.0
 11
62.52500048575852
 21
30.00000000000008
 31
0.0
  0
LINE
  5
101015C
330
1F
100
AcDbEntity
  8
0
100
AcDbLine
 10
62.52500048575852
 20
49.99999999999992
 30
0.0
 11
65.52500048575851
 21
49.99999999999992
 31
0.0
  0
LINE
  5
101015D
330
1F
100
AcDbEntity
  8
0
100
AcDbLine
 10
65.52500048575851
 20
49.99999999999992
 30
0.0
 11
66.52500048575851
 21
49.00000000000002
 31
0.0
  0
LINE
  5
101015E
330
1F
100
AcDbEntity
  8
0
100
AcDbLine
 10
66.52500048575851
 20
49.00000000000002
 30
0.0
 11
66.52500048575851
 21
45.99999999999993
 31
0.0
  0
LINE
  5
101015F
330
1F
100
AcDbEntity
  8
0
100
AcDbLine
 10
66.52500048575851
 20
45.99999999999993
 30
0.0
 11
69.02500048575851
 21
45.99999999999993
 31
0.0
  0
LINE
  5
1010160
330
1F
100
AcDbEntity
  8
0
100
AcDbLine
 10
69.02500048575851
 20
45.99999999999993
 30
0.0
 11
69.02500048575851
 21
49.00000000000002
 31
0.0
  0
LINE
  5
1010161
330
1F
100
AcDbEntity
  8
0
100
AcDbLine
 10
69.02500048575851
 20
49.00000000000002
 30
0.0
 11
70.02500048575817
 21
49.99999999999992
 31
0.0
  0
LINE
  5
1010162
330
1F
100
AcDbEntity
  8
0
100
AcDbLine
 10
70.02500048575817
 20
49.99999999999992
 30
0.0
 11
73.02500048575814
 21
49.99999999999994
 31
0.0
  0
LINE
  5
1010163
330
1F
100
AcDbEntity
  8
0
100
AcDbLine
 10
73.02500048575814
 20
49.99999999999994
 30
0.0
 11
74.02500048575817
 21
49.00000000000002
 31
0.0
  0
LINE
  5
1010164
330
1F
100
AcDbEntity
  8
0
100
AcDbLine
 10
74.02500048575817
 20
49.00000000000002
 30
0.0
 11
74.02500048575817
 21
45.99999999999996
 31
0.0
  0
LINE
  5
1010165
330
1F
100
AcDbEntity
  8
0
100
AcDbLine
 10
74.02500048575817
 20
45.99999999999996
 30
0.0
 11
76.57500048575818
 21
45.99999999999996
 31
0.0
  0
LINE
  5
1010166
330
1F
100
AcDbEntity
  8
0
100
AcDbLine
 10
76.57500048575818
 20
45.99999999999996
 30
0.0
 11
76.57500048575804
 21
49.00000000000019
 31
0.0
  0
LINE
  5
1010167
330
1F
100
AcDbEntity
  8
0
100
AcDbLine
 10
76.57500048575804
 20
49.00000000000019
 30
0.0
 11
77.57500048575806
 21
49.99999999999994
 31
0.0
  0
LINE
  5
1010168
330
1F
100
AcDbEntity
  8
0
100
AcDbLine
 10
77.57500048575806
 20
49.99999999999994
 30
0.0
 11
80.57500048575803
 21
49.99999999999994
 31
0.0
  0
LINE
  5
1010169
330
1F
100
AcDbEntity
  8
0
100
AcDbLine
 10
80.57500048575803
 20
49.99999999999994
 30
0.0
 11
81.57500048575803
 21
49.00000000000034
 31
0.0
  0
LINE
  5
101016A
330
1F
100
AcDbEntity
  8
0
100
AcDbLine
 10
81.57500048575803
 20
49.00000000000034
 30
0.0
 11
81.57500048575775
 21
45.99999999999996
 31
0.0
  0
LINE
  5
101016B
330
1F
100
AcDbEntity
  8
0
100
AcDbLine
 10
81.57500048575775
 20
45.99999999999996
 30
0.0
 11
84.17500048575774
 21
45.99999999999996
 31
0.0
  0
LINE
  5
101016C
330
1F
100
AcDbEntity
  8
0
100
AcDbLine
 10
84.17500048575774
 20
45.99999999999996
 30
0.0
 11
84.17500048575774
 21
49.00000000000002
 31
0.0
  0
LINE
  5
101016D
330
1F
100
AcDbEntity
  8
0
100
AcDbLine
 10
84.17500048575774
 20
49.00000000000002
 30
0.0
 11
85.17500048575774
 21
49.99999999999994
 31
0.0
  0
LINE
  5
101016E
330
1F
100
AcDbEntity
  8
0
100
AcDbLine
 10
85.17500048575774
 20
49.99999999999994
 30
0.0
 11
88.17500048575771
 21
49.99999999999996
 31
0.0
  0
LINE
  5
101016F
330
1F
100
AcDbEntity
  8
0
100
AcDbLine
 10
88.17500048575771
 20
49.99999999999996
 30
0.0
 11
89.17500048575774
 21
49.00000000000002
 31
0.0
  0
LINE
  5
1010170
330
1F
100
AcDbEntity
  8
0
100
AcDbLine
 10
89.17500048575774
 20
49.00000000000002
 30
0.0
 11
89.17500048575774
 21
45.99999999999996
 31
0.0
  0
LINE
  5
1010171
330
1F
100
AcDbEntity
  8
0
100
AcDbLine
 10
89.17500048575774
 20
45.99999999999996
 30
0.0
 11
91.82500048575775
 21
45.99999999999998
 31
0.0
  0
LINE
  5
1010172
330
1F
100
AcDbEntity
  8
0
100
AcDbLine
 10
91.82500048575775
 20
45.99999999999998
 30
0.0
 11
91.82500048575709
 21
49.00000000000019
 31
0.0
  0
LINE
  5
1010173
330
1F
100
AcDbEntity
  8
0
100
AcDbLine
 10
91.82500048575709
 20
49.00000000000019
 30
0.0
 11
92.82500048575712
 21
49.99999999999996
 31
0.0
  0
LINE
  5
1010174
330
1F
100
AcDbEntity
  8
0
100
AcDbLine
 10
92.82500048575712
 20
49.99999999999996
 30
0.0
 11
95.8250004857571
 21
49.99999999999996
 31
0.0
  0
LINE
  5
1010175
330
1F
100
AcDbEntity
  8
0
100
AcDbLine
 10
95.8250004857571
 20
49.99999999999996
 30
0.0
 11
96.82500048575711
 21
49.00000000000002
 31
0.0
  0
LINE
  5
1010176
330
1F
100
AcDbEntity
  8
0
100
AcDbLine
 10
96.82500048575711
 20
49.00000000000002
 30
0.0
 11
96.82500048575739
 21
45.99999999999998
 31
0.0
  0
LINE
  5
10101CA
330
1F
100
AcDbEntity
  8
0
100
AcDbLine
 10
39.77500097152063
 20
81.09439941277225
 30
0.0
 11
39.77500097152091
 21
86.09439941277225
 31
0.0
  0
LINE
  5
10101CB
330
1F
100
AcDbEntity
  8
0
100
AcDbLine
 10
39.77500097152091
 20
86.09439941277225
 30
0.0
 11
38.77500097152091
 21
87.09439941277219
 31
0.0
  0
LINE
  5
10101CC
330
1F
100
AcDbEntity
  8
0
100
AcDbLine
 10
38.77500097152091
 20
87.09439941277219
 30
0.0
 11
33.77500097152091
 21
87.09439941277222
 31
0.0
  0
LINE
  5
10101CD
330
1F
100
AcDbEntity
  8
0
100
AcDbLine
 10
33.77500097152091
 20
87.09439941277222
 30
0.0
 11
32.77500097152088
 21
86.09439941277235
 31
0.0
  0
LINE
  5
10101CE
330
1F
100
AcDbEntity
  8
0
100
AcDbLine
 10
32.77500097152088
 20
86.09439941277235
 30
0.0
 11
32.77500097152131
 21
81.09439941277225
 31
0.0
  0
LINE
  5
10101CF
330
1F
100
AcDbEntity
  8
0
100
AcDbLine
 10
32.77500097152131
 20
81.09439941277225
 30
0.0
 11
27.97500097152133
 21
81.09439941277225
 31
0.0
  0
LINE
  5
10101D0
330
1F
100
AcDbEntity
  8
0
100
AcDbLine
 10
27.97500097152133
 20
81.09439941277225
 30
0.0
 11
27.97500097152133
 21
86.09439941277228
 31
0.0
  0
LINE
  5
10101D1
330
1F
100
AcDbEntity
  8
0
100
AcDbLine
 10
27.97500097152133
 20
86.09439941277228
 30
0.0
 11
26.97500097152133
 21
87.09439941277222
 31
0.0
  0
LINE
  5
10101D2
330
1F
100
AcDbEntity
  8
0
100
AcDbLine
 10
26.97500097152133
 20
87.09439941277222
 30
0.0
 11
21.97500097152133
 21
87.09439941277222
 31
0.0
  0
LINE
  5
10101D3
330
1F
100
AcDbEntity
  8
0
100
AcDbLine
 10
21.97500097152133
 20
87.09439941277222
 30
0.0
 11
20.9750009715213
 21
86.09439941277228
 31
0.0
  0
LINE
  5
10101D4
330
1F
100
AcDbEntity
  8
0
100
AcDbLine
 10
20.9750009715213
 20
86.09439941277228
 30
0.0
 11
20.9750009715213
 21
81.09439941277228
 31
0.0
  0
LINE
  5
10101D5
330
1F
100
AcDbEntity
  8
0
100
AcDbLine
 10
20.9750009715213
 20
81.09439941277228
 30
0.0
 11
16.12500097152133
 21
81.09439941277228
 31
0.0
  0
LINE
  5
10101D6
330
1F
100
AcDbEntity
  8
0
100
AcDbLine
 10
16.12500097152133
 20
81.09439941277228
 30
0.0
 11
16.12500097152133
 21
86.09439941277228
 31
0.0
  0
LINE
  5
10101D7
330
1F
100
AcDbEntity
  8
0
100
AcDbLine
 10
16.12500097152133
 20
86.09439941277228
 30
0.0
 11
15.12500097152167
 21
87.09439941277224
 31
0.0
  0
LINE
  5
10101D8
330
1F
100
AcDbEntity
  8
0
100
AcDbLine
 10
15.12500097152167
 20
87.09439941277224
 30
0.0
 11
10.12500097152167
 21
87.09439941277224
 31
0.0
  0
LINE
  5
10101D9
330
1F
100
AcDbEntity
  8
0
100
AcDbLine
 10
10.12500097152167
 20
87.09439941277224
 30
0.0
 11
9.125000971521647
 21
86.09439941277228
 31
0.0
  0
LINE
  5
10101DA
330
1F
100
AcDbEntity
  8
0
100
AcDbLine
 10
9.125000971521647
 20
86.09439941277228
 30
0.0
 11
9.125000971521647
 21
81.09439941277228
 31
0.0
  0
LINE
  5
10101DB
330
1F
100
AcDbEntity
  8
0
100
AcDbLine
 10
9.125000971521647
 20
81.09439941277228
 30
0.0
 11
4.225000971521641
 21
81.09439941277228
 31
0.0
  0
LINE
  5
10101DC
330
1F
100
AcDbEntity
  8
0
100
AcDbLine
 10
4.225000971521641
 20
81.09439941277228
 30
0.0
 11
4.225000971521641
 21
86.09439941277228
 31
0.0
  0
LINE
  5
10101DD
330
1F
100
AcDbEntity
  8
0
100
AcDbLine
 10
4.225000971521641
 20
86.09439941277228
 30
0.0
 11
3.225000971521613
 21
87.09439941277224
 31
0.0
  0
LINE
  5
10101DE
330
1F
100
AcDbEntity
  8
0
100
AcDbLine
 10
3.225000971521613
 20
87.09439941277224
 30
0.0
 11
-1.774999028478386
 21
87.09439941277224
 31
0.0
  0
LINE
  5
10101DF
330
1F
100
AcDbEntity
  8
0
100
AcDbLine
 10
-1.774999028478386
 20
87.09439941277224
 30
0.0
 11
-2.774999028478131
 21
86.09439941277228
 31
0.0
  0
LINE
  5
10101E0
330
1F
100
AcDbEntity
  8
0
100
AcDbLine
 10
-2.774999028478131
 20
86.09439941277228
 30
0.0
 11
-2.774999028478131
 21
81.0943994127723
 31
0.0
  0
LINE
  5
10101E1
330
1F
100
AcDbEntity
  8
0
100
AcDbLine
 10
-2.774999028478131
 20
81.0943994127723
 30
0.0
 11
-7.724999028478091
 21
81.0943994127723
 31
0.0
  0
LINE
  5
10101E2
330
1F
100
AcDbEntity
  8
0
100
AcDbLine
 10
-7.724999028478091
 20
81.0943994127723
 30
0.0
 11
-7.724999028478091
 21
86.09439941277228
 31
0.0
  0
LINE
  5
10101E3
330
1F
100
AcDbEntity
  8
0
100
AcDbLine
 10
-7.724999028478091
 20
86.09439941277228
 30
0.0
 11
-8.724999028478119
 21
87.09439941277224
 31
0.0
  0
LINE
  5
10101E4
330
1F
100
AcDbEntity
  8
0
100
AcDbLine
 10
-8.724999028478119
 20
87.09439941277224
 30
0.0
 11
-13.72499902847812
 21
87.09439941277228
 31
0.0
  0
LINE
  5
10101E5
330
1F
100
AcDbEntity
  8
0
100
AcDbLine
 10
-13.72499902847812
 20
87.09439941277228
 30
0.0
 11
-14.72499902847789
 21
86.09439941277228
 31
0.0
  0
LINE
  5
10101E6
330
1F
100
AcDbEntity
  8
0
100
AcDbLine
 10
-14.72499902847789
 20
86.09439941277228
 30
0.0
 11
-14.72499902847749
 21
81.09439941277233
 31
0.0
  0
LINE
  5
10101E7
330
1F
100
AcDbEntity
  8
0
100
AcDbLine
 10
-14.72499902847749
 20
81.09439941277233
 30
0.0
 11
-19.72499902847749
 21
81.09439941277233
 31
0.0
  0
LINE
  5
10101E8
330
1F
100
AcDbEntity
  8
0
100
AcDbLine
 10
-19.72499902847749
 20
81.09439941277233
 30
0.0
 11
-19.72499902847749
 21
86.09439941277228
 31
0.0
  0
LINE
  5
10101E9
330
1F
100
AcDbEntity
  8
0
100
AcDbLine
 10
-19.72499902847749
 20
86.09439941277228
 30
0.0
 11
-20.7249990284773
 21
87.09439941277228
 31
0.0
  0
LINE
  5
10101EA
330
1F
100
AcDbEntity
  8
0
100
AcDbLine
 10
-20.7249990284773
 20
87.09439941277228
 30
0.0
 11
-25.72499902847727
 21
87.09439941277224
 31
0.0
  0
LINE
  5
10101EB
330
1F
100
AcDbEntity
  8
0
100
AcDbLine
 10
-25.72499902847727
 20
87.09439941277224
 30
0.0
 11
-25.72499999999917
 21
67.09439941277228
 31
0.0
  0
LINE
  5
10101EC
330
1F
100
AcDbEntity
  8
0
100
AcDbLine
 10
-25.72499999999917
 20
67.09439941277228
 30
0.0
 11
108.5250009715185
 21
67.09439941277238
 31
0.0
  0
LINE
  5
10101ED
330
1F
100
AcDbEntity
  8
0
100
AcDbLine
 10
108.5250009715185
 20
67.09439941277238
 30
0.0
 11
108.5250009715185
 21
87.09439941277214
 31
0.0
  0
LINE
  5
10101EE
330
1F
100
AcDbEntity
  8
0
100
AcDbLine
 10
108.5250009715185
 20
87.09439941277214
 30
0.0
 11
103.5250009715185
 21
87.09439941277214
 31
0.0
  0
LINE
  5
10101EF
330
1F
100
AcDbEntity
  8
0
100
AcDbLine
 10
103.5250009715185
 20
87.09439941277214
 30
0.0
 11
102.5250009715185
 21
86.09439941277228
 31
0.0
  0
LINE
  5
10101F0
330
1F
100
AcDbEntity
  8
0
100
AcDbLine
 10
102.5250009715185
 20
86.09439941277228
 30
0.0
 11
102.5250009715185
 21
81.09439941277214
 31
0.0
  0
LINE
  5
10101F1
330
1F
100
AcDbEntity
  8
0
100
AcDbLine
 10
102.5250009715185
 20
81.09439941277214
 30
0.0
 11
98.02500097151852
 21
81.09439941277216
 31
0.0
  0
LINE
  5
10101F2
330
1F
100
AcDbEntity
  8
0
100
AcDbLine
 10
98.02500097151852
 20
81.09439941277216
 30
0.0
 11
98.02500097151852
 21
86.09439941277228
 31
0.0
  0
LINE
  5
10101F3
330
1F
100
AcDbEntity
  8
0
100
AcDbLine
 10
98.02500097151852
 20
86.09439941277228
 30
0.0
 11
97.02500097151887
 21
87.09439941277214
 31
0.0
  0
LINE
  5
10101F4
330
1F
100
AcDbEntity
  8
0
100
AcDbLine
 10
97.02500097151887
 20
87.09439941277214
 30
0.0
 11
92.02500097151887
 21
87.09439941277214
 31
0.0
  0
LINE
  5
10101F5
330
1F
100
AcDbEntity
  8
0
100
AcDbLine
 10
92.02500097151887
 20
87.09439941277214
 30
0.0
 11
91.02500097151885
 21
86.09439941277228
 31
0.0
  0
LINE
  5
10101F6
330
1F
100
AcDbEntity
  8
0
100
AcDbLine
 10
91.02500097151885
 20
86.09439941277228
 30
0.0
 11
91.02500097151885
 21
81.09439941277216
 31
0.0
  0
LINE
  5
10101F7
330
1F
100
AcDbEntity
  8
0
100
AcDbLine
 10
91.02500097151885
 20
81.09439941277216
 30
0.0
 11
86.47500097151889
 21
81.09439941277216
 31
0.0
  0
LINE
  5
10101F8
330
1F
100
AcDbEntity
  8
0
100
AcDbLine
 10
86.47500097151889
 20
81.09439941277216
 30
0.0
 11
86.47500097151915
 21
86.09439941277233
 31
0.0
  0
LINE
  5
10101F9
330
1F
100
AcDbEntity
  8
0
100
AcDbLine
 10
86.47500097151915
 20
86.09439941277233
 30
0.0
 11
85.47500097151914
 21
87.09439941277215
 31
0.0
  0
LINE
  5
10101FA
330
1F
100
AcDbEntity
  8
0
100
AcDbLine
 10
85.47500097151914
 20
87.09439941277215
 30
0.0
 11
80.47500097151914
 21
87.09439941277215
 31
0.0
  0
LINE
  5
10101FB
330
1F
100
AcDbEntity
  8
0
100
AcDbLine
 10
80.47500097151914
 20
87.09439941277215
 30
0.0
 11
79.47500097151911
 21
86.09439941277248
 31
0.0
  0
LINE
  5
10101FC
330
1F
100
AcDbEntity
  8
0
100
AcDbLine
 10
79.47500097151911
 20
86.09439941277248
 30
0.0
 11
79.47500097151953
 21
81.09439941277216
 31
0.0
  0
LINE
  5
10101FD
330
1F
100
AcDbEntity
  8
0
100
AcDbLine
 10
79.47500097151953
 20
81.09439941277216
 30
0.0
 11
74.87500097151954
 21
81.09439941277219
 31
0.0
  0
LINE
  5
10101FE
330
1F
100
AcDbEntity
  8
0
100
AcDbLine
 10
74.87500097151954
 20
81.09439941277219
 30
0.0
 11
74.87500097151954
 21
86.09439941277228
 31
0.0
  0
LINE
  5
10101FF
330
1F
100
AcDbEntity
  8
0
100
AcDbLine
 10
74.87500097151954
 20
86.09439941277228
 30
0.0
 11
73.87500097151954
 21
87.09439941277215
 31
0.0
  0
LINE
  5
1010200
330
1F
100
AcDbEntity
  8
0
100
AcDbLine
 10
73.87500097151954
 20
87.09439941277215
 30
0.0
 11
68.87500097151953
 21
87.09439941277219
 31
0.0
  0
LINE
  5
1010201
330
1F
100
AcDbEntity
  8
0
100
AcDbLine
 10
68.87500097151953
 20
87.09439941277219
 30
0.0
 11
67.87500097151951
 21
86.09439941277228
 31
0.0
  0
LINE
  5
1010202
330
1F
100
AcDbEntity
  8
0
100
AcDbLine
 10
67.87500097151951
 20
86.09439941277228
 30
0.0
 11
67.87500097151951
 21
81.09439941277219
 31
0.0
  0
LINE
  5
1010203
330
1F
100
AcDbEntity
  8
0
100
AcDbLine
 10
67.87500097151951
 20
81.09439941277219
 30
0.0
 11
63.22500097151948
 21
81.09439941277219
 31
0.0
  0
LINE
  5
1010204
330
1F
100
AcDbEntity
  8
0
100
AcDbLine
 10
63.22500097151948
 20
81.09439941277219
 30
0.0
 11
63.22500097152055
 21
86.09439941277233
 31
0.0
  0
LINE
  5
1010205
330
1F
100
AcDbEntity
  8
0
100
AcDbLine
 10
63.22500097152055
 20
86.09439941277233
 30
0.0
 11
62.22500097152053
 21
87.09439941277219
 31
0.0
  0
LINE
  5
1010206
330
1F
100
AcDbEntity
  8
0
100
AcDbLine
 10
62.22500097152053
 20
87.09439941277219
 30
0.0
 11
57.22500097152053
 21
87.09439941277219
 31
0.0
  0
LINE
  5
1010207
330
1F
100
AcDbEntity
  8
0
100
AcDbLine
 10
57.22500097152053
 20
87.09439941277219
 30
0.0
 11
56.22500097152053
 21
86.09439941277228
 31
0.0
  0
LINE
  5
1010208
330
1F
100
AcDbEntity
  8
0
100
AcDbLine
 10
56.22500097152053
 20
86.09439941277228
 30
0.0
 11
56.22500097151993
 21
81.09439941277219
 31
0.0
  0
LINE
  5
1010209
330
1F
100
AcDbEntity
  8
0
100
AcDbLine
 10
56.22500097151993
 20
81.09439941277219
 30
0.0
 11
51.52500097151994
 21
81.09439941277221
 31
0.0
  0
LINE
  5
101020A
330
1F
100
AcDbEntity
  8
0
100
AcDbLine
 10
51.52500097151994
 20
81.09439941277221
 30
0.0
 11
51.52500097152023
 21
86.09439941277225
 31
0.0
  0
LINE
  5
101020B
330
1F
100
AcDbEntity
  8
0
100
AcDbLine
 10
51.52500097152023
 20
86.09439941277225
 30
0.0
 11
50.52500097152023
 21
87.09439941277219
 31
0.0
  0
LINE
  5
101020C
330
1F
100
AcDbEntity
  8
0
100
AcDbLine
 10
50.52500097152023
 20
87.09439941277219
 30
0.0
 11
45.52500097152022
 21
87.09439941277219
 31
0.0
  0
LINE
  5
101020D
330
1F
100
AcDbEntity
  8
0
100
AcDbLine
 10
45.52500097152022
 20
87.09439941277219
 30
0.0
 11
44.52500097152022
 21
86.09439941277225
 31
0.0
  0
LINE
  5
101020E
330
1F
100
AcDbEntity
  8
0
100
AcDbLine
 10
44.52500097152022
 20
86.09439941277225
 30
0.0
 11
44.52500097152062
 21
81.09439941277225
 31
0.0
  0
LINE
  5
101020F
330
1F
100
AcDbEntity
  8
0
100
AcDbLine
 10
44.52500097152062
 20
81.09439941277225
 30
0.0
 11
39.77500097152063
 21
81.09439941277225
 31
0.0
  0
LINE
  5
1010210
330
1F
100
AcDbEntity
  8
0
100
AcDbLine
 10
177.2750009715165
 20
81.09439941277225
 30
0.0
 11
177.2750009715162
 21
86.09439941277225
 31
0.0
  0
LINE
  5
1010211
330
1F
100
AcDbEntity
  8
0
100
AcDbLine
 10
177.2750009715162
 20
86.09439941277225
 30
0.0
 11
178.2750009715162
 21
87.09439941277219
 31
0.0
  0
LINE
  5
1010212
330
1F
100
AcDbEntity
  8
0
100
AcDbLine
 10
178.2750009715162
 20
87.09439941277219
 30
0.0
 11
183.2750009715162
 21
87.09439941277222
 31
0.0
  0
LINE
  5
1010213
330
1F
100
AcDbEntity
  8
0
100
AcDbLine
 10
183.2750009715162
 20
87.09439941277222
 30
0.0
 11
184.2750009715162
 21
86.09439941277235
 31
0.0
  0
LINE
  5
1010214
330
1F
100
AcDbEntity
  8
0
100
AcDbLine
 10
184.2750009715162
 20
86.09439941277235
 30
0.0
 11
184.2750009715158
 21
81.09439941277225
 31
0.0
  0
LINE
  5
1010215
330
1F
100
AcDbEntity
  8
0
100
AcDbLine
 10
184.2750009715158
 20
81.09439941277225
 30
0.0
 11
189.0750009715158
 21
81.09439941277225
 31
0.0
  0
LINE
  5
1010216
330
1F
100
AcDbEntity
  8
0
100
AcDbLine
 10
189.0750009715158
 20
81.09439941277225
 30
0.0
 11
189.0750009715158
 21
86.09439941277228
 31
0.0
  0
LINE
  5
1010217
330
1F
100
AcDbEntity
  8
0
100
AcDbLine
 10
189.0750009715158
 20
86.09439941277228
 30
0.0
 11
190.0750009715158
 21
87.09439941277222
 31
0.0
  0
LINE
  5
1010218
330
1F
100
AcDbEntity
  8
0
100
AcDbLine
 10
190.0750009715158
 20
87.09439941277222
 30
0.0
 11
195.0750009715158
 21
87.09439941277222
 31
0.0
  0
LINE
  5
1010219
330
1F
100
AcDbEntity
  8
0
100
AcDbLine
 10
195.0750009715158
 20
87.09439941277222
 30
0.0
 11
196.0750009715158
 21
86.09439941277228
 31
0.0
  0
LINE
  5
101021A
330
1F
100
AcDbEntity
  8
0
100
AcDbLine
 10
196.0750009715158
 20
86.09439941277228
 30
0.0
 11
196.0750009715158
 21
81.09439941277228
 31
0.0
  0
LINE
  5
101021B
330
1F
100
AcDbEntity
  8
0
100
AcDbLine
 10
196.0750009715158
 20
81.09439941277228
 30
0.0
 11
200.9250009715158
 21
81.09439941277228
 31
0.0
  0
LINE
  5
101021C
330
1F
100
AcDbEntity
  8
0
100
AcDbLine
 10
200.9250009715158
 20
81.09439941277228
 30
0.0
 11
200.9250009715158
 21
86.09439941277228
 31
0.0
  0
LINE
  5
101021D
330
1F
100
AcDbEntity
  8
0
100
AcDbLine
 10
200.9250009715158
 20
86.09439941277228
 30
0.0
 11
201.9250009715154
 21
87.09439941277224
 31
0.0
  0
LINE
  5
101021E
330
1F
100
AcDbEntity
  8
0
100
AcDbLine
 10
201.9250009715154
 20
87.09439941277224
 30
0.0
 11
206.9250009715155
 21
87.09439941277224
 31
0.0
  0
LINE
  5
101021F
330
1F
100
AcDbEntity
  8
0
100
AcDbLine
 10
206.9250009715155
 20
87.09439941277224
 30
0.0
 11
207.9250009715155
 21
86.09439941277228
 31
0.0
  0
LINE
  5
1010220
330
1F
100
AcDbEntity
  8
0
100
AcDbLine
 10
207.9250009715155
 20
86.09439941277228
 30
0.0
 11
207.9250009715155
 21
81.09439941277228
 31
0.0
  0
LINE
  5
1010221
330
1F
100
AcDbEntity
  8
0
100
AcDbLine
 10
207.9250009715155
 20
81.09439941277228
 30
0.0
 11
212.8250009715155
 21
81.09439941277228
 31
0.0
  0
LINE
  5
1010222
330
1F
100
AcDbEntity
  8
0
100
AcDbLine
 10
212.8250009715155
 20
81.09439941277228
 30
0.0
 11
212.8250009715155
 21
86.09439941277228
 31
0.0
  0
LINE
  5
1010223
330
1F
100
AcDbEntity
  8
0
100
AcDbLine
 10
212.8250009715155
 20
86.09439941277228
 30
0.0
 11
213.8250009715155
 21
87.09439941277224
 31
0.0
  0
LINE
  5
1010224
330
1F
100
AcDbEntity
  8
0
100
AcDbLine
 10
213.8250009715155
 20
87.09439941277224
 30
0.0
 11
218.8250009715155
 21
87.09439941277224
 31
0.0
  0
LINE
  5
1010225
330
1F
100
AcDbEntity
  8
0
100
AcDbLine
 10
218.8250009715155
 20
87.09439941277224
 30
0.0
 11
219.8250009715152
 21
86.09439941277228
 31
0.0
  0
LINE
  5
1010226
330
1F
100
AcDbEntity
  8
0
100
AcDbLine
 10
219.8250009715152
 20
86.09439941277228
 30
0.0
 11
219.8250009715152
 21
81.0943994127723
 31
0.0
  0
LINE
  5
1010227
330
1F
100
AcDbEntity
  8
0
100
AcDbLine
 10
219.8250009715152
 20
81.0943994127723
 30
0.0
 11
224.7750009715152
 21
81.0943994127723
 31
0.0
  0
LINE
  5
1010228
330
1F
100
AcDbEntity
  8
0
100
AcDbLine
 10
224.7750009715152
 20
81.0943994127723
 30
0.0
 11
224.7750009715152
 21
86.09439941277228
 31
0.0
  0
LINE
  5
1010229
330
1F
100
AcDbEntity
  8
0
100
AcDbLine
 10
224.7750009715152
 20
86.09439941277228
 30
0.0
 11
225.7750009715152
 21
87.09439941277224
 31
0.0
  0
LINE
  5
101022A
330
1F
100
AcDbEntity
  8
0
100
AcDbLine
 10
225.7750009715152
 20
87.09439941277224
 30
0.0
 11
230.7750009715153
 21
87.09439941277228
 31
0.0
  0
LINE
  5
101022B
330
1F
100
AcDbEntity
  8
0
100
AcDbLine
 10
230.7750009715153
 20
87.09439941277228
 30
0.0
 11
231.775000971515
 21
86.09439941277228
 31
0.0
  0
LINE
  5
101022C
330
1F
100
AcDbEntity
  8
0
100
AcDbLine
 10
231.775000971515
 20
86.09439941277228
 30
0.0
 11
231.7750009715146
 21
81.09439941277233
 31
0.0
  0
LINE
  5
101022D
330
1F
100
AcDbEntity
  8
0
100
AcDbLine
 10
231.7750009715146
 20
81.09439941277233
 30
0.0
 11
236.7750009715146
 21
81.09439941277233
 31
0.0
  0
LINE
  5
101022E
330
1F
100
AcDbEntity
  8
0
100
AcDbLine
 10
236.7750009715146
 20
81.09439941277233
 30
0.0
 11
236.7750009715146
 21
86.09439941277228
 31
0.0
  0
LINE
  5
101022F
330
1F
100
AcDbEntity
  8
0
100
AcDbLine
 10
236.7750009715146
 20
86.09439941277228
 30
0.0
 11
237.7750009715144
 21
87.09439941277228
 31
0.0
  0
LINE
  5
1010230
330
1F
100
AcDbEntity
  8
0
100
AcDbLine
 10
237.7750009715144
 20
87.09439941277228
 30
0.0
 11
242.7750009715144
 21
87.09439941277224
 31
0.0
  0
LINE
  5
1010231
330
1F
100
AcDbEntity
  8
0
100
AcDbLine
 10
242.7750009715144
 20
87.09439941277224
 30
0.0
 11
242.7750019430363
 21
67.09439941277228
 31
0.0
  0
LINE
  5
1010232
330
1F
100
AcDbEntity
  8
0
100
AcDbLine
 10
242.7750019430363
 20
67.09439941277228
 30
0.0
 11
108.5250009715185
 21
67.09439941277238
 31
0.0
  0
LINE
  5
1010233
330
1F
100
AcDbEntity
  8
0
100
AcDbLine
 10
108.5250009715185
 20
87.09439941277214
 30
0.0
 11
113.5250009715185
 21
87.09439941277214
 31
0.0
  0
LINE
  5
1010234
330
1F
100
AcDbEntity
  8
0
100
AcDbLine
 10
113.5250009715185
 20
87.09439941277214
 30
0.0
 11
114.5250009715186
 21
86.09439941277228
 31
0.0
  0
LINE
  5
1010235
330
1F
100
AcDbEntity
  8
0
100
AcDbLine
 10
114.5250009715186
 20
86.09439941277228
 30
0.0
 11
114.5250009715186
 21
81.09439941277214
 31
0.0
  0
LINE
  5
1010236
330
1F
100
AcDbEntity
  8
0
100
AcDbLine
 10
114.5250009715186
 20
81.09439941277214
 30
0.0
 11
119.0250009715186
 21
81.09439941277216
 31
0.0
  0
LINE
  5
1010237
330
1F
100
AcDbEntity
  8
0
100
AcDbLine
 10
119.0250009715186
 20
81.09439941277216
 30
0.0
 11
119.0250009715186
 21
86.09439941277228
 31
0.0
  0
LINE
  5
1010238
330
1F
100
AcDbEntity
  8
0
100
AcDbLine
 10
119.0250009715186
 20
86.09439941277228
 30
0.0
 11
120.0250009715182
 21
87.09439941277214
 31
0.0
  0
LINE
  5
1010239
330
1F
100
AcDbEntity
  8
0
100
AcDbLine
 10
120.0250009715182
 20
87.09439941277214
 30
0.0
 11
125.0250009715182
 21
87.09439941277214
 31
0.0
  0
LINE
  5
101023A
330
1F
100
AcDbEntity
  8
0
100
AcDbLine
 10
125.0250009715182
 20
87.09439941277214
 30
0.0
 11
126.0250009715182
 21
86.09439941277228
 31
0.0
  0
LINE
  5
101023B
330
1F
100
AcDbEntity
  8
0
100
AcDbLine
 10
126.0250009715182
 20
86.09439941277228
 30
0.0
 11
126.0250009715182
 21
81.09439941277216
 31
0.0
  0
LINE
  5
101023C
330
1F
100
AcDbEntity
  8
0
100
AcDbLine
 10
126.0250009715182
 20
81.09439941277216
 30
0.0
 11
130.5750009715182
 21
81.09439941277216
 31
0.0
  0
LINE
  5
101023D
330
1F
100
AcDbEntity
  8
0
100
AcDbLine
 10
130.5750009715182
 20
81.09439941277216
 30
0.0
 11
130.5750009715179
 21
86.09439941277233
 31
0.0
  0
LINE
  5
101023E
330
1F
100
AcDbEntity
  8
0
100
AcDbLine
 10
130.5750009715179
 20
86.09439941277233
 30
0.0
 11
131.575000971518
 21
87.09439941277215
 31
0.0
  0
LINE
  5
101023F
330
1F
100
AcDbEntity
  8
0
100
AcDbLine
 10
131.575000971518
 20
87.09439941277215
 30
0.0
 11
136.575000971518
 21
87.09439941277215
 31
0.0
  0
LINE
  5
1010240
330
1F
100
AcDbEntity
  8
0
100
AcDbLine
 10
136.575000971518
 20
87.09439941277215
 30
0.0
 11
137.575000971518
 21
86.09439941277248
 31
0.0
  0
LINE
  5
1010241
330
1F
100
AcDbEntity
  8
0
100
AcDbLine
 10
137.575000971518
 20
86.09439941277248
 30
0.0
 11
137.5750009715176
 21
81.09439941277216
 31
0.0
  0
LINE
  5
1010242
330
1F
100
AcDbEntity
  8
0
100
AcDbLine
 10
137.5750009715176
 20
81.09439941277216
 30
0.0
 11
142.1750009715176
 21
81.09439941277219
 31
0.0
  0
LINE
  5
1010243
330
1F
100
AcDbEntity
  8
0
100
AcDbLine
 10
142.1750009715176
 20
81.09439941277219
 30
0.0
 11
142.1750009715176
 21
86.09439941277228
 31
0.0
  0
LINE
  5
1010244
330
1F
100
AcDbEntity
  8
0
100
AcDbLine
 10
142.1750009715176
 20
86.09439941277228
 30
0.0
 11
143.1750009715176
 21
87.09439941277215
 31
0.0
  0
LINE
  5
1010245
330
1F
100
AcDbEntity
  8
0
100
AcDbLine
 10
143.1750009715176
 20
87.09439941277215
 30
0.0
 11
148.1750009715176
 21
87.09439941277219
 31
0.0
  0
LINE
  5
1010246
330
1F
100
AcDbEntity
  8
0
100
AcDbLine
 10
148.1750009715176
 20
87.09439941277219
 30
0.0
 11
149.1750009715176
 21
86.09439941277228
 31
0.0
  0
LINE
  5
1010247
330
1F
100
AcDbEntity
  8
0
100
AcDbLine
 10
149.1750009715176
 20
86.09439941277228
 30
0.0
 11
149.1750009715176
 21
81.09439941277219
 31
0.0
  0
LINE
  5
1010248
330
1F
100
AcDbEntity
  8
0
100
AcDbLine
 10
149.1750009715176
 20
81.09439941277219
 30
0.0
 11
153.8250009715176
 21
81.09439941277219
 31
0.0
  0
LINE
  5
1010249
330
1F
100
AcDbEntity
  8
0
100
AcDbLine
 10
153.8250009715176
 20
81.09439941277219
 30
0.0
 11
153.8250009715166
 21
86.09439941277233
 31
0.0
  0
LINE
  5
101024A
330
1F
100
AcDbEntity
  8
0
100
AcDbLine
 10
153.8250009715166
 20
86.09439941277233
 30
0.0
 11
154.8250009715166
 21
87.09439941277219
 31
0.0
  0
LINE
  5
101024B
330
1F
100
AcDbEntity
  8
0
100
AcDbLine
 10
154.8250009715166
 20
87.09439941277219
 30
0.0
 11
159.8250009715166
 21
87.09439941277219
 31
0.0
  0
LINE
  5
101024C
330
1F
100
AcDbEntity
  8
0
100
AcDbLine
 10
159.8250009715166
 20
87.09439941277219
 30
0.0
 11
160.8250009715166
 21
86.09439941277228
 31
0.0
  0
LINE
  5
101024D
330
1F
100
AcDbEntity
  8
0
100
AcDbLine
 10
160.8250009715166
 20
86.09439941277228
 30
0.0
 11
160.8250009715172
 21
81.09439941277219
 31
0.0
  0
LINE
  5
101024E
330
1F
100
AcDbEntity
  8
0
100
AcDbLine
 10
160.8250009715172
 20
81.09439941277219
 30
0.0
 11
165.5250009715172
 21
81.09439941277221
 31
0.0
  0
LINE
  5
101024F
330
1F
100
AcDbEntity
  8
0
100
AcDbLine
 10
165.5250009715172
 20
81.09439941277221
 30
0.0
 11
165.5250009715169
 21
86.09439941277225
 31
0.0
  0
LINE
  5
1010250
330
1F
100
AcDbEntity
  8
0
100
AcDbLine
 10
165.5250009715169
 20
86.09439941277225
 30
0.0
 11
166.5250009715169
 21
87.09439941277219
 31
0.0
  0
LINE
  5
1010251
330
1F
100
AcDbEntity
  8
0
100
AcDbLine
 10
166.5250009715169
 20
87.09439941277219
 30
0.0
 11
171.5250009715169
 21
87.09439941277219
 31
0.0
  0
LINE
  5
1010252
330
1F
100
AcDbEntity
  8
0
100
AcDbLine
 10
171.5250009715169
 20
87.09439941277219
 30
0.0
 11
172.5250009715169
 21
86.09439941277225
 31
0.0
  0
LINE
  5
1010253
330
1F
100
AcDbEntity
  8
0
100
AcDbLine
 10
172.5250009715169
 20
86.09439941277225
 30
0.0
 11
172.5250009715165
 21
81.09439941277225
 31
0.0
  0
LINE
  5
1010254
330
1F
100
AcDbEntity
  8
0
100
AcDbLine
 10
172.5250009715165
 20
81.09439941277225
 30
0.0
 11
177.2750009715165
 21
81.09439941277225
 31
0.0
  0
LINE
  5
101029F
330
1F
100
AcDbEntity
  8
0
100
AcDbLine
 10
50.77500048576005
 20
122.9999999999999
 30
0.0
 11
50.77500048576038
 21
129.0000000000001
 31
0.0
  0
LINE
  5
10102A0
330
1F
100
AcDbEntity
  8
0
100
AcDbLine
 10
50.77500048576038
 20
129.0000000000001
 30
0.0
 11
49.77500048576039
 21
129.9999999999999
 31
0.0
  0
LINE
  5
10102A1
330
1F
100
AcDbEntity
  8
0
100
AcDbLine
 10
49.77500048576039
 20
129.9999999999999
 30
0.0
 11
43.77500048576036
 21
129.9999999999999
 31
0.0
  0
LINE
  5
10102A2
330
1F
100
AcDbEntity
  8
0
100
AcDbLine
 10
43.77500048576036
 20
129.9999999999999
 30
0.0
 11
42.77500048576032
 21
128.9999999999999
 31
0.0
  0
LINE
  5
10102A3
330
1F
100
AcDbEntity
  8
0
100
AcDbLine
 10
42.77500048576032
 20
128.9999999999999
 30
0.0
 11
42.77500048576084
 21
122.9999999999999
 31
0.0
  0
LINE
  5
10102A4
330
1F
100
AcDbEntity
  8
0
100
AcDbLine
 10
42.77500048576084
 20
122.9999999999999
 30
0.0
 11
36.97500048576086
 21
122.9999999999999
 31
0.0
  0
LINE
  5
10102A5
330
1F
100
AcDbEntity
  8
0
100
AcDbLine
 10
36.97500048576086
 20
122.9999999999999
 30
0.0
 11
36.97500048576086
 21
129.0
 31
0.0
  0
LINE
  5
10102A6
330
1F
100
AcDbEntity
  8
0
100
AcDbLine
 10
36.97500048576086
 20
129.0
 30
0.0
 11
35.97500048576083
 21
129.9999999999999
 31
0.0
  0
LINE
  5
10102A7
330
1F
100
AcDbEntity
  8
0
100
AcDbLine
 10
35.97500048576083
 20
129.9999999999999
 30
0.0
 11
29.97500048576083
 21
129.9999999999999
 31
0.0
  0
LINE
  5
10102A8
330
1F
100
AcDbEntity
  8
0
100
AcDbLine
 10
29.97500048576083
 20
129.9999999999999
 30
0.0
 11
28.97500048576083
 21
129.0
 31
0.0
  0
LINE
  5
10102A9
330
1F
100
AcDbEntity
  8
0
100
AcDbLine
 10
28.97500048576083
 20
129.0
 30
0.0
 11
28.97500048576083
 21
122.9999999999999
 31
0.0
  0
LINE
  5
10102AA
330
1F
100
AcDbEntity
  8
0
100
AcDbLine
 10
28.97500048576083
 20
122.9999999999999
 30
0.0
 11
23.12500048576081
 21
123.0
 31
0.0
  0
LINE
  5
10102AB
330
1F
100
AcDbEntity
  8
0
100
AcDbLine
 10
23.12500048576081
 20
123.0
 30
0.0
 11
23.12500048576081
 21
129.0
 31
0.0
  0
LINE
  5
10102AC
330
1F
100
AcDbEntity
  8
0
100
AcDbLine
 10
23.12500048576081
 20
129.0
 30
0.0
 11
22.12500048576092
 21
129.9999999999999
 31
0.0
  0
LINE
  5
10102AD
330
1F
100
AcDbEntity
  8
0
100
AcDbLine
 10
22.12500048576092
 20
129.9999999999999
 30
0.0
 11
16.12500048576092
 21
129.9999999999999
 31
0.0
  0
LINE
  5
10102AE
330
1F
100
AcDbEntity
  8
0
100
AcDbLine
 10
16.12500048576092
 20
129.9999999999999
 30
0.0
 11
15.12500048576089
 21
129.0
 31
0.0
  0
LINE
  5
10102AF
330
1F
100
AcDbEntity
  8
0
100
AcDbLine
 10
15.12500048576089
 20
129.0
 30
0.0
 11
15.12500048576089
 21
123.0
 31
0.0
  0
LINE
  5
10102B0
330
1F
100
AcDbEntity
  8
0
100
AcDbLine
 10
15.12500048576089
 20
123.0
 30
0.0
 11
9.225000485760887
 21
123.0
 31
0.0
  0
LINE
  5
10102B1
330
1F
100
AcDbEntity
  8
0
100
AcDbLine
 10
9.225000485760887
 20
123.0
 30
0.0
 11
9.225000485760887
 21
129.0
 31
0.0
  0
LINE
  5
10102B2
330
1F
100
AcDbEntity
  8
0
100
AcDbLine
 10
9.225000485760887
 20
129.0
 30
0.0
 11
8.225000485760858
 21
129.9999999999999
 31
0.0
  0
LINE
  5
10102B3
330
1F
100
AcDbEntity
  8
0
100
AcDbLine
 10
8.225000485760858
 20
129.9999999999999
 30
0.0
 11
2.22500048576083
 21
130.0
 31
0.0
  0
LINE
  5
10102B4
330
1F
100
AcDbEntity
  8
0
100
AcDbLine
 10
2.22500048576083
 20
130.0
 30
0.0
 11
1.225000485761057
 21
129.0
 31
0.0
  0
LINE
  5
10102B5
330
1F
100
AcDbEntity
  8
0
100
AcDbLine
 10
1.225000485761057
 20
129.0
 30
0.0
 11
1.225000485761057
 21
123.0
 31
0.0
  0
LINE
  5
10102B6
330
1F
100
AcDbEntity
  8
0
100
AcDbLine
 10
1.225000485761057
 20
123.0
 30
0.0
 11
-4.72499951423893
 21
123.0
 31
0.0
  0
LINE
  5
10102B7
330
1F
100
AcDbEntity
  8
0
100
AcDbLine
 10
-4.72499951423893
 20
123.0
 30
0.0
 11
-4.72499951423893
 21
129.0
 31
0.0
  0
LINE
  5
10102B8
330
1F
100
AcDbEntity
  8
0
100
AcDbLine
 10
-4.72499951423893
 20
129.0
 30
0.0
 11
-5.724999514238959
 21
130.0
 31
0.0
  0
LINE
  5
10102B9
330
1F
100
AcDbEntity
  8
0
100
AcDbLine
 10
-5.724999514238959
 20
130.0
 30
0.0
 11
-11.72499951423898
 21
130.0
 31
0.0
  0
LINE
  5
10102BA
330
1F
100
AcDbEntity
  8
0
100
AcDbLine
 10
-11.72499951423898
 20
130.0
 30
0.0
 11
-12.72499951423884
 21
129.0
 31
0.0
  0
LINE
  5
10102BB
330
1F
100
AcDbEntity
  8
0
100
AcDbLine
 10
-12.72499951423884
 20
129.0
 30
0.0
 11
-12.72499951423836
 21
123.0
 31
0.0
  0
LINE
  5
10102BC
330
1F
100
AcDbEntity
  8
0
100
AcDbLine
 10
-12.72499951423836
 20
123.0
 30
0.0
 11
-18.72499951423836
 21
123.0
 31
0.0
  0
LINE
  5
10102BD
330
1F
100
AcDbEntity
  8
0
100
AcDbLine
 10
-18.72499951423836
 20
123.0
 30
0.0
 11
-18.72499951423836
 21
129.0
 31
0.0
  0
LINE
  5
10102BE
330
1F
100
AcDbEntity
  8
0
100
AcDbLine
 10
-18.72499951423836
 20
129.0
 30
0.0
 11
-19.72499951423825
 21
130.0
 31
0.0
  0
LINE
  5
10102BF
330
1F
100
AcDbEntity
  8
0
100
AcDbLine
 10
-19.72499951423825
 20
130.0
 30
0.0
 11
-25.72499951423825
 21
130.0
 31
0.0
  0
LINE
  5
10102C0
330
1F
100
AcDbEntity
  8
0
100
AcDbLine
 10
-25.72499951423825
 20
130.0
 30
0.0
 11
-25.72500048576015
 21
110.0
 31
0.0
  0
LINE
  5
10102C1
330
1F
100
AcDbEntity
  8
0
100
AcDbLine
 10
-25.72500048576015
 20
110.0
 30
0.0
 11
131.5250004857577
 21
110.0000000000001
 31
0.0
  0
LINE
  5
10102C2
330
1F
100
AcDbEntity
  8
0
100
AcDbLine
 10
131.5250004857577
 20
110.0000000000001
 30
0.0
 11
131.5250004857577
 21
129.9999999999998
 31
0.0
  0
LINE
  5
10102C3
330
1F
100
AcDbEntity
  8
0
100
AcDbLine
 10
131.5250004857577
 20
129.9999999999998
 30
0.0
 11
125.5250004857577
 21
129.9999999999998
 31
0.0
  0
LINE
  5
10102C4
330
1F
100
AcDbEntity
  8
0
100
AcDbLine
 10
125.5250004857577
 20
129.9999999999998
 30
0.0
 11
124.5250004857577
 21
129.0
 31
0.0
  0
LINE
  5
10102C5
330
1F
100
AcDbEntity
  8
0
100
AcDbLine
 10
124.5250004857577
 20
129.0
 30
0.0
 11
124.5250004857577
 21
122.9999999999998
 31
0.0
  0
LINE
  5
10102C6
330
1F
100
AcDbEntity
  8
0
100
AcDbLine
 10
124.5250004857577
 20
122.9999999999998
 30
0.0
 11
119.0250004857577
 21
122.9999999999998
 31
0.0
  0
LINE
  5
10102C7
330
1F
100
AcDbEntity
  8
0
100
AcDbLine
 10
119.0250004857577
 20
122.9999999999998
 30
0.0
 11
119.0250004857577
 21
129.0
 31
0.0
  0
LINE
  5
10102C8
330
1F
100
AcDbEntity
  8
0
100
AcDbLine
 10
119.0250004857577
 20
129.0
 30
0.0
 11
118.025000485758
 21
129.9999999999998
 31
0.0
  0
LINE
  5
10102C9
330
1F
100
AcDbEntity
  8
0
100
AcDbLine
 10
118.025000485758
 20
129.9999999999998
 30
0.0
 11
112.0250004857579
 21
129.9999999999998
 31
0.0
  0
LINE
  5
10102CA
330
1F
100
AcDbEntity
  8
0
100
AcDbLine
 10
112.0250004857579
 20
129.9999999999998
 30
0.0
 11
111.0250004857579
 21
129.0
 31
0.0
  0
LINE
  5
10102CB
330
1F
100
AcDbEntity
  8
0
100
AcDbLine
 10
111.0250004857579
 20
129.0
 30
0.0
 11
111.0250004857579
 21
122.9999999999998
 31
0.0
  0
LINE
  5
10102CC
330
1F
100
AcDbEntity
  8
0
100
AcDbLine
 10
111.0250004857579
 20
122.9999999999998
 30
0.0
 11
105.4750004857579
 21
122.9999999999998
 31
0.0
  0
LINE
  5
10102CD
330
1F
100
AcDbEntity
  8
0
100
AcDbLine
 10
105.4750004857579
 20
122.9999999999998
 30
0.0
 11
105.4750004857583
 21
129.0
 31
0.0
  0
LINE
  5
10102CE
330
1F
100
AcDbEntity
  8
0
100
AcDbLine
 10
105.4750004857583
 20
129.0
 30
0.0
 11
104.4750004857583
 21
129.9999999999998
 31
0.0
  0
LINE
  5
10102CF
330
1F
100
AcDbEntity
  8
0
100
AcDbLine
 10
104.4750004857583
 20
129.9999999999998
 30
0.0
 11
98.47500048575829
 21
129.9999999999998
 31
0.0
  0
LINE
  5
10102D0
330
1F
100
AcDbEntity
  8
0
100
AcDbLine
 10
98.47500048575829
 20
129.9999999999998
 30
0.0
 11
97.47500048575828
 21
129.0000000000003
 31
0.0
  0
LINE
  5
10102D1
330
1F
100
AcDbEntity
  8
0
100
AcDbLine
 10
97.47500048575828
 20
129.0000000000003
 30
0.0
 11
97.47500048575878
 21
122.9999999999998
 31
0.0
  0
LINE
  5
10102D2
330
1F
100
AcDbEntity
  8
0
100
AcDbLine
 10
97.47500048575878
 20
122.9999999999998
 30
0.0
 11
91.87500048575875
 21
122.9999999999998
 31
0.0
  0
LINE
  5
10102D3
330
1F
100
AcDbEntity
  8
0
100
AcDbLine
 10
91.87500048575875
 20
122.9999999999998
 30
0.0
 11
91.87500048575875
 21
129.0
 31
0.0
  0
LINE
  5
10102D4
330
1F
100
AcDbEntity
  8
0
100
AcDbLine
 10
91.87500048575875
 20
129.0
 30
0.0
 11
90.87500048575874
 21
129.9999999999999
 31
0.0
  0
LINE
  5
10102D5
330
1F
100
AcDbEntity
  8
0
100
AcDbLine
 10
90.87500048575874
 20
129.9999999999999
 30
0.0
 11
84.87500048575872
 21
129.9999999999999
 31
0.0
  0
LINE
  5
10102D6
330
1F
100
AcDbEntity
  8
0
100
AcDbLine
 10
84.87500048575872
 20
129.9999999999999
 30
0.0
 11
83.87500048575871
 21
129.0
 31
0.0
  0
LINE
  5
10102D7
330
1F
100
AcDbEntity
  8
0
100
AcDbLine
 10
83.87500048575871
 20
129.0
 30
0.0
 11
83.87500048575871
 21
122.9999999999999
 31
0.0
  0
LINE
  5
10102D8
330
1F
100
AcDbEntity
  8
0
100
AcDbLine
 10
83.87500048575871
 20
122.9999999999999
 30
0.0
 11
78.22500048575872
 21
122.9999999999999
 31
0.0
  0
LINE
  5
10102D9
330
1F
100
AcDbEntity
  8
0
100
AcDbLine
 10
78.22500048575872
 20
122.9999999999999
 30
0.0
 11
78.22500048576
 21
129.0000000000003
 31
0.0
  0
LINE
  5
10102DA
330
1F
100
AcDbEntity
  8
0
100
AcDbLine
 10
78.22500048576
 20
129.0000000000003
 30
0.0
 11
77.22500048575998
 21
129.9999999999999
 31
0.0
  0
LINE
  5
10102DB
330
1F
100
AcDbEntity
  8
0
100
AcDbLine
 10
77.22500048575998
 20
129.9999999999999
 30
0.0
 11
71.22500048575997
 21
129.9999999999999
 31
0.0
  0
LINE
  5
10102DC
330
1F
100
AcDbEntity
  8
0
100
AcDbLine
 10
71.22500048575997
 20
129.9999999999999
 30
0.0
 11
70.22500048575995
 21
129.0
 31
0.0
  0
LINE
  5
10102DD
330
1F
100
AcDbEntity
  8
0
100
AcDbLine
 10
70.22500048575995
 20
129.0
 30
0.0
 11
70.22500048575924
 21
122.9999999999999
 31
0.0
  0
LINE
  5
10102DE
330
1F
100
AcDbEntity
  8
0
100
AcDbLine
 10
70.22500048575924
 20
122.9999999999999
 30
0.0
 11
64.52500048575925
 21
122.9999999999999
 31
0.0
  0
LINE
  5
10102DF
330
1F
100
AcDbEntity
  8
0
100
AcDbLine
 10
64.52500048575925
 20
122.9999999999999
 30
0.0
 11
64.52500048575959
 21
128.9999999999998
 31
0.0
  0
LINE
  5
10102E0
330
1F
100
AcDbEntity
  8
0
100
AcDbLine
 10
64.52500048575959
 20
128.9999999999998
 30
0.0
 11
63.52500048575959
 21
129.9999999999999
 31
0.0
  0
LINE
  5
10102E1
330
1F
100
AcDbEntity
  8
0
100
AcDbLine
 10
63.52500048575959
 20
129.9999999999999
 30
0.0
 11
57.52500048575959
 21
129.9999999999999
 31
0.0
  0
LINE
  5
10102E2
330
1F
100
AcDbEntity
  8
0
100
AcDbLine
 10
57.52500048575959
 20
129.9999999999999
 30
0.0
 11
56.52500048575956
 21
129.0
 31
0.0
  0
LINE
  5
10102E3
330
1F
100
AcDbEntity
  8
0
100
AcDbLine
 10
56.52500048575956
 20
129.0
 30
0.0
 11
56.52500048576005
 21
122.9999999999999
 31
0.0
  0
LINE
  5
10102E4
330
1F
100
AcDbEntity
  8
0
100
AcDbLine
 10
56.52500048576005
 20
122.9999999999999
 30
0.0
 11
50.77500048576005
 21
122.9999999999999
 31
0.0
  0
LINE
  5
10102E5
330
1F
100
AcDbEntity
  8
0
100
AcDbLine
 10
212.2750004857554
 20
122.9999999999999
 30
0.0
 11
212.275000485755
 21
129.0000000000001
 31
0.0
  0
LINE
  5
10102E6
330
1F
100
AcDbEntity
  8
0
100
AcDbLine
 10
212.275000485755
 20
129.0000000000001
 30
0.0
 11
213.275000485755
 21
129.9999999999999
 31
0.0
  0
LINE
  5
10102E7
330
1F
100
AcDbEntity
  8
0
100
AcDbLine
 10
213.275000485755
 20
129.9999999999999
 30
0.0
 11
219.2750004857551
 21
129.9999999999999
 31
0.0
  0
LINE
  5
10102E8
330
1F
100
AcDbEntity
  8
0
100
AcDbLine
 10
219.2750004857551
 20
129.9999999999999
 30
0.0
 11
220.2750004857551
 21
128.9999999999999
 31
0.0
  0
LINE
  5
10102E9
330
1F
100
AcDbEntity
  8
0
100
AcDbLine
 10
220.2750004857551
 20
128.9999999999999
 30
0.0
 11
220.2750004857546
 21
122.9999999999999
 31
0.0
  0
LINE
  5
10102EA
330
1F
100
AcDbEntity
  8
0
100
AcDbLine
 10
220.2750004857546
 20
122.9999999999999
 30
0.0
 11
226.0750004857546
 21
122.9999999999999
 31
0.0
  0
LINE
  5
10102EB
330
1F
100
AcDbEntity
  8
0
100
AcDbLine
 10
226.0750004857546
 20
122.9999999999999
 30
0.0
 11
226.0750004857546
 21
129.0
 31
0.0
  0
LINE
  5
10102EC
330
1F
100
AcDbEntity
  8
0
100
AcDbLine
 10
226.0750004857546
 20
129.0
 30
0.0
 11
227.0750004857546
 21
129.9999999999999
 31
0.0
  0
LINE
  5
10102ED
330
1F
100
AcDbEntity
  8
0
100
AcDbLine
 10
227.0750004857546
 20
129.9999999999999
 30
0.0
 11
233.0750004857546
 21
129.9999999999999
 31
0.0
  0
LINE
  5
10102EE
330
1F
100
AcDbEntity
  8
0
100
AcDbLine
 10
233.0750004857546
 20
129.9999999999999
 30
0.0
 11
234.0750004857546
 21
129.0
 31
0.0
  0
LINE
  5
10102EF
330
1F
100
AcDbEntity
  8
0
100
AcDbLine
 10
234.0750004857546
 20
129.0
 30
0.0
 11
234.0750004857546
 21
122.9999999999999
 31
0.0
  0
LINE
  5
10102F0
330
1F
100
AcDbEntity
  8
0
100
AcDbLine
 10
234.0750004857546
 20
122.9999999999999
 30
0.0
 11
239.9250004857546
 21
123.0
 31
0.0
  0
LINE
  5
10102F1
330
1F
100
AcDbEntity
  8
0
100
AcDbLine
 10
239.9250004857546
 20
123.0
 30
0.0
 11
239.9250004857546
 21
129.0
 31
0.0
  0
LINE
  5
10102F2
330
1F
100
AcDbEntity
  8
0
100
AcDbLine
 10
239.9250004857546
 20
129.0
 30
0.0
 11
240.9250004857545
 21
129.9999999999999
 31
0.0
  0
LINE
  5
10102F3
330
1F
100
AcDbEntity
  8
0
100
AcDbLine
 10
240.9250004857545
 20
129.9999999999999
 30
0.0
 11
246.9250004857545
 21
129.9999999999999
 31
0.0
  0
LINE
  5
10102F4
330
1F
100
AcDbEntity
  8
0
100
AcDbLine
 10
246.9250004857545
 20
129.9999999999999
 30
0.0
 11
247.9250004857545
 21
129.0
 31
0.0
  0
LINE
  5
10102F5
330
1F
100
AcDbEntity
  8
0
100
AcDbLine
 10
247.9250004857545
 20
129.0
 30
0.0
 11
247.9250004857545
 21
123.0
 31
0.0
  0
LINE
  5
10102F6
330
1F
100
AcDbEntity
  8
0
100
AcDbLine
 10
247.9250004857545
 20
123.0
 30
0.0
 11
253.8250004857546
 21
123.0
 31
0.0
  0
LINE
  5
10102F7
330
1F
100
AcDbEntity
  8
0
100
AcDbLine
 10
253.8250004857546
 20
123.0
 30
0.0
 11
253.8250004857546
 21
129.0
 31
0.0
  0
LINE
  5
10102F8
330
1F
100
AcDbEntity
  8
0
100
AcDbLine
 10
253.8250004857546
 20
129.0
 30
0.0
 11
254.8250004857546
 21
129.9999999999999
 31
0.0
  0
LINE
  5
10102F9
330
1F
100
AcDbEntity
  8
0
100
AcDbLine
 10
254.8250004857546
 20
129.9999999999999
 30
0.0
 11
260.8250004857546
 21
130.0
 31
0.0
  0
LINE
  5
10102FA
330
1F
100
AcDbEntity
  8
0
100
AcDbLine
 10
260.8250004857546
 20
130.0
 30
0.0
 11
261.8250004857543
 21
129.0
 31
0.0
  0
LINE
  5
10102FB
330
1F
100
AcDbEntity
  8
0
100
AcDbLine
 10
261.8250004857543
 20
129.0
 30
0.0
 11
261.8250004857543
 21
123.0
 31
0.0
  0
LINE
  5
10102FC
330
1F
100
AcDbEntity
  8
0
100
AcDbLine
 10
261.8250004857543
 20
123.0
 30
0.0
 11
267.7750004857544
 21
123.0
 31
0.0
  0
LINE
  5
10102FD
330
1F
100
AcDbEntity
  8
0
100
AcDbLine
 10
267.7750004857544
 20
123.0
 30
0.0
 11
267.7750004857544
 21
129.0
 31
0.0
  0
LINE
  5
10102FE
330
1F
100
AcDbEntity
  8
0
100
AcDbLine
 10
267.7750004857544
 20
129.0
 30
0.0
 11
268.7750004857544
 21
130.0
 31
0.0
  0
LINE
  5
10102FF
330
1F
100
AcDbEntity
  8
0
100
AcDbLine
 10
268.7750004857544
 20
130.0
 30
0.0
 11
274.7750004857544
 21
130.0
 31
0.0
  0
LINE
  5
1010300
330
1F
100
AcDbEntity
  8
0
100
AcDbLine
 10
274.7750004857544
 20
130.0
 30
0.0
 11
275.7750004857543
 21
129.0
 31
0.0
  0
LINE
  5
1010301
330
1F
100
AcDbEntity
  8
0
100
AcDbLine
 10
275.7750004857543
 20
129.0
 30
0.0
 11
275.7750004857538
 21
123.0
 31
0.0
  0
LINE
  5
1010302
330
1F
100
AcDbEntity
  8
0
100
AcDbLine
 10
275.7750004857538
 20
123.0
 30
0.0
 11
281.7750004857538
 21
123.0
 31
0.0
  0
LINE
  5
1010303
330
1F
100
AcDbEntity
  8
0
100
AcDbLine
 10
281.7750004857538
 20
123.0
 30
0.0
 11
281.7750004857538
 21
129.0
 31
0.0
  0
LINE
  5
1010304
330
1F
100
AcDbEntity
  8
0
100
AcDbLine
 10
281.7750004857538
 20
129.0
 30
0.0
 11
282.7750004857537
 21
130.0
 31
0.0
  0
LINE
  5
1010305
330
1F
100
AcDbEntity
  8
0
100
AcDbLine
 10
282.7750004857537
 20
130.0
 30
0.0
 11
288.7750004857537
 21
130.0
 31
0.0
  0
LINE
  5
1010306
330
1F
100
AcDbEntity
  8
0
100
AcDbLine
 10
288.7750004857537
 20
130.0
 30
0.0
 11
288.7750014572756
 21
110.0
 31
0.0
  0
LINE
  5
1010307
330
1F
100
AcDbEntity
  8
0
100
AcDbLine
 10
288.7750014572756
 20
110.0
 30
0.0
 11
131.5250004857577
 21
110.0000000000001
 31
0.0
  0
LINE
  5
1010308
330
1F
100
AcDbEntity
  8
0
100
AcDbLine
 10
131.5250004857577
 20
129.9999999999998
 30
0.0
 11
137.5250004857577
 21
129.9999999999998
 31
0.0
  0
LINE
  5
1010309
330
1F
100
AcDbEntity
  8
0
100
AcDbLine
 10
137.5250004857577
 20
129.9999999999998
 30
0.0
 11
138.5250004857577
 21
129.0
 31
0.0
  0
LINE
  5
101030A
330
1F
100
AcDbEntity
  8
0
100
AcDbLine
 10
138.5250004857577
 20
129.0
 30
0.0
 11
138.5250004857577
 21
122.9999999999998
 31
0.0
  0
LINE
  5
101030B
330
1F
100
AcDbEntity
  8
0
100
AcDbLine
 10
138.5250004857577
 20
122.9999999999998
 30
0.0
 11
144.0250004857577
 21
122.9999999999998
 31
0.0
  0
LINE
  5
101030C
330
1F
100
AcDbEntity
  8
0
100
AcDbLine
 10
144.0250004857577
 20
122.9999999999998
 30
0.0
 11
144.0250004857577
 21
129.0
 31
0.0
  0
LINE
  5
101030D
330
1F
100
AcDbEntity
  8
0
100
AcDbLine
 10
144.0250004857577
 20
129.0
 30
0.0
 11
145.0250004857574
 21
129.9999999999998
 31
0.0
  0
LINE
  5
101030E
330
1F
100
AcDbEntity
  8
0
100
AcDbLine
 10
145.0250004857574
 20
129.9999999999998
 30
0.0
 11
151.0250004857574
 21
129.9999999999998
 31
0.0
  0
LINE
  5
101030F
330
1F
100
AcDbEntity
  8
0
100
AcDbLine
 10
151.0250004857574
 20
129.9999999999998
 30
0.0
 11
152.0250004857574
 21
129.0
 31
0.0
  0
LINE
  5
1010310
330
1F
100
AcDbEntity
  8
0
100
AcDbLine
 10
152.0250004857574
 20
129.0
 30
0.0
 11
152.0250004857574
 21
122.9999999999998
 31
0.0
  0
LINE
  5
1010311
330
1F
100
AcDbEntity
  8
0
100
AcDbLine
 10
152.0250004857574
 20
122.9999999999998
 30
0.0
 11
157.5750004857574
 21
122.9999999999998
 31
0.0
  0
LINE
  5
1010312
330
1F
100
AcDbEntity
  8
0
100
AcDbLine
 10
157.5750004857574
 20
122.9999999999998
 30
0.0
 11
157.5750004857571
 21
129.0
 31
0.0
  0
LINE
  5
1010313
330
1F
100
AcDbEntity
  8
0
100
AcDbLine
 10
157.5750004857571
 20
129.0
 30
0.0
 11
158.5750004857571
 21
129.9999999999998
 31
0.0
  0
LINE
  5
1010314
330
1F
100
AcDbEntity
  8
0
100
AcDbLine
 10
158.5750004857571
 20
129.9999999999998
 30
0.0
 11
164.5750004857571
 21
129.9999999999998
 31
0.0
  0
LINE
  5
1010315
330
1F
100
AcDbEntity
  8
0
100
AcDbLine
 10
164.5750004857571
 20
129.9999999999998
 30
0.0
 11
165.5750004857571
 21
129.0000000000003
 31
0.0
  0
LINE
  5
1010316
330
1F
100
AcDbEntity
  8
0
100
AcDbLine
 10
165.5750004857571
 20
129.0000000000003
 30
0.0
 11
165.5750004857567
 21
122.9999999999998
 31
0.0
  0
LINE
  5
1010317
330
1F
100
AcDbEntity
  8
0
100
AcDbLine
 10
165.5750004857567
 20
122.9999999999998
 30
0.0
 11
171.1750004857567
 21
122.9999999999998
 31
0.0
  0
LINE
  5
1010318
330
1F
100
AcDbEntity
  8
0
100
AcDbLine
 10
171.1750004857567
 20
122.9999999999998
 30
0.0
 11
171.1750004857567
 21
129.0
 31
0.0
  0
LINE
  5
1010319
330
1F
100
AcDbEntity
  8
0
100
AcDbLine
 10
171.1750004857567
 20
129.0
 30
0.0
 11
172.1750004857567
 21
129.9999999999999
 31
0.0
  0
LINE
  5
101031A
330
1F
100
AcDbEntity
  8
0
100
AcDbLine
 10
172.1750004857567
 20
129.9999999999999
 30
0.0
 11
178.1750004857567
 21
129.9999999999999
 31
0.0
  0
LINE
  5
101031B
330
1F
100
AcDbEntity
  8
0
100
AcDbLine
 10
178.1750004857567
 20
129.9999999999999
 30
0.0
 11
179.1750004857567
 21
129.0
 31
0.0
  0
LINE
  5
101031C
330
1F
100
AcDbEntity
  8
0
100
AcDbLine
 10
179.1750004857567
 20
129.0
 30
0.0
 11
179.1750004857567
 21
122.9999999999999
 31
0.0
  0
LINE
  5
101031D
330
1F
100
AcDbEntity
  8
0
100
AcDbLine
 10
179.1750004857567
 20
122.9999999999999
 30
0.0
 11
184.8250004857567
 21
122.9999999999999
 31
0.0
  0
LINE
  5
101031E
330
1F
100
AcDbEntity
  8
0
100
AcDbLine
 10
184.8250004857567
 20
122.9999999999999
 30
0.0
 11
184.8250004857554
 21
129.0000000000003
 31
0.0
  0
LINE
  5
101031F
330
1F
100
AcDbEntity
  8
0
100
AcDbLine
 10
184.8250004857554
 20
129.0000000000003
 30
0.0
 11
185.8250004857554
 21
129.9999999999999
 31
0.0
  0
LINE
  5
1010320
330
1F
100
AcDbEntity
  8
0
100
AcDbLine
 10
185.8250004857554
 20
129.9999999999999
 30
0.0
 11
191.8250004857554
 21
129.9999999999999
 31
0.0
  0
LINE
  5
1010321
330
1F
100
AcDbEntity
  8
0
100
AcDbLine
 10
191.8250004857554
 20
129.9999999999999
 30
0.0
 11
192.8250004857554
 21
129.0
 31
0.0
  0
LINE
  5
1010322
330
1F
100
AcDbEntity
  8
0
100
AcDbLine
 10
192.8250004857554
 20
129.0
 30
0.0
 11
192.8250004857562
 21
122.9999999999999
 31
0.0
  0
LINE
  5
1010323
330
1F
100
AcDbEntity
  8
0
100
AcDbLine
 10
192.8250004857562
 20
122.9999999999999
 30
0.0
 11
198.5250004857562
 21
122.9999999999999
 31
0.0
  0
LINE
  5
1010324
330
1F
100
AcDbEntity
  8
0
100
AcDbLine
 10
198.5250004857562
 20
122.9999999999999
 30
0.0
 11
198.5250004857558
 21
128.9999999999998
 31
0.0
  0
LINE
  5
1010325
330
1F
100
AcDbEntity
  8
0
100
AcDbLine
 10
198.5250004857558
 20
128.9999999999998
 30
0.0
 11
199.5250004857558
 21
129.9999999999999
 31
0.0
  0
LINE
  5
1010326
330
1F
100
AcDbEntity
  8
0
100
AcDbLine
 10
199.5250004857558
 20
129.9999999999999
 30
0.0
 11
205.5250004857558
 21
129.9999999999999
 31
0.0
  0
LINE
  5
1010327
330
1F
100
AcDbEntity
  8
0
100
AcDbLine
 10
205.5250004857558
 20
129.9999999999999
 30
0.0
 11
206.5250004857559
 21
129.0
 31
0.0
  0
LINE
  5
1010328
330
1F
100
AcDbEntity
  8
0
100
AcDbLine
 10
206.5250004857559
 20
129.0
 30
0.0
 11
206.5250004857554
 21
122.9999999999999
 31
0.0
  0
LINE
  5
1010329
330
1F
100
AcDbEntity
  8
0
100
AcDbLine
 10
206.5250004857554
 20
122.9999999999999
 30
0.0
 11
212.2750004857554
 21
122.9999999999999
 31
0.0
  0
LINE
  5
1010374
330
1F
100
AcDbEntity
  8
0
100
AcDbLine
 10
71.9750004857605
 20
169.9999999999999
 30
0.0
 11
61.9750004857605
 21
169.9999999999999
 31
0.0
  0
LINE
  5
1010375
330
1F
100
AcDbEntity
  8
0
100
AcDbLine
 10
61.9750004857605
 20
169.9999999999999
 30
0.0
 11
60.97500048576049
 21
169.0
 31
0.0
  0
LINE
  5
1010376
330
1F
100
AcDbEntity
  8
0
100
AcDbLine
 10
60.97500048576049
 20
169.0
 30
0.0
 11
60.97500048576049
 21
158.9999999999999
 31
0.0
  0
LINE
  5
1010377
330
1F
100
AcDbEntity
  8
0
100
AcDbLine
 10
60.97500048576049
 20
158.9999999999999
 30
0.0
 11
51.12500048576049
 21
158.9999999999999
 31
0.0
  0
LINE
  5
1010378
330
1F
100
AcDbEntity
  8
0
100
AcDbLine
 10
51.12500048576049
 20
158.9999999999999
 30
0.0
 11
51.12500048576049
 21
169.0
 31
0.0
  0
LINE
  5
1010379
330
1F
100
AcDbEntity
  8
0
100
AcDbLine
 10
51.12500048576049
 20
169.0
 30
0.0
 11
50.12500048576064
 21
169.9999999999999
 31
0.0
  0
LINE
  5
101037A
330
1F
100
AcDbEntity
  8
0
100
AcDbLine
 10
50.12500048576064
 20
169.9999999999999
 30
0.0
 11
40.12500048576064
 21
169.9999999999999
 31
0.0
  0
LINE
  5
101037B
330
1F
100
AcDbEntity
  8
0
100
AcDbLine
 10
40.12500048576064
 20
169.9999999999999
 30
0.0
 11
39.12500048576061
 21
169.0
 31
0.0
  0
LINE
  5
101037C
330
1F
100
AcDbEntity
  8
0
100
AcDbLine
 10
39.12500048576061
 20
169.0
 30
0.0
 11
39.12500048576061
 21
159.0
 31
0.0
  0
LINE
  5
101037D
330
1F
100
AcDbEntity
  8
0
100
AcDbLine
 10
39.12500048576061
 20
159.0
 30
0.0
 11
29.22500048576058
 21
159.0
 31
0.0
  0
LINE
  5
101037E
330
1F
100
AcDbEntity
  8
0
100
AcDbLine
 10
29.22500048576058
 20
159.0
 30
0.0
 11
29.22500048576058
 21
169.0
 31
0.0
  0
LINE
  5
101037F
330
1F
100
AcDbEntity
  8
0
100
AcDbLine
 10
29.22500048576058
 20
169.0
 30
0.0
 11
28.22500048576058
 21
170.0
 31
0.0
  0
LINE
  5
1010380
330
1F
100
AcDbEntity
  8
0
100
AcDbLine
 10
28.22500048576058
 20
170.0
 30
0.0
 11
18.22500048576057
 21
170.0
 31
0.0
  0
LINE
  5
1010381
330
1F
100
AcDbEntity
  8
0
100
AcDbLine
 10
18.22500048576057
 20
170.0
 30
0.0
 11
17.22500048576086
 21
169.0
 31
0.0
  0
LINE
  5
1010382
330
1F
100
AcDbEntity
  8
0
100
AcDbLine
 10
17.22500048576086
 20
169.0
 30
0.0
 11
17.22500048576086
 21
159.0
 31
0.0
  0
LINE
  5
1010383
330
1F
100
AcDbEntity
  8
0
100
AcDbLine
 10
17.22500048576086
 20
159.0
 30
0.0
 11
7.27500048576087
 21
159.0
 31
0.0
  0
LINE
  5
1010384
330
1F
100
AcDbEntity
  8
0
100
AcDbLine
 10
7.27500048576087
 20
159.0
 30
0.0
 11
7.27500048576087
 21
169.0
 31
0.0
  0
LINE
  5
1010385
330
1F
100
AcDbEntity
  8
0
100
AcDbLine
 10
7.27500048576087
 20
169.0
 30
0.0
 11
6.275000485760841
 21
170.0
 31
0.0
  0
LINE
  5
1010386
330
1F
100
AcDbEntity
  8
0
100
AcDbLine
 10
6.275000485760841
 20
170.0
 30
0.0
 11
-3.724999514239129
 21
170.0
 31
0.0
  0
LINE
  5
1010387
330
1F
100
AcDbEntity
  8
0
100
AcDbLine
 10
-3.724999514239129
 20
170.0
 30
0.0
 11
-4.724999514239073
 21
169.0
 31
0.0
  0
LINE
  5
1010388
330
1F
100
AcDbEntity
  8
0
100
AcDbLine
 10
-4.724999514239073
 20
169.0
 30
0.0
 11
-4.724999514238305
 21
159.0
 31
0.0
  0
LINE
  5
1010389
330
1F
100
AcDbEntity
  8
0
100
AcDbLine
 10
-4.724999514238305
 20
159.0
 30
0.0
 11
-14.7249995142383
 21
159.0
 31
0.0
  0
LINE
  5
101038A
330
1F
100
AcDbEntity
  8
0
100
AcDbLine
 10
-14.7249995142383
 20
159.0
 30
0.0
 11
-14.7249995142383
 21
169.0
 31
0.0
  0
LINE
  5
101038B
330
1F
100
AcDbEntity
  8
0
100
AcDbLine
 10
-14.7249995142383
 20
169.0
 30
0.0
 11
-15.72499951423825
 21
170.0
 31
0.0
  0
LINE
  5
101038C
330
1F
100
AcDbEntity
  8
0
100
AcDbLine
 10
-15.72499951423825
 20
170.0
 30
0.0
 11
-25.72499951423825
 21
170.0
 31
0.0
  0
LINE
  5
101038D
330
1F
100
AcDbEntity
  8
0
100
AcDbLine
 10
-25.72499951423825
 20
170.0
 30
0.0
 11
-25.72500048576012
 21
150.0
 31
0.0
  0
LINE
  5
101038E
330
1F
100
AcDbEntity
  8
0
100
AcDbLine
 10
-25.72500048576012
 20
150.0
 30
0.0
 11
223.5250004857543
 21
150.0000000000002
 31
0.0
  0
LINE
  5
101038F
330
1F
100
AcDbEntity
  8
0
100
AcDbLine
 10
223.5250004857543
 20
150.0000000000002
 30
0.0
 11
223.5250004857543
 21
169.9999999999997
 31
0.0
  0
LINE
  5
1010390
330
1F
100
AcDbEntity
  8
0
100
AcDbLine
 10
223.5250004857543
 20
169.9999999999997
 30
0.0
 11
213.5250004857543
 21
169.9999999999997
 31
0.0
  0
LINE
  5
1010391
330
1F
100
AcDbEntity
  8
0
100
AcDbLine
 10
213.5250004857543
 20
169.9999999999997
 30
0.0
 11
212.5250004857543
 21
169.0
 31
0.0
  0
LINE
  5
1010392
330
1F
100
AcDbEntity
  8
0
100
AcDbLine
 10
212.5250004857543
 20
169.0
 30
0.0
 11
212.5250004857543
 21
158.9999999999997
 31
0.0
  0
LINE
  5
1010393
330
1F
100
AcDbEntity
  8
0
100
AcDbLine
 10
212.5250004857543
 20
158.9999999999997
 30
0.0
 11
203.0250004857542
 21
158.9999999999997
 31
0.0
  0
LINE
  5
1010394
330
1F
100
AcDbEntity
  8
0
100
AcDbLine
 10
203.0250004857542
 20
158.9999999999997
 30
0.0
 11
203.0250004857542
 21
169.0
 31
0.0
  0
LINE
  5
1010395
330
1F
100
AcDbEntity
  8
0
100
AcDbLine
 10
203.0250004857542
 20
169.0
 30
0.0
 11
202.0250004857546
 21
169.9999999999998
 31
0.0
  0
LINE
  5
1010396
330
1F
100
AcDbEntity
  8
0
100
AcDbLine
 10
202.0250004857546
 20
169.9999999999998
 30
0.0
 11
192.0250004857547
 21
169.9999999999998
 31
0.0
  0
LINE
  5
1010397
330
1F
100
AcDbEntity
  8
0
100
AcDbLine
 10
192.0250004857547
 20
169.9999999999998
 30
0.0
 11
191.0250004857546
 21
169.0
 31
0.0
  0
LINE
  5
1010398
330
1F
100
AcDbEntity
  8
0
100
AcDbLine
 10
191.0250004857546
 20
169.0
 30
0.0
 11
191.0250004857546
 21
158.9999999999997
 31
0.0
  0
LINE
  5
1010399
330
1F
100
AcDbEntity
  8
0
100
AcDbLine
 10
191.0250004857546
 20
158.9999999999997
 30
0.0
 11
181.4750004857546
 21
158.9999999999997
 31
0.0
  0
LINE
  5
101039A
330
1F
100
AcDbEntity
  8
0
100
AcDbLine
 10
181.4750004857546
 20
158.9999999999997
 30
0.0
 11
181.4750004857553
 21
168.9999999999998
 31
0.0
  0
LINE
  5
101039B
330
1F
100
AcDbEntity
  8
0
100
AcDbLine
 10
181.4750004857553
 20
168.9999999999998
 30
0.0
 11
180.4750004857552
 21
169.9999999999998
 31
0.0
  0
LINE
  5
101039C
330
1F
100
AcDbEntity
  8
0
100
AcDbLine
 10
180.4750004857552
 20
169.9999999999998
 30
0.0
 11
170.4750004857553
 21
169.9999999999998
 31
0.0
  0
LINE
  5
101039D
330
1F
100
AcDbEntity
  8
0
100
AcDbLine
 10
170.4750004857553
 20
169.9999999999998
 30
0.0
 11
169.4750004857553
 21
169.0000000000003
 31
0.0
  0
LINE
  5
101039E
330
1F
100
AcDbEntity
  8
0
100
AcDbLine
 10
169.4750004857553
 20
169.0000000000003
 30
0.0
 11
169.475000485756
 21
158.9999999999997
 31
0.0
  0
LINE
  5
101039F
330
1F
100
AcDbEntity
  8
0
100
AcDbLine
 10
169.475000485756
 20
158.9999999999997
 30
0.0
 11
159.8750004857561
 21
158.9999999999998
 31
0.0
  0
LINE
  5
10103A0
330
1F
100
AcDbEntity
  8
0
100
AcDbLine
 10
159.8750004857561
 20
158.9999999999998
 30
0.0
 11
159.8750004857561
 21
169.0
 31
0.0
  0
LINE
  5
10103A1
330
1F
100
AcDbEntity
  8
0
100
AcDbLine
 10
159.8750004857561
 20
169.0
 30
0.0
 11
158.875000485756
 21
169.9999999999998
 31
0.0
  0
LINE
  5
10103A2
330
1F
100
AcDbEntity
  8
0
100
AcDbLine
 10
158.875000485756
 20
169.9999999999998
 30
0.0
 11
148.8750004857561
 21
169.9999999999998
 31
0.0
  0
LINE
  5
10103A3
330
1F
100
AcDbEntity
  8
0
100
AcDbLine
 10
148.8750004857561
 20
169.9999999999998
 30
0.0
 11
147.8750004857561
 21
169.0
 31
0.0
  0
LINE
  5
10103A4
330
1F
100
AcDbEntity
  8
0
100
AcDbLine
 10
147.8750004857561
 20
169.0
 30
0.0
 11
147.8750004857561
 21
158.9999999999998
 31
0.0
  0
LINE
  5
10103A5
330
1F
100
AcDbEntity
  8
0
100
AcDbLine
 10
147.8750004857561
 20
158.9999999999998
 30
0.0
 11
138.225000485756
 21
158.9999999999998
 31
0.0
  0
LINE
  5
10103A6
330
1F
100
AcDbEntity
  8
0
100
AcDbLine
 10
138.225000485756
 20
158.9999999999998
 30
0.0
 11
138.2250004857582
 21
169.0000000000001
 31
0.0
  0
LINE
  5
10103A7
330
1F
100
AcDbEntity
  8
0
100
AcDbLine
 10
138.2250004857582
 20
169.0000000000001
 30
0.0
 11
137.2250004857582
 21
169.9999999999998
 31
0.0
  0
LINE
  5
10103A8
330
1F
100
AcDbEntity
  8
0
100
AcDbLine
 10
137.2250004857582
 20
169.9999999999998
 30
0.0
 11
127.2250004857583
 21
169.9999999999998
 31
0.0
  0
LINE
  5
10103A9
330
1F
100
AcDbEntity
  8
0
100
AcDbLine
 10
127.2250004857583
 20
169.9999999999998
 30
0.0
 11
126.2250004857582
 21
169.0
 31
0.0
  0
LINE
  5
10103AA
330
1F
100
AcDbEntity
  8
0
100
AcDbLine
 10
126.2250004857582
 20
169.0
 30
0.0
 11
126.2250004857572
 21
158.9999999999998
 31
0.0
  0
LINE
  5
10103AB
330
1F
100
AcDbEntity
  8
0
100
AcDbLine
 10
126.2250004857572
 20
158.9999999999998
 30
0.0
 11
116.5250004857572
 21
158.9999999999998
 31
0.0
  0
LINE
  5
10103AC
330
1F
100
AcDbEntity
  8
0
100
AcDbLine
 10
116.5250004857572
 20
158.9999999999998
 30
0.0
 11
116.525000485758
 21
169.0
 31
0.0
  0
LINE
  5
10103AD
330
1F
100
AcDbEntity
  8
0
100
AcDbLine
 10
116.525000485758
 20
169.0
 30
0.0
 11
115.5250004857582
 21
169.9999999999999
 31
0.0
  0
LINE
  5
10103AE
330
1F
100
AcDbEntity
  8
0
100
AcDbLine
 10
115.5250004857582
 20
169.9999999999999
 30
0.0
 11
105.5250004857583
 21
169.9999999999999
 31
0.0
  0
LINE
  5
10103AF
330
1F
100
AcDbEntity
  8
0
100
AcDbLine
 10
105.5250004857583
 20
169.9999999999999
 30
0.0
 11
104.5250004857582
 21
168.9999999999999
 31
0.0
  0
LINE
  5
10103B0
330
1F
100
AcDbEntity
  8
0
100
AcDbLine
 10
104.5250004857582
 20
168.9999999999999
 30
0.0
 11
104.525000485759
 21
158.9999999999998
 31
0.0
  0
LINE
  5
10103B1
330
1F
100
AcDbEntity
  8
0
100
AcDbLine
 10
104.525000485759
 20
158.9999999999998
 30
0.0
 11
94.77500048575903
 21
158.9999999999999
 31
0.0
  0
LINE
  5
10103B2
330
1F
100
AcDbEntity
  8
0
100
AcDbLine
 10
94.77500048575903
 20
158.9999999999999
 30
0.0
 11
94.77500048575974
 21
169.0000000000001
 31
0.0
  0
LINE
  5
10103B3
330
1F
100
AcDbEntity
  8
0
100
AcDbLine
 10
94.77500048575974
 20
169.0000000000001
 30
0.0
 11
93.77500048575972
 21
169.9999999999999
 31
0.0
  0
LINE
  5
10103B4
330
1F
100
AcDbEntity
  8
0
100
AcDbLine
 10
93.77500048575972
 20
169.9999999999999
 30
0.0
 11
83.77500048575972
 21
169.9999999999999
 31
0.0
  0
LINE
  5
10103B5
330
1F
100
AcDbEntity
  8
0
100
AcDbLine
 10
83.77500048575972
 20
169.9999999999999
 30
0.0
 11
82.77500048575971
 21
168.9999999999997
 31
0.0
  0
LINE
  5
10103B6
330
1F
100
AcDbEntity
  8
0
100
AcDbLine
 10
82.77500048575971
 20
168.9999999999997
 30
0.0
 11
82.77500048576049
 21
158.9999999999999
 31
0.0
  0
LINE
  5
10103B7
330
1F
100
AcDbEntity
  8
0
100
AcDbLine
 10
82.77500048576049
 20
158.9999999999999
 30
0.0
 11
72.97500048576051
 21
158.9999999999999
 31
0.0
  0
LINE
  5
10103B8
330
1F
100
AcDbEntity
  8
0
100
AcDbLine
 10
72.97500048576051
 20
158.9999999999999
 30
0.0
 11
72.97500048576051
 21
169.0
 31
0.0
  0
LINE
  5
10103B9
330
1F
100
AcDbEntity
  8
0
100
AcDbLine
 10
72.97500048576051
 20
169.0
 30
0.0
 11
71.9750004857605
 21
169.9999999999999
 31
0.0
  0
LINE
  5
10103BA
330
1F
100
AcDbEntity
  8
0
100
AcDbLine
 10
375.0750004857482
 20
169.9999999999999
 30
0.0
 11
385.0750004857482
 21
169.9999999999999
 31
0.0
  0
LINE
  5
10103BB
330
1F
100
AcDbEntity
  8
0
100
AcDbLine
 10
385.0750004857482
 20
169.9999999999999
 30
0.0
 11
386.0750004857482
 21
169.0
 31
0.0
  0
LINE
  5
10103BC
330
1F
100
AcDbEntity
  8
0
100
AcDbLine
 10
386.0750004857482
 20
169.0
 30
0.0
 11
386.0750004857482
 21
158.9999999999999
 31
0.0
  0
LINE
  5
10103BD
330
1F
100
AcDbEntity
  8
0
100
AcDbLine
 10
386.0750004857482
 20
158.9999999999999
 30
0.0
 11
395.9250004857482
 21
158.9999999999999
 31
0.0
  0
LINE
  5
10103BE
330
1F
100
AcDbEntity
  8
0
100
AcDbLine
 10
395.9250004857482
 20
158.9999999999999
 30
0.0
 11
395.9250004857482
 21
169.0
 31
0.0
  0
LINE
  5
10103BF
330
1F
100
AcDbEntity
  8
0
100
AcDbLine
 10
395.9250004857482
 20
169.0
 30
0.0
 11
396.925000485748
 21
169.9999999999999
 31
0.0
  0
LINE
  5
10103C0
330
1F
100
AcDbEntity
  8
0
100
AcDbLine
 10
396.925000485748
 20
169.9999999999999
 30
0.0
 11
406.925000485748
 21
169.9999999999999
 31
0.0
  0
LINE
  5
10103C1
330
1F
100
AcDbEntity
  8
0
100
AcDbLine
 10
406.925000485748
 20
169.9999999999999
 30
0.0
 11
407.925000485748
 21
169.0
 31
0.0
  0
LINE
  5
10103C2
330
1F
100
AcDbEntity
  8
0
100
AcDbLine
 10
407.925000485748
 20
169.0
 30
0.0
 11
407.925000485748
 21
159.0
 31
0.0
  0
LINE
  5
10103C3
330
1F
100
AcDbEntity
  8
0
100
AcDbLine
 10
407.925000485748
 20
159.0
 30
0.0
 11
417.825000485748
 21
159.0
 31
0.0
  0
LINE
  5
10103C4
330
1F
100
AcDbEntity
  8
0
100
AcDbLine
 10
417.825000485748
 20
159.0
 30
0.0
 11
417.825000485748
 21
169.0
 31
0.0
  0
LINE
  5
10103C5
330
1F
100
AcDbEntity
  8
0
100
AcDbLine
 10
417.825000485748
 20
169.0
 30
0.0
 11
418.825000485748
 21
170.0
 31
0.0
  0
LINE
  5
10103C6
330
1F
100
AcDbEntity
  8
0
100
AcDbLine
 10
418.825000485748
 20
170.0
 30
0.0
 11
428.8250004857481
 21
170.0
 31
0.0
  0
LINE
  5
10103C7
330
1F
100
AcDbEntity
  8
0
100
AcDbLine
 10
428.8250004857481
 20
170.0
 30
0.0
 11
429.8250004857478
 21
169.0
 31
0.0
  0
LINE
  5
10103C8
330
1F
100
AcDbEntity
  8
0
100
AcDbLine
 10
429.8250004857478
 20
169.0
 30
0.0
 11
429.8250004857478
 21
159.0
 31
0.0
  0
LINE
  5
10103C9
330
1F
100
AcDbEntity
  8
0
100
AcDbLine
 10
429.8250004857478
 20
159.0
 30
0.0
 11
439.7750004857478
 21
159.0
 31
0.0
  0
LINE
  5
10103CA
330
1F
100
AcDbEntity
  8
0
100
AcDbLine
 10
439.7750004857478
 20
159.0
 30
0.0
 11
439.7750004857478
 21
169.0
 31
0.0
  0
LINE
  5
10103CB
330
1F
100
AcDbEntity
  8
0
100
AcDbLine
 10
439.7750004857478
 20
169.0
 30
0.0
 11
440.7750004857478
 21
170.0
 31
0.0
  0
LINE
  5
10103CC
330
1F
100
AcDbEntity
  8
0
100
AcDbLine
 10
440.7750004857478
 20
170.0
 30
0.0
 11
450.7750004857477
 21
170.0
 31
0.0
  0
LINE
  5
10103CD
330
1F
100
AcDbEntity
  8
0
100
AcDbLine
 10
450.7750004857477
 20
170.0
 30
0.0
 11
451.7750004857477
 21
169.0
 31
0.0
  0
LINE
  5
10103CE
330
1F
100
AcDbEntity
  8
0
100
AcDbLine
 10
451.7750004857477
 20
169.0
 30
0.0
 11
451.775000485747
 21
159.0
 31
0.0
  0
LINE
  5
10103CF
330
1F
100
AcDbEntity
  8
0
100
AcDbLine
 10
451.775000485747
 20
159.0
 30
0.0
 11
461.775000485747
 21
159.0
 31
0.0
  0
LINE
  5
10103D0
330
1F
100
AcDbEntity
  8
0
100
AcDbLine
 10
461.775000485747
 20
159.0
 30
0.0
 11
461.775000485747
 21
169.0
 31
0.0
  0
LINE
  5
10103D1
330
1F
100
AcDbEntity
  8
0
100
AcDbLine
 10
461.775000485747
 20
169.0
 30
0.0
 11
462.7750004857468
 21
170.0
 31
0.0
  0
LINE
  5
10103D2
330
1F
100
AcDbEntity
  8
0
100
AcDbLine
 10
462.7750004857468
 20
170.0
 30
0.0
 11
472.7750004857468
 21
170.0
 31
0.0
  0
LINE
  5
10103D3
330
1F
100
AcDbEntity
  8
0
100
AcDbLine
 10
472.7750004857468
 20
170.0
 30
0.0
 11
472.7750014572688
 21
150.0
 31
0.0
  0
LINE
  5
10103D4
330
1F
100
AcDbEntity
  8
0
100
AcDbLine
 10
472.7750014572688
 20
150.0
 30
0.0
 11
223.5250004857543
 21
150.0000000000002
 31
0.0
  0
LINE
  5
10103D5
330
1F
100
AcDbEntity
  8
0
100
AcDbLine
 10
223.5250004857543
 20
169.9999999999997
 30
0.0
 11
233.5250004857543
 21
169.9999999999997
 31
0.0
  0
LINE
  5
10103D6
330
1F
100
AcDbEntity
  8
0
100
AcDbLine
 10
233.5250004857543
 20
169.9999999999997
 30
0.0
 11
234.5250004857544
 21
169.0
 31
0.0
  0
LINE
  5
10103D7
330
1F
100
AcDbEntity
  8
0
100
AcDbLine
 10
234.5250004857544
 20
169.0
 30
0.0
 11
234.5250004857544
 21
158.9999999999997
 31
0.0
  0
LINE
  5
10103D8
330
1F
100
AcDbEntity
  8
0
100
AcDbLine
 10
234.5250004857544
 20
158.9999999999997
 30
0.0
 11
244.0250004857544
 21
158.9999999999997
 31
0.0
  0
LINE
  5
10103D9
330
1F
100
AcDbEntity
  8
0
100
AcDbLine
 10
244.0250004857544
 20
158.9999999999997
 30
0.0
 11
244.0250004857544
 21
169.0
 31
0.0
  0
LINE
  5
10103DA
330
1F
100
AcDbEntity
  8
0
100
AcDbLine
 10
244.0250004857544
 20
169.0
 30
0.0
 11
245.0250004857541
 21
169.9999999999998
 31
0.0
  0
LINE
  5
10103DB
330
1F
100
AcDbEntity
  8
0
100
AcDbLine
 10
245.0250004857541
 20
169.9999999999998
 30
0.0
 11
255.025000485754
 21
169.9999999999998
 31
0.0
  0
LINE
  5
10103DC
330
1F
100
AcDbEntity
  8
0
100
AcDbLine
 10
255.025000485754
 20
169.9999999999998
 30
0.0
 11
256.025000485754
 21
169.0
 31
0.0
  0
LINE
  5
10103DD
330
1F
100
AcDbEntity
  8
0
100
AcDbLine
 10
256.025000485754
 20
169.0
 30
0.0
 11
256.025000485754
 21
158.9999999999997
 31
0.0
  0
LINE
  5
10103DE
330
1F
100
AcDbEntity
  8
0
100
AcDbLine
 10
256.025000485754
 20
158.9999999999997
 30
0.0
 11
265.575000485754
 21
158.9999999999997
 31
0.0
  0
LINE
  5
10103DF
330
1F
100
AcDbEntity
  8
0
100
AcDbLine
 10
265.575000485754
 20
158.9999999999997
 30
0.0
 11
265.5750004857534
 21
168.9999999999998
 31
0.0
  0
LINE
  5
10103E0
330
1F
100
AcDbEntity
  8
0
100
AcDbLine
 10
265.5750004857534
 20
168.9999999999998
 30
0.0
 11
266.5750004857534
 21
169.9999999999998
 31
0.0
  0
LINE
  5
10103E1
330
1F
100
AcDbEntity
  8
0
100
AcDbLine
 10
266.5750004857534
 20
169.9999999999998
 30
0.0
 11
276.5750004857533
 21
169.9999999999998
 31
0.0
  0
LINE
  5
10103E2
330
1F
100
AcDbEntity
  8
0
100
AcDbLine
 10
276.5750004857533
 20
169.9999999999998
 30
0.0
 11
277.5750004857533
 21
169.0000000000003
 31
0.0
  0
LINE
  5
10103E3
330
1F
100
AcDbEntity
  8
0
100
AcDbLine
 10
277.5750004857533
 20
169.0000000000003
 30
0.0
 11
277.5750004857526
 21
158.9999999999997
 31
0.0
  0
LINE
  5
10103E4
330
1F
100
AcDbEntity
  8
0
100
AcDbLine
 10
277.5750004857526
 20
158.9999999999997
 30
0.0
 11
287.1750004857526
 21
158.9999999999998
 31
0.0
  0
LINE
  5
10103E5
330
1F
100
AcDbEntity
  8
0
100
AcDbLine
 10
287.1750004857526
 20
158.9999999999998
 30
0.0
 11
287.1750004857526
 21
169.0
 31
0.0
  0
LINE
  5
10103E6
330
1F
100
AcDbEntity
  8
0
100
AcDbLine
 10
287.1750004857526
 20
169.0
 30
0.0
 11
288.1750004857526
 21
169.9999999999998
 31
0.0
  0
LINE
  5
10103E7
330
1F
100
AcDbEntity
  8
0
100
AcDbLine
 10
288.1750004857526
 20
169.9999999999998
 30
0.0
 11
298.1750004857525
 21
169.9999999999998
 31
0.0
  0
LINE
  5
10103E8
330
1F
100
AcDbEntity
  8
0
100
AcDbLine
 10
298.1750004857525
 20
169.9999999999998
 30
0.0
 11
299.1750004857525
 21
169.0
 31
0.0
  0
LINE
  5
10103E9
330
1F
100
AcDbEntity
  8
0
100
AcDbLine
 10
299.1750004857525
 20
169.0
 30
0.0
 11
299.1750004857525
 21
158.9999999999998
 31
0.0
  0
LINE
  5
10103EA
330
1F
100
AcDbEntity
  8
0
100
AcDbLine
 10
299.1750004857525
 20
158.9999999999998
 30
0.0
 11
308.8250004857526
 21
158.9999999999998
 31
0.0
  0
LINE
  5
10103EB
330
1F
100
AcDbEntity
  8
0
100
AcDbLine
 10
308.8250004857526
 20
158.9999999999998
 30
0.0
 11
308.8250004857504
 21
169.0000000000001
 31
0.0
  0
LINE
  5
10103EC
330
1F
100
AcDbEntity
  8
0
100
AcDbLine
 10
308.8250004857504
 20
169.0000000000001
 30
0.0
 11
309.8250004857505
 21
169.9999999999998
 31
0.0
  0
LINE
  5
10103ED
330
1F
100
AcDbEntity
  8
0
100
AcDbLine
 10
309.8250004857505
 20
169.9999999999998
 30
0.0
 11
319.8250004857503
 21
169.9999999999998
 31
0.0
  0
LINE
  5
10103EE
330
1F
100
AcDbEntity
  8
0
100
AcDbLine
 10
319.8250004857503
 20
169.9999999999998
 30
0.0
 11
320.8250004857504
 21
169.0
 31
0.0
  0
LINE
  5
10103EF
330
1F
100
AcDbEntity
  8
0
100
AcDbLine
 10
320.8250004857504
 20
169.0
 30
0.0
 11
320.8250004857514
 21
158.9999999999998
 31
0.0
  0
LINE
  5
10103F0
330
1F
100
AcDbEntity
  8
0
100
AcDbLine
 10
320.8250004857514
 20
158.9999999999998
 30
0.0
 11
330.5250004857514
 21
158.9999999999998
 31
0.0
  0
LINE
  5
10103F1
330
1F
100
AcDbEntity
  8
0
100
AcDbLine
 10
330.5250004857514
 20
158.9999999999998
 30
0.0
 11
330.5250004857506
 21
169.0
 31
0.0
  0
LINE
  5
10103F2
330
1F
100
AcDbEntity
  8
0
100
AcDbLine
 10
330.5250004857506
 20
169.0
 30
0.0
 11
331.5250004857504
 21
169.9999999999999
 31
0.0
  0
LINE
  5
10103F3
330
1F
100
AcDbEntity
  8
0
100
AcDbLine
 10
331.5250004857504
 20
169.9999999999999
 30
0.0
 11
341.5250004857504
 21
169.9999999999999
 31
0.0
  0
LINE
  5
10103F4
330
1F
100
AcDbEntity
  8
0
100
AcDbLine
 10
341.5250004857504
 20
169.9999999999999
 30
0.0
 11
342.5250004857504
 21
168.9999999999999
 31
0.0
  0
LINE
  5
10103F5
330
1F
100
AcDbEntity
  8
0
100
AcDbLine
 10
342.5250004857504
 20
168.9999999999999
 30
0.0
 11
342.5250004857496
 21
158.9999999999998
 31
0.0
  0
LINE
  5
10103F6
330
1F
100
AcDbEntity
  8
0
100
AcDbLine
 10
342.5250004857496
 20
158.9999999999998
 30
0.0
 11
352.2750004857496
 21
158.9999999999999
 31
0.0
  0
LINE
  5
10103F7
330
1F
100
AcDbEntity
  8
0
100
AcDbLine
 10
352.2750004857496
 20
158.9999999999999
 30
0.0
 11
352.2750004857489
 21
169.0000000000001
 31
0.0
  0
LINE
  5
10103F8
330
1F
100
AcDbEntity
  8
0
100
AcDbLine
 10
352.2750004857489
 20
169.0000000000001
 30
0.0
 11
353.275000485749
 21
169.9999999999999
 31
0.0
  0
LINE
  5
10103F9
330
1F
100
AcDbEntity
  8
0
100
AcDbLine
 10
353.275000485749
 20
169.9999999999999
 30
0.0
 11
363.2750004857489
 21
169.9999999999999
 31
0.0
  0
LINE
  5
10103FA
330
1F
100
AcDbEntity
  8
0
100
AcDbLine
 10
363.2750004857489
 20
169.9999999999999
 30
0.0
 11
364.2750004857489
 21
168.9999999999997
 31
0.0
  0
LINE
  5
10103FB
330
1F
100
AcDbEntity
  8
0
100
AcDbLine
 10
364.2750004857489
 20
168.9999999999997
 30
0.0
 11
364.2750004857482
 21
158.9999999999999
 31
0.0
  0
LINE
  5
10103FC
330
1F
100
AcDbEntity
  8
0
100
AcDbLine
 10
364.2750004857482
 20
158.9999999999999
 30
0.0
 11
374.0750004857482
 21
158.9999999999999
 31
0.0
  0
LINE
  5
10103FD
330
1F
100
AcDbEntity
  8
0
100
AcDbLine
 10
374.0750004857482
 20
158.9999999999999
 30
0.0
 11
374.0750004857482
 21
169.0
 31
0.0
  0
LINE
  5
10103FE
330
1F
100
AcDbEntity
  8
0
100
AcDbLine
 10
374.0750004857482
 20
169.0
 30
0.0
 11
375.0750004857482
 21
169.9999999999999
 31
0.0
  0
LINE
  5
1010449
330
1F
100
AcDbEntity
  8
0
100
AcDbLine
 10
242.4750004857522
 20
209.9999999999998
 30
0.0
 11
241.4750004857523
 21
209.0000000000003
 31
0.0
  0
LINE
  5
101044A
330
1F
100
AcDbEntity
  8
0
100
AcDbLine
 10
241.4750004857523
 20
209.0000000000003
 30
0.0
 11
241.4750004857532
 21
194.9999999999996
 31
0.0
  0
LINE
  5
101044B
330
1F
100
AcDbEntity
  8
0
100
AcDbLine
 10
241.4750004857532
 20
194.9999999999996
 30
0.0
 11
227.8750004857532
 21
194.9999999999996
 31
0.0
  0
LINE
  5
101044C
330
1F
100
AcDbEntity
  8
0
100
AcDbLine
 10
227.8750004857532
 20
194.9999999999996
 30
0.0
 11
227.8750004857532
 21
209.0
 31
0.0
  0
LINE
  5
101044D
330
1F
100
AcDbEntity
  8
0
100
AcDbLine
 10
227.8750004857532
 20
209.0
 30
0.0
 11
226.8750004857533
 21
209.9999999999998
 31
0.0
  0
LINE
  5
101044E
330
1F
100
AcDbEntity
  8
0
100
AcDbLine
 10
226.8750004857533
 20
209.9999999999998
 30
0.0
 11
212.8750004857534
 21
209.9999999999998
 31
0.0
  0
LINE
  5
101044F
330
1F
100
AcDbEntity
  8
0
100
AcDbLine
 10
212.8750004857534
 20
209.9999999999998
 30
0.0
 11
211.8750004857533
 21
209.0
 31
0.0
  0
LINE
  5
1010450
330
1F
100
AcDbEntity
  8
0
100
AcDbLine
 10
211.8750004857533
 20
209.0
 30
0.0
 11
211.8750004857533
 21
194.9999999999996
 31
0.0
  0
LINE
  5
1010451
330
1F
100
AcDbEntity
  8
0
100
AcDbLine
 10
211.8750004857533
 20
194.9999999999996
 30
0.0
 11
198.2250004857533
 21
194.9999999999997
 31
0.0
  0
LINE
  5
1010452
330
1F
100
AcDbEntity
  8
0
100
AcDbLine
 10
198.2250004857533
 20
194.9999999999997
 30
0.0
 11
198.2250004857563
 21
209.0000000000001
 31
0.0
  0
LINE
  5
1010453
330
1F
100
AcDbEntity
  8
0
100
AcDbLine
 10
198.2250004857563
 20
209.0000000000001
 30
0.0
 11
197.2250004857562
 21
209.9999999999998
 31
0.0
  0
LINE
  5
1010454
330
1F
100
AcDbEntity
  8
0
100
AcDbLine
 10
197.2250004857562
 20
209.9999999999998
 30
0.0
 11
183.2250004857564
 21
209.9999999999998
 31
0.0
  0
LINE
  5
1010455
330
1F
100
AcDbEntity
  8
0
100
AcDbLine
 10
183.2250004857564
 20
209.9999999999998
 30
0.0
 11
182.2250004857564
 21
209.0
 31
0.0
  0
LINE
  5
1010456
330
1F
100
AcDbEntity
  8
0
100
AcDbLine
 10
182.2250004857564
 20
209.0
 30
0.0
 11
182.2250004857549
 21
194.9999999999997
 31
0.0
  0
LINE
  5
1010457
330
1F
100
AcDbEntity
  8
0
100
AcDbLine
 10
182.2250004857549
 20
194.9999999999997
 30
0.0
 11
168.5250004857549
 21
194.9999999999997
 31
0.0
  0
LINE
  5
1010458
330
1F
100
AcDbEntity
  8
0
100
AcDbLine
 10
168.5250004857549
 20
194.9999999999997
 30
0.0
 11
168.525000485756
 21
209.0
 31
0.0
  0
LINE
  5
1010459
330
1F
100
AcDbEntity
  8
0
100
AcDbLine
 10
168.525000485756
 20
209.0
 30
0.0
 11
167.5250004857564
 21
209.9999999999998
 31
0.0
  0
LINE
  5
101045A
330
1F
100
AcDbEntity
  8
0
100
AcDbLine
 10
167.5250004857564
 20
209.9999999999998
 30
0.0
 11
153.5250004857565
 21
209.9999999999998
 31
0.0
  0
LINE
  5
101045B
330
1F
100
AcDbEntity
  8
0
100
AcDbLine
 10
153.5250004857565
 20
209.9999999999998
 30
0.0
 11
152.5250004857565
 21
209.0
 31
0.0
  0
LINE
  5
101045C
330
1F
100
AcDbEntity
  8
0
100
AcDbLine
 10
152.5250004857565
 20
209.0
 30
0.0
 11
152.5250004857576
 21
194.9999999999997
 31
0.0
  0
LINE
  5
101045D
330
1F
100
AcDbEntity
  8
0
100
AcDbLine
 10
152.5250004857576
 20
194.9999999999997
 30
0.0
 11
138.7750004857576
 21
194.9999999999998
 31
0.0
  0
LINE
  5
101045E
330
1F
100
AcDbEntity
  8
0
100
AcDbLine
 10
138.7750004857576
 20
194.9999999999998
 30
0.0
 11
138.7750004857586
 21
209.0
 31
0.0
  0
LINE
  5
101045F
330
1F
100
AcDbEntity
  8
0
100
AcDbLine
 10
138.7750004857586
 20
209.0
 30
0.0
 11
137.7750004857586
 21
209.9999999999999
 31
0.0
  0
LINE
  5
1010460
330
1F
100
AcDbEntity
  8
0
100
AcDbLine
 10
137.7750004857586
 20
209.9999999999999
 30
0.0
 11
123.7750004857587
 21
209.9999999999999
 31
0.0
  0
LINE
  5
1010461
330
1F
100
AcDbEntity
  8
0
100
AcDbLine
 10
123.7750004857587
 20
209.9999999999999
 30
0.0
 11
122.7750004857588
 21
209.0
 31
0.0
  0
LINE
  5
1010462
330
1F
100
AcDbEntity
  8
0
100
AcDbLine
 10
122.7750004857588
 20
209.0
 30
0.0
 11
122.7750004857599
 21
194.9999999999998
 31
0.0
  0
LINE
  5
1010463
330
1F
100
AcDbEntity
  8
0
100
AcDbLine
 10
122.7750004857599
 20
194.9999999999998
 30
0.0
 11
108.9750004857598
 21
194.9999999999999
 31
0.0
  0
LINE
  5
1010464
330
1F
100
AcDbEntity
  8
0
100
AcDbLine
 10
108.9750004857598
 20
194.9999999999999
 30
0.0
 11
108.9750004857598
 21
209.0
 31
0.0
  0
LINE
  5
1010465
330
1F
100
AcDbEntity
  8
0
100
AcDbLine
 10
108.9750004857598
 20
209.0
 30
0.0
 11
107.9750004857598
 21
209.9999999999999
 31
0.0
  0
LINE
  5
1010466
330
1F
100
AcDbEntity
  8
0
100
AcDbLine
 10
107.9750004857598
 20
209.9999999999999
 30
0.0
 11
93.97500048575992
 21
209.9999999999999
 31
0.0
  0
LINE
  5
1010467
330
1F
100
AcDbEntity
  8
0
100
AcDbLine
 10
93.97500048575992
 20
209.9999999999999
 30
0.0
 11
92.9750004857599
 21
209.0
 31
0.0
  0
LINE
  5
1010468
330
1F
100
AcDbEntity
  8
0
100
AcDbLine
 10
92.9750004857599
 20
209.0
 30
0.0
 11
92.9750004857599
 21
194.9999999999999
 31
0.0
  0
LINE
  5
1010469
330
1F
100
AcDbEntity
  8
0
100
AcDbLine
 10
92.9750004857599
 20
194.9999999999999
 30
0.0
 11
79.12500048575992
 21
194.9999999999999
 31
0.0
  0
LINE
  5
101046A
330
1F
100
AcDbEntity
  8
0
100
AcDbLine
 10
79.12500048575992
 20
194.9999999999999
 30
0.0
 11
79.12500048575992
 21
209.0
 31
0.0
  0
LINE
  5
101046B
330
1F
100
AcDbEntity
  8
0
100
AcDbLine
 10
79.12500048575992
 20
209.0
 30
0.0
 11
78.12500048576009
 21
209.9999999999999
 31
0.0
  0
LINE
  5
101046C
330
1F
100
AcDbEntity
  8
0
100
AcDbLine
 10
78.12500048576009
 20
209.9999999999999
 30
0.0
 11
64.12500048576021
 21
210.0
 31
0.0
  0
LINE
  5
101046D
330
1F
100
AcDbEntity
  8
0
100
AcDbLine
 10
64.12500048576021
 20
210.0
 30
0.0
 11
63.12500048576009
 21
209.0
 31
0.0
  0
LINE
  5
101046E
330
1F
100
AcDbEntity
  8
0
100
AcDbLine
 10
63.12500048576009
 20
209.0
 30
0.0
 11
63.12500048576009
 21
194.9999999999999
 31
0.0
  0
LINE
  5
101046F
330
1F
100
AcDbEntity
  8
0
100
AcDbLine
 10
63.12500048576009
 20
194.9999999999999
 30
0.0
 11
49.22500048576011
 21
194.9999999999999
 31
0.0
  0
LINE
  5
1010470
330
1F
100
AcDbEntity
  8
0
100
AcDbLine
 10
49.22500048576011
 20
194.9999999999999
 30
0.0
 11
49.22500048576011
 21
209.0
 31
0.0
  0
LINE
  5
1010471
330
1F
100
AcDbEntity
  8
0
100
AcDbLine
 10
49.22500048576011
 20
209.0
 30
0.0
 11
48.22500048576017
 21
210.0
 31
0.0
  0
LINE
  5
1010472
330
1F
100
AcDbEntity
  8
0
100
AcDbLine
 10
48.22500048576017
 20
210.0
 30
0.0
 11
34.22500048576026
 21
210.0
 31
0.0
  0
LINE
  5
1010473
330
1F
100
AcDbEntity
  8
0
100
AcDbLine
 10
34.22500048576026
 20
210.0
 30
0.0
 11
33.22500048576055
 21
209.0
 31
0.0
  0
LINE
  5
1010474
330
1F
100
AcDbEntity
  8
0
100
AcDbLine
 10
33.22500048576055
 20
209.0
 30
0.0
 11
33.22500048576055
 21
195.0
 31
0.0
  0
LINE
  5
1010475
330
1F
100
AcDbEntity
  8
0
100
AcDbLine
 10
33.22500048576055
 20
195.0
 30
0.0
 11
19.27500048576047
 21
195.0
 31
0.0
  0
LINE
  5
1010476
330
1F
100
AcDbEntity
  8
0
100
AcDbLine
 10
19.27500048576047
 20
195.0
 30
0.0
 11
19.27500048576047
 21
209.0
 31
0.0
  0
LINE
  5
1010477
330
1F
100
AcDbEntity
  8
0
100
AcDbLine
 10
19.27500048576047
 20
209.0
 30
0.0
 11
18.27500048576047
 21
210.0
 31
0.0
  0
LINE
  5
1010478
330
1F
100
AcDbEntity
  8
0
100
AcDbLine
 10
18.27500048576047
 20
210.0
 30
0.0
 11
4.275000485760557
 21
210.0
 31
0.0
  0
LINE
  5
1010479
330
1F
100
AcDbEntity
  8
0
100
AcDbLine
 10
4.275000485760557
 20
210.0
 30
0.0
 11
3.275000485760557
 21
209.0
 31
0.0
  0
LINE
  5
101047A
330
1F
100
AcDbEntity
  8
0
100
AcDbLine
 10
3.275000485760557
 20
209.0
 30
0.0
 11
3.275000485761637
 21
195.0
 31
0.0
  0
LINE
  5
101047B
330
1F
100
AcDbEntity
  8
0
100
AcDbLine
 10
3.275000485761637
 20
195.0
 30
0.0
 11
-10.72499951423836
 21
195.0
 31
0.0
  0
LINE
  5
101047C
330
1F
100
AcDbEntity
  8
0
100
AcDbLine
 10
-10.72499951423836
 20
195.0
 30
0.0
 11
-10.72499951423836
 21
209.0
 31
0.0
  0
LINE
  5
101047D
330
1F
100
AcDbEntity
  8
0
100
AcDbLine
 10
-10.72499951423836
 20
209.0
 30
0.0
 11
-11.7249995142383
 21
210.0
 31
0.0
  0
LINE
  5
101047E
330
1F
100
AcDbEntity
  8
0
100
AcDbLine
 10
-11.7249995142383
 20
210.0
 30
0.0
 11
-25.72499951423822
 21
210.0
 31
0.0
  0
LINE
  5
101047F
330
1F
100
AcDbEntity
  8
0
100
AcDbLine
 10
-25.72499951423822
 20
210.0
 30
0.0
 11
-25.72500048576012
 21
190.0
 31
0.0
  0
LINE
  5
1010480
330
1F
100
AcDbEntity
  8
0
100
AcDbLine
 10
-25.72500048576012
 20
190.0
 30
0.0
 11
315.5250004857507
 21
190.0000000000004
 31
0.0
  0
LINE
  5
1010481
330
1F
100
AcDbEntity
  8
0
100
AcDbLine
 10
315.5250004857507
 20
190.0000000000004
 30
0.0
 11
315.5250004857507
 21
209.9999999999997
 31
0.0
  0
LINE
  5
1010482
330
1F
100
AcDbEntity
  8
0
100
AcDbLine
 10
315.5250004857507
 20
209.9999999999997
 30
0.0
 11
301.5250004857506
 21
209.9999999999997
 31
0.0
  0
LINE
  5
1010483
330
1F
100
AcDbEntity
  8
0
100
AcDbLine
 10
301.5250004857506
 20
209.9999999999997
 30
0.0
 11
300.5250004857507
 21
209.0
 31
0.0
  0
LINE
  5
1010484
330
1F
100
AcDbEntity
  8
0
100
AcDbLine
 10
300.5250004857507
 20
209.0
 30
0.0
 11
300.5250004857507
 21
194.9999999999995
 31
0.0
  0
LINE
  5
1010485
330
1F
100
AcDbEntity
  8
0
100
AcDbLine
 10
300.5250004857507
 20
194.9999999999995
 30
0.0
 11
287.0250004857508
 21
194.9999999999995
 31
0.0
  0
LINE
  5
1010486
330
1F
100
AcDbEntity
  8
0
100
AcDbLine
 10
287.0250004857508
 20
194.9999999999995
 30
0.0
 11
287.0250004857508
 21
209.0
 31
0.0
  0
LINE
  5
1010487
330
1F
100
AcDbEntity
  8
0
100
AcDbLine
 10
287.0250004857508
 20
209.0
 30
0.0
 11
286.0250004857512
 21
209.9999999999997
 31
0.0
  0
LINE
  5
1010488
330
1F
100
AcDbEntity
  8
0
100
AcDbLine
 10
286.0250004857512
 20
209.9999999999997
 30
0.0
 11
272.0250004857512
 21
209.9999999999997
 31
0.0
  0
LINE
  5
1010489
330
1F
100
AcDbEntity
  8
0
100
AcDbLine
 10
272.0250004857512
 20
209.9999999999997
 30
0.0
 11
271.0250004857512
 21
209.0
 31
0.0
  0
LINE
  5
101048A
330
1F
100
AcDbEntity
  8
0
100
AcDbLine
 10
271.0250004857512
 20
209.0
 30
0.0
 11
271.0250004857512
 21
194.9999999999996
 31
0.0
  0
LINE
  5
101048B
330
1F
100
AcDbEntity
  8
0
100
AcDbLine
 10
271.0250004857512
 20
194.9999999999996
 30
0.0
 11
257.4750004857512
 21
194.9999999999996
 31
0.0
  0
LINE
  5
101048C
330
1F
100
AcDbEntity
  8
0
100
AcDbLine
 10
257.4750004857512
 20
194.9999999999996
 30
0.0
 11
257.4750004857522
 21
208.9999999999998
 31
0.0
  0
LINE
  5
101048D
330
1F
100
AcDbEntity
  8
0
100
AcDbLine
 10
257.4750004857522
 20
208.9999999999998
 30
0.0
 11
256.4750004857521
 21
209.9999999999998
 31
0.0
  0
LINE
  5
101048E
330
1F
100
AcDbEntity
  8
0
100
AcDbLine
 10
256.4750004857521
 20
209.9999999999998
 30
0.0
 11
242.4750004857522
 21
209.9999999999998
 31
0.0
  0
LINE
  5
101048F
330
1F
100
AcDbEntity
  8
0
100
AcDbLine
 10
388.5750004857492
 20
209.9999999999998
 30
0.0
 11
389.5750004857491
 21
209.0000000000003
 31
0.0
  0
LINE
  5
1010490
330
1F
100
AcDbEntity
  8
0
100
AcDbLine
 10
389.5750004857491
 20
209.0000000000003
 30
0.0
 11
389.5750004857482
 21
194.9999999999996
 31
0.0
  0
LINE
  5
1010491
330
1F
100
AcDbEntity
  8
0
100
AcDbLine
 10
389.5750004857482
 20
194.9999999999996
 30
0.0
 11
403.1750004857482
 21
194.9999999999996
 31
0.0
  0
LINE
  5
1010492
330
1F
100
AcDbEntity
  8
0
100
AcDbLine
 10
403.1750004857482
 20
194.9999999999996
 30
0.0
 11
403.1750004857482
 21
209.0
 31
0.0
  0
LINE
  5
1010493
330
1F
100
AcDbEntity
  8
0
100
AcDbLine
 10
403.1750004857482
 20
209.0
 30
0.0
 11
404.1750004857481
 21
209.9999999999998
 31
0.0
  0
LINE
  5
1010494
330
1F
100
AcDbEntity
  8
0
100
AcDbLine
 10
404.1750004857481
 20
209.9999999999998
 30
0.0
 11
418.1750004857479
 21
209.9999999999998
 31
0.0
  0
LINE
  5
1010495
330
1F
100
AcDbEntity
  8
0
100
AcDbLine
 10
418.1750004857479
 20
209.9999999999998
 30
0.0
 11
419.1750004857481
 21
209.0
 31
0.0
  0
LINE
  5
1010496
330
1F
100
AcDbEntity
  8
0
100
AcDbLine
 10
419.1750004857481
 20
209.0
 30
0.0
 11
419.1750004857481
 21
194.9999999999996
 31
0.0
  0
LINE
  5
1010497
330
1F
100
AcDbEntity
  8
0
100
AcDbLine
 10
419.1750004857481
 20
194.9999999999996
 30
0.0
 11
432.825000485748
 21
194.9999999999997
 31
0.0
  0
LINE
  5
1010498
330
1F
100
AcDbEntity
  8
0
100
AcDbLine
 10
432.825000485748
 20
194.9999999999997
 30
0.0
 11
432.825000485745
 21
209.0000000000001
 31
0.0
  0
LINE
  5
1010499
330
1F
100
AcDbEntity
  8
0
100
AcDbLine
 10
432.825000485745
 20
209.0000000000001
 30
0.0
 11
433.8250004857451
 21
209.9999999999998
 31
0.0
  0
LINE
  5
101049A
330
1F
100
AcDbEntity
  8
0
100
AcDbLine
 10
433.8250004857451
 20
209.9999999999998
 30
0.0
 11
447.825000485745
 21
209.9999999999998
 31
0.0
  0
LINE
  5
101049B
330
1F
100
AcDbEntity
  8
0
100
AcDbLine
 10
447.825000485745
 20
209.9999999999998
 30
0.0
 11
448.825000485745
 21
209.0
 31
0.0
  0
LINE
  5
101049C
330
1F
100
AcDbEntity
  8
0
100
AcDbLine
 10
448.825000485745
 20
209.0
 30
0.0
 11
448.8250004857465
 21
194.9999999999997
 31
0.0
  0
LINE
  5
101049D
330
1F
100
AcDbEntity
  8
0
100
AcDbLine
 10
448.8250004857465
 20
194.9999999999997
 30
0.0
 11
462.5250004857464
 21
194.9999999999997
 31
0.0
  0
LINE
  5
101049E
330
1F
100
AcDbEntity
  8
0
100
AcDbLine
 10
462.5250004857464
 20
194.9999999999997
 30
0.0
 11
462.5250004857454
 21
209.0
 31
0.0
  0
LINE
  5
101049F
330
1F
100
AcDbEntity
  8
0
100
AcDbLine
 10
462.5250004857454
 20
209.0
 30
0.0
 11
463.5250004857449
 21
209.9999999999998
 31
0.0
  0
LINE
  5
10104A0
330
1F
100
AcDbEntity
  8
0
100
AcDbLine
 10
463.5250004857449
 20
209.9999999999998
 30
0.0
 11
477.5250004857448
 21
209.9999999999998
 31
0.0
  0
LINE
  5
10104A1
330
1F
100
AcDbEntity
  8
0
100
AcDbLine
 10
477.5250004857448
 20
209.9999999999998
 30
0.0
 11
478.5250004857448
 21
209.0
 31
0.0
  0
LINE
  5
10104A2
330
1F
100
AcDbEntity
  8
0
100
AcDbLine
 10
478.5250004857448
 20
209.0
 30
0.0
 11
478.5250004857437
 21
194.9999999999997
 31
0.0
  0
LINE
  5
10104A3
330
1F
100
AcDbEntity
  8
0
100
AcDbLine
 10
478.5250004857437
 20
194.9999999999997
 30
0.0
 11
492.2750004857437
 21
194.9999999999998
 31
0.0
  0
LINE
  5
10104A4
330
1F
100
AcDbEntity
  8
0
100
AcDbLine
 10
492.2750004857437
 20
194.9999999999998
 30
0.0
 11
492.2750004857427
 21
209.0
 31
0.0
  0
LINE
  5
10104A5
330
1F
100
AcDbEntity
  8
0
100
AcDbLine
 10
492.2750004857427
 20
209.0
 30
0.0
 11
493.2750004857427
 21
209.9999999999999
 31
0.0
  0
LINE
  5
10104A6
330
1F
100
AcDbEntity
  8
0
100
AcDbLine
 10
493.2750004857427
 20
209.9999999999999
 30
0.0
 11
507.2750004857427
 21
209.9999999999999
 31
0.0
  0
LINE
  5
10104A7
330
1F
100
AcDbEntity
  8
0
100
AcDbLine
 10
507.2750004857427
 20
209.9999999999999
 30
0.0
 11
508.2750004857425
 21
209.0
 31
0.0
  0
LINE
  5
10104A8
330
1F
100
AcDbEntity
  8
0
100
AcDbLine
 10
508.2750004857425
 20
209.0
 30
0.0
 11
508.2750004857414
 21
194.9999999999998
 31
0.0
  0
LINE
  5
10104A9
330
1F
100
AcDbEntity
  8
0
100
AcDbLine
 10
508.2750004857414
 20
194.9999999999998
 30
0.0
 11
522.0750004857416
 21
194.9999999999999
 31
0.0
  0
LINE
  5
10104AA
330
1F
100
AcDbEntity
  8
0
100
AcDbLine
 10
522.0750004857416
 20
194.9999999999999
 30
0.0
 11
522.0750004857416
 21
209.0
 31
0.0
  0
LINE
  5
10104AB
330
1F
100
AcDbEntity
  8
0
100
AcDbLine
 10
522.0750004857416
 20
209.0
 30
0.0
 11
523.0750004857416
 21
209.9999999999999
 31
0.0
  0
LINE
  5
10104AC
330
1F
100
AcDbEntity
  8
0
100
AcDbLine
 10
523.0750004857416
 20
209.9999999999999
 30
0.0
 11
537.0750004857414
 21
209.9999999999999
 31
0.0
  0
LINE
  5
10104AD
330
1F
100
AcDbEntity
  8
0
100
AcDbLine
 10
537.0750004857414
 20
209.9999999999999
 30
0.0
 11
538.0750004857414
 21
209.0
 31
0.0
  0
LINE
  5
10104AE
330
1F
100
AcDbEntity
  8
0
100
AcDbLine
 10
538.0750004857414
 20
209.0
 30
0.0
 11
538.0750004857414
 21
194.9999999999999
 31
0.0
  0
LINE
  5
10104AF
330
1F
100
AcDbEntity
  8
0
100
AcDbLine
 10
538.0750004857414
 20
194.9999999999999
 30
0.0
 11
551.9250004857415
 21
194.9999999999999
 31
0.0
  0
LINE
  5
10104B0
330
1F
100
AcDbEntity
  8
0
100
AcDbLine
 10
551.9250004857415
 20
194.9999999999999
 30
0.0
 11
551.9250004857415
 21
209.0
 31
0.0
  0
LINE
  5
10104B1
330
1F
100
AcDbEntity
  8
0
100
AcDbLine
 10
551.9250004857415
 20
209.0
 30
0.0
 11
552.9250004857413
 21
209.9999999999999
 31
0.0
  0
LINE
  5
10104B2
330
1F
100
AcDbEntity
  8
0
100
AcDbLine
 10
552.9250004857413
 20
209.9999999999999
 30
0.0
 11
566.9250004857412
 21
210.0
 31
0.0
  0
LINE
  5
10104B3
330
1F
100
AcDbEntity
  8
0
100
AcDbLine
 10
566.9250004857412
 20
210.0
 30
0.0
 11
567.9250004857412
 21
209.0
 31
0.0
  0
LINE
  5
10104B4
330
1F
100
AcDbEntity
  8
0
100
AcDbLine
 10
567.9250004857412
 20
209.0
 30
0.0
 11
567.9250004857412
 21
194.9999999999999
 31
0.0
  0
LINE
  5
10104B5
330
1F
100
AcDbEntity
  8
0
100
AcDbLine
 10
567.9250004857412
 20
194.9999999999999
 30
0.0
 11
581.8250004857413
 21
194.9999999999999
 31
0.0
  0
LINE
  5
10104B6
330
1F
100
AcDbEntity
  8
0
100
AcDbLine
 10
581.8250004857413
 20
194.9999999999999
 30
0.0
 11
581.8250004857413
 21
209.0
 31
0.0
  0
LINE
  5
10104B7
330
1F
100
AcDbEntity
  8
0
100
AcDbLine
 10
581.8250004857413
 20
209.0
 30
0.0
 11
582.8250004857411
 21
210.0
 31
0.0
  0
LINE
  5
10104B8
330
1F
100
AcDbEntity
  8
0
100
AcDbLine
 10
582.8250004857411
 20
210.0
 30
0.0
 11
596.8250004857411
 21
210.0
 31
0.0
  0
LINE
  5
10104B9
330
1F
100
AcDbEntity
  8
0
100
AcDbLine
 10
596.8250004857411
 20
210.0
 30
0.0
 11
597.8250004857409
 21
209.0
 31
0.0
  0
LINE
  5
10104BA
330
1F
100
AcDbEntity
  8
0
100
AcDbLine
 10
597.8250004857409
 20
209.0
 30
0.0
 11
597.8250004857409
 21
195.0
 31
0.0
  0
LINE
  5
10104BB
330
1F
100
AcDbEntity
  8
0
100
AcDbLine
 10
597.8250004857409
 20
195.0
 30
0.0
 11
611.7750004857409
 21
195.0
 31
0.0
  0
LINE
  5
10104BC
330
1F
100
AcDbEntity
  8
0
100
AcDbLine
 10
611.7750004857409
 20
195.0
 30
0.0
 11
611.7750004857409
 21
209.0
 31
0.0
  0
LINE
  5
10104BD
330
1F
100
AcDbEntity
  8
0
100
AcDbLine
 10
611.7750004857409
 20
209.0
 30
0.0
 11
612.775000485741
 21
210.0
 31
0.0
  0
LINE
  5
10104BE
330
1F
100
AcDbEntity
  8
0
100
AcDbLine
 10
612.775000485741
 20
210.0
 30
0.0
 11
626.7750004857407
 21
210.0
 31
0.0
  0
LINE
  5
10104BF
330
1F
100
AcDbEntity
  8
0
100
AcDbLine
 10
626.7750004857407
 20
210.0
 30
0.0
 11
627.7750004857407
 21
209.0
 31
0.0
  0
LINE
  5
10104C0
330
1F
100
AcDbEntity
  8
0
100
AcDbLine
 10
627.7750004857407
 20
209.0
 30
0.0
 11
627.7750004857398
 21
195.0
 31
0.0
  0
LINE
  5
10104C1
330
1F
100
AcDbEntity
  8
0
100
AcDbLine
 10
627.7750004857398
 20
195.0
 30
0.0
 11
641.7750004857398
 21
195.0
 31
0.0
  0
LINE
  5
10104C2
330
1F
100
AcDbEntity
  8
0
100
AcDbLine
 10
641.7750004857398
 20
195.0
 30
0.0
 11
641.7750004857398
 21
209.0
 31
0.0
  0
LINE
  5
10104C3
330
1F
100
AcDbEntity
  8
0
100
AcDbLine
 10
641.7750004857398
 20
209.0
 30
0.0
 11
642.7750004857395
 21
210.0
 31
0.0
  0
LINE
  5
10104C4
330
1F
100
AcDbEntity
  8
0
100
AcDbLine
 10
642.7750004857395
 20
210.0
 30
0.0
 11
656.7750004857396
 21
210.0
 31
0.0
  0
LINE
  5
10104C5
330
1F
100
AcDbEntity
  8
0
100
AcDbLine
 10
656.7750004857396
 20
210.0
 30
0.0
 11
656.7750014572615
 21
190.0
 31
0.0
  0
LINE
  5
10104C6
330
1F
100
AcDbEntity
  8
0
100
AcDbLine
 10
656.7750014572615
 20
190.0
 30
0.0
 11
315.5250004857507
 21
190.0000000000004
 31
0.0
  0
LINE
  5
10104C7
330
1F
100
AcDbEntity
  8
0
100
AcDbLine
 10
315.5250004857507
 20
209.9999999999997
 30
0.0
 11
329.5250004857507
 21
209.9999999999997
 31
0.0
  0
LINE
  5
10104C8
330
1F
100
AcDbEntity
  8
0
100
AcDbLine
 10
329.5250004857507
 20
209.9999999999997
 30
0.0
 11
330.5250004857507
 21
209.0
 31
0.0
  0
LINE
  5
10104C9
330
1F
100
AcDbEntity
  8
0
100
AcDbLine
 10
330.5250004857507
 20
209.0
 30
0.0
 11
330.5250004857507
 21
194.9999999999995
 31
0.0
  0
LINE
  5
10104CA
330
1F
100
AcDbEntity
  8
0
100
AcDbLine
 10
330.5250004857507
 20
194.9999999999995
 30
0.0
 11
344.0250004857507
 21
194.9999999999995
 31
0.0
  0
LINE
  5
10104CB
330
1F
100
AcDbEntity
  8
0
100
AcDbLine
 10
344.0250004857507
 20
194.9999999999995
 30
0.0
 11
344.0250004857507
 21
209.0
 31
0.0
  0
LINE
  5
10104CC
330
1F
100
AcDbEntity
  8
0
100
AcDbLine
 10
344.0250004857507
 20
209.0
 30
0.0
 11
345.0250004857502
 21
209.9999999999997
 31
0.0
  0
LINE
  5
10104CD
330
1F
100
AcDbEntity
  8
0
100
AcDbLine
 10
345.0250004857502
 20
209.9999999999997
 30
0.0
 11
359.0250004857502
 21
209.9999999999997
 31
0.0
  0
LINE
  5
10104CE
330
1F
100
AcDbEntity
  8
0
100
AcDbLine
 10
359.0250004857502
 20
209.9999999999997
 30
0.0
 11
360.0250004857502
 21
209.0
 31
0.0
  0
LINE
  5
10104CF
330
1F
100
AcDbEntity
  8
0
100
AcDbLine
 10
360.0250004857502
 20
209.0
 30
0.0
 11
360.0250004857502
 21
194.9999999999996
 31
0.0
  0
LINE
  5
10104D0
330
1F
100
AcDbEntity
  8
0
100
AcDbLine
 10
360.0250004857502
 20
194.9999999999996
 30
0.0
 11
373.5750004857502
 21
194.9999999999996
 31
0.0
  0
LINE
  5
10104D1
330
1F
100
AcDbEntity
  8
0
100
AcDbLine
 10
373.5750004857502
 20
194.9999999999996
 30
0.0
 11
373.5750004857492
 21
208.9999999999998
 31
0.0
  0
LINE
  5
10104D2
330
1F
100
AcDbEntity
  8
0
100
AcDbLine
 10
373.5750004857492
 20
208.9999999999998
 30
0.0
 11
374.5750004857493
 21
209.9999999999998
 31
0.0
  0
LINE
  5
10104D3
330
1F
100
AcDbEntity
  8
0
100
AcDbLine
 10
374.5750004857493
 20
209.9999999999998
 30
0.0
 11
388.5750004857492
 21
209.9999999999998
 31
0.0
  0
MTEXT
  5
10104DA
330
1F
100
AcDbEntity
  8
0
  6
Continuous
100
AcDbMText
 10
-24.25161701713643
 20
-5.381060900105703
 30
0.0
 40
2.874420244265472
 41
0.0
 46
0.0
 71
     1
 72
     5
  1
{\fArial|b0|i0|c0|p34;1.4 mm}
 73
     1
 44
1.0
  0
MTEXT
  5
10104DB
330
1F
100
AcDbEntity
  8
0
  6
Continuous
100
AcDbMText
 10
-24.25161701713643
 20
34.6189390998943
 30
0.0
 40
2.874420244265472
 41
0.0
 46
0.0
 71
     1
 72
     5
  1
{\fArial|b0|i0|c0|p34;3.0 mm}
 73
     1
 44
1.0
  0
MTEXT
  5
10104DC
330
1F
100
AcDbEntity
  8
0
  6
Continuous
100
AcDbMText
 10
-24.25161701713643
 20
71.80482668339255
 30
0.0
 40
2.874420244265472
 41
0.0
 46
0.0
 71
     1
 72
     5
  1
{\fArial|b0|i0|c0|p34;5.0 mm}
 73
     1
 44
1.0
  0
MTEXT
  5
10104DD
330
1F
100
AcDbEntity
  8
0
  6
Continuous
100
AcDbMText
 10
-24.25161701713643
 20
114.8199463296705
 30
0.0
 40
2.874420244265472
 41
0.0
 46
0.0
 71
     1
 72
     5
  1
{\fArial|b0|i0|c0|p34;6.0 mm}
 73
     1
 44
1.0
  0
MTEXT
  5
10104DE
330
1F
100
AcDbEntity
  8
0
  6
Continuous
100
AcDbMText
 10
-24.25161701713643
 20
154.8010059617295
 30
0.0
 40
2.874420244265472
 41
0.0
 46
0.0
 71
     1
 72
     5
  1
{\fArial|b0|i0|c0|p34;10.0 mm}
 73
     1
 44
1.0
  0
MTEXT
  5
10104DF
330
1F
100
AcDbEntity
  8
0
  6
Continuous
100
AcDbMText
 10
-24.25161701713643
 20
194.603946674948
 30
0.0
 40
2.874420244265472
 41
0.0
 46
0.0
 71
     1
 72
     5
  1
{\fArial|b0|i0|c0|p34;14.0 mm}
 73
     1
 44
1.0
  0
ENDSEC
  0
SECTION
  2
OBJECTS
  0
DICTIONARY
  5
C
330
0
100
AcDbDictionary
281
     1
  3
ACAD_CIP_PREVIOUS_PRODUCT_INFO
350
101005A
  3
ACAD_COLOR
350
1010036
  3
ACAD_DETAILVIEWSTYLE
350
1010050
  3
ACAD_GROUP
350
D
  3
ACAD_LAYOUT
350
1010053
  3
ACAD_MATERIAL
350
1010004
  3
ACAD_MLEADERSTYLE
350
101004C
  3
ACAD_MLINESTYLE
350
17
  3
ACAD_PLOTSETTINGS
350
1010054
  3
ACAD_PLOTSTYLENAME
350
1010002
  3
ACAD_SCALELIST
350
101003A
  3
ACAD_SECTIONVIEWSTYLE
350
101004E
  3
ACAD_TABLESTYLE
350
1010037
  3
ACAD_VISUALSTYLE
350
101001D
  3
ACDB_RECOMPOSE_DATA
350
10104F2
  3
AcDbVariableDictionary
350
10104E6
  0
DICTIONARY
  5
10104E0
330
50
100
AcDbDictionary
280
     1
281
     1
  3
ADSK_XREC_LAYER_RECONCILED
360
10104E1
  0
DICTIONARY
  5
10104E2
330
51
100
AcDbDictionary
280
     1
281
     1
  3
ADSK_XREC_LAYER_RECONCILED
360
10104E3
  0
DICTIONARY
  5
10104E4
330
52
100
AcDbDictionary
280
     1
281
     1
  3
ADSK_XREC_LAYER_RECONCILED
360
10104E5
  0
DICTIONARY
  5
1010130
330
1F
100
AcDbDictionary
280
     1
281
     1
  3
ACAD_SORTENTS
360
1010131
  0
XRECORD
  5
101005A
102
{ACAD_REACTORS
330
C
102
}
330
C
100
AcDbXrecord
280
     1
300
ACD
300
2017
300
ACD_F_S
  0
DICTIONARY
  5
1010036
102
{ACAD_REACTORS
330
C
102
}
330
C
100
AcDbDictionary
281
     1
  0
DICTIONARY
  5
1010050
102
{ACAD_REACTORS
330
C
102
}
330
C
100
AcDbDictionary
281
     1
  3
Imperial24
350
1010051
  0
DICTIONARY
  5
D
330
C
100
AcDbDictionary
281
     1
  0
DICTIONARY
  5
1010053
102
{ACAD_REACTORS
330
C
102
}
330
C
100
AcDbDictionary
281
     1
  3
Model
350
1010055
  3
Présentation1
350
1010056
  0
DICTIONARY
  5
1010004
102
{ACAD_REACTORS
330
C
102
}
330
C
100
AcDbDictionary
281
     1
  3
ByBlock
350
101000D
  3
ByLayer
350
1010005
  3
Global
350
1010015
  0
DICTIONARY
  5
101004C
102
{ACAD_REACTORS
330
C
102
}
330
C
100
AcDbDictionary
281
     1
  3
Standard
350
101004D
  0
DICTIONARY
  5
17
330
C
100
AcDbDictionary
281
     1
  3
Standard
350
1010039
  0
DICTIONARY
  5
1010054
102
{ACAD_REACTORS
330
C
102
}
330
C
100
AcDbDictionary
281
     1
  0
ACDBDICTIONARYWDFLT
  5
1010002
102
{ACAD_REACTORS
330
C
102
}
330
C
100
AcDbDictionary
281
     1
  3
Normal
350
1010003
100
AcDbDictionaryWithDefault
340
1010003
  0
DICTIONARY
  5
101003A
102
{ACAD_REACTORS
330
C
102
}
330
C
100
AcDbDictionary
281
     1
  3
A0
350
101003B
  3
A1
350
101003C
  3
A2
350
101003D
  3
A3
350
101003E
  3
A4
350
101003F
  3
A5
350
1010040
  3
A6
350
1010041
  3
A7
350
1010042
  3
A8
350
1010043
  3
A9
350
1010044
  3
B0
350
1010045
  3
B1
350
1010046
  3
B2
350
1010047
  3
B3
350
1010048
  3
B4
350
1010049
  3
B5
350
101004A
  3
B6
350
101004B
  0
DICTIONARY
  5
101004E
102
{ACAD_REACTORS
330
C
102
}
330
C
100
AcDbDictionary
281
     1
  3
Imperial24
350
101004F
  0
DICTIONARY
  5
1010037
102
{ACAD_REACTORS
330
C
102
}
330
C
100
AcDbDictionary
281
     1
  3
Standard
350
1010038
  0
DICTIONARY
  5
101001D
102
{ACAD_REACTORS
330
C
102
}
330
C
100
AcDbDictionary
281
     1
  3
2dWireframe
350
1010023
  3
Basic
350
1010022
  3
Brighten
350
1010029
  3
ColorChange
350
101002D
  3
Conceptual
350
1010026
  3
Dim
350
1010028
  3
EdgeColorOff
350
1010035
  3
Facepattern
350
101002C
  3
Flat
350
101001E
  3
FlatWithEdges
350
101001F
  3
Gouraud
350
1010020
  3
GouraudWithEdges
350
1010021
  3
Hidden
350
1010025
  3
JitterOff
350
1010033
  3
Linepattern
350
101002B
  3
OverhangOff
350
1010034
  3
Realistic
350
1010027
  3
Shaded
350
1010032
  3
Shaded with edges
350
1010031
  3
Shades of Gray
350
101002E
  3
Sketchy
350
101002F
  3
Thicken
350
101002A
  3
Wireframe
350
1010024
  3
X-Ray
350
1010030
  0
XRECORD
  5
10104F2
102
{ACAD_REACTORS
330
C
102
}
330
C
100
AcDbXrecord
280
     1
 90
        1
330
1010038
  0
DICTIONARY
  5
10104E6
102
{ACAD_REACTORS
330
C
102
}
330
C
100
AcDbDictionary
281
     1
  3
CANNOSCALE
350
10104EC
  3
CMLEADERSTYLE
350
10104E8
  3
CTABLESTYLE
350
10104E7
  3
CVIEWDETAILSTYLE
350
10104E9
  3
CVIEWSECTIONSTYLE
350
10104EA
  3
LAYEREVAL
350
10104EE
  3
LAYERNOTIFY
350
10104EF
  3
LIGHTINGUNITS
350
10104ED
  3
MSLTSCALE
350
10104EB
  0
XRECORD
  5
10104E1
102
{ACAD_REACTORS
330
10104E0
102
}
330
10104E0
100
AcDbXrecord
280
     1
290
     1
  0
XRECORD
  5
10104E3
102
{ACAD_REACTORS
330
10104E2
102
}
330
10104E2
100
AcDbXrecord
280
     1
290
     1
  0
XRECORD
  5
10104E5
102
{ACAD_REACTORS
330
10104E4
102
}
330
10104E4
100
AcDbXrecord
280
     1
290
     1
  0
SORTENTSTABLE
  5
1010131
102
{ACAD_REACTORS
330
1010130
102
}
330
1010130
100
AcDbSortentsTable
330
1F
331
10103A8
  5
10103A8
331
1010458
  5
1010458
331
1010200
  5
1010200
331
10100F0
  5
10100F0
331
1010322
  5
1010322
331
1010169
  5
1010169
331
1010121
  5
1010121
331
1010112
  5
1010112
331
1010078
  5
1010078
331
101037B
  5
101037B
331
1010313
  5
1010313
331
101009A
  5
101009A
331
11A
  5
11A
331
13C
  5
13C
331
10102E6
  5
10102E6
331
10102D7
  5
10102D7
331
1010076
  5
1010076
331
10103D9
  5
10103D9
331
10102F8
  5
10102F8
331
1010482
  5
1010482
331
10103CA
  5
10103CA
331
10102B1
  5
10102B1
331
1010239
  5
1010239
331
10102A2
  5
10102A2
331
101022A
  5
101022A
331
10103FB
  5
10103FB
331
101014B
  5
101014B
331
10103EC
  5
10103EC
331
1010455
  5
1010455
331
10103A5
  5
10103A5
331
10102C4
  5
10102C4
331
101024C
  5
101024C
331
1010396
  5
1010396
331
10101FD
  5
10101FD
331
10101EE
  5
10101EE
331
101015E
  5
101015E
331
101013C
  5
101013C
331
1010477
  5
1010477
331
101021F
  5
101021F
331
10101D7
  5
10101D7
331
101010F
  5
101010F
331
1010097
  5
1010097
331
1010067
  5
1010067
331
12D
  5
12D
331
10B
  5
10B
331
10103B8
  5
10103B8
331
1010468
  5
1010468
331
1010210
  5
1010210
331
1010100
  5
1010100
331
10103A9
  5
10103A9
331
1010459
  5
1010459
331
1010201
  5
1010201
331
10100F1
  5
10100F1
331
1010088
  5
1010088
331
1010323
  5
1010323
331
101016A
  5
101016A
331
1010122
  5
1010122
331
1010113
  5
1010113
331
1010079
  5
1010079
331
140
  5
140
331
101037C
  5
101037C
331
1010314
  5
1010314
331
101009B
  5
101009B
331
11B
  5
11B
331
13D
  5
13D
331
10102E7
  5
10102E7
331
1010308
  5
1010308
331
1010077
  5
1010077
331
12E
  5
12E
331
10C
  5
10C
331
10103DA
  5
10103DA
331
10102F9
  5
10102F9
331
1010483
  5
1010483
331
10103CB
  5
10103CB
331
10102B2
  5
10102B2
331
101023A
  5
101023A
331
10102A3
  5
10102A3
331
101022B
  5
101022B
331
10103FC
  5
10103FC
331
101014C
  5
101014C
331
10103ED
  5
10103ED
331
1010456
  5
1010456
331
10103A6
  5
10103A6
331
10102C5
  5
10102C5
331
101024D
  5
101024D
331
1010397
  5
1010397
331
10101FE
  5
10101FE
331
10101EF
  5
10101EF
331
101015F
  5
101015F
331
101013D
  5
101013D
331
100
  5
100
331
1010388
  5
1010388
331
10101E0
  5
10101E0
331
10101D8
  5
10101D8
331
1010150
  5
1010150
331
10103B9
  5
10103B9
331
1010469
  5
1010469
331
1010211
  5
1010211
331
1010101
  5
1010101
331
10103AA
  5
10103AA
331
101045A
  5
101045A
331
1010202
  5
1010202
331
10100F2
  5
10100F2
331
1010089
  5
1010089
331
1010324
  5
1010324
331
101016B
  5
101016B
331
1010123
  5
1010123
331
1010114
  5
1010114
331
101007A
  5
101007A
331
141
  5
141
331
101037D
  5
101037D
331
1010315
  5
1010315
331
101009C
  5
101009C
331
11C
  5
11C
331
13E
  5
13E
331
10102D8
  5
10102D8
331
1010309
  5
1010309
331
1010068
  5
1010068
331
12F
  5
12F
331
10D
  5
10D
331
10103DB
  5
10103DB
331
10102FA
  5
10102FA
331
1010484
  5
1010484
331
10103CC
  5
10103CC
331
10102B3
  5
10102B3
331
101023B
  5
101023B
331
10102A4
  5
10102A4
331
101022C
  5
101022C
331
10103FD
  5
10103FD
331
101014D
  5
101014D
331
10103EE
  5
10103EE
331
1010457
  5
1010457
331
10103A7
  5
10103A7
331
10102C6
  5
10102C6
331
101024E
  5
101024E
331
10101FF
  5
10101FF
331
101013E
  5
101013E
331
101
  5
101
331
1010398
  5
1010398
331
1010389
  5
1010389
331
10101F0
  5
10101F0
331
1010160
  5
1010160
331
10101E1
  5
10101E1
331
10101D9
  5
10101D9
331
1010151
  5
1010151
331
10103BA
  5
10103BA
331
101046A
  5
101046A
331
1010212
  5
1010212
331
10101CA
  5
10101CA
331
1010102
  5
1010102
331
10103AB
  5
10103AB
331
101045B
  5
101045B
331
1010203
  5
1010203
331
10100F3
  5
10100F3
331
101008A
  5
101008A
331
1010325
  5
1010325
331
101016C
  5
101016C
331
1010124
  5
1010124
331
1010115
  5
1010115
331
101007B
  5
101007B
331
142
  5
142
331
101037E
  5
101037E
331
1010316
  5
1010316
331
101009D
  5
101009D
331
11D
  5
11D
331
10102E8
  5
10102E8
331
10102D9
  5
10102D9
331
101030A
  5
101030A
331
1010069
  5
1010069
331
13F
  5
13F
331
10E
  5
10E
331
10103DC
  5
10103DC
331
10102FB
  5
10102FB
331
1010485
  5
1010485
331
10103CD
  5
10103CD
331
10102B4
  5
10102B4
331
101023C
  5
101023C
331
10102A5
  5
10102A5
331
101022D
  5
101022D
331
10103FE
  5
10103FE
331
101014E
  5
101014E
331
10103EF
  5
10103EF
331
10102C7
  5
10102C7
331
101024F
  5
101024F
331
101013F
  5
101013F
331
102
  5
102
331
10103E0
  5
10103E0
331
1010399
  5
1010399
331
10102B8
  5
10102B8
331
1010240
  5
1010240
331
1010449
  5
1010449
331
101038A
  5
101038A
331
10101F1
  5
10101F1
331
1010161
  5
1010161
331
10101E2
  5
10101E2
331
10101DA
  5
10101DA
331
1010152
  5
1010152
331
10103BB
  5
10103BB
331
101046B
  5
101046B
331
1010213
  5
1010213
331
10101CB
  5
10101CB
331
1010103
  5
1010103
331
10103AC
  5
10103AC
331
101045C
  5
101045C
331
1010204
  5
1010204
331
10100F4
  5
10100F4
331
101008B
  5
101008B
331
1010326
  5
1010326
331
101016D
  5
101016D
331
1010125
  5
1010125
331
1010116
  5
1010116
331
101007C
  5
101007C
331
143
  5
143
331
101037F
  5
101037F
331
1010317
  5
1010317
331
101009E
  5
101009E
331
11E
  5
11E
331
10102E9
  5
10102E9
331
10102DA
  5
10102DA
331
101030B
  5
101030B
331
101006A
  5
101006A
331
130
  5
130
331
10F
  5
10F
331
10103DD
  5
10103DD
331
10102FC
  5
10102FC
331
1010486
  5
1010486
331
10103CE
  5
10103CE
331
10102B5
  5
10102B5
331
101023D
  5
101023D
331
10102A6
  5
10102A6
331
101022E
  5
101022E
331
101014F
  5
101014F
331
103
  5
103
331
10103F0
  5
10103F0
331
10103E1
  5
10103E1
331
10102C8
  5
10102C8
331
1010250
  5
1010250
331
101039A
  5
101039A
331
10102B9
  5
10102B9
331
1010241
  5
1010241
331
101044A
  5
101044A
331
10101F2
  5
10101F2
331
1010162
  5
1010162
331
1010140
  5
1010140
331
101038B
  5
101038B
331
10101E3
  5
10101E3
331
10101DB
  5
10101DB
331
1010153
  5
1010153
331
10100EA
  5
10100EA
331
10103BC
  5
10103BC
331
101046C
  5
101046C
331
1010214
  5
1010214
331
10101CC
  5
10101CC
331
1010104
  5
1010104
331
10103AD
  5
10103AD
331
101045D
  5
101045D
331
1010205
  5
1010205
331
10100F5
  5
10100F5
331
101008C
  5
101008C
331
1010327
  5
1010327
331
101016E
  5
101016E
331
1010126
  5
1010126
331
1010117
  5
1010117
331
101007D
  5
101007D
331
144
  5
144
331
101009F
  5
101009F
331
10102EA
  5
10102EA
331
10102DB
  5
10102DB
331
101030C
  5
101030C
331
101006B
  5
101006B
331
131
  5
131
331
11F
  5
11F
331
10103DE
  5
10103DE
331
10102FD
  5
10102FD
331
1010487
  5
1010487
331
10103CF
  5
10103CF
331
10102B6
  5
10102B6
331
101023E
  5
101023E
331
10102A7
  5
10102A7
331
101022F
  5
101022F
331
104
  5
104
331
1010478
  5
1010478
331
10103C0
  5
10103C0
331
1010220
  5
1010220
331
10103F1
  5
10103F1
331
10102C9
  5
10102C9
331
1010251
  5
1010251
331
1010141
  5
1010141
331
10103E2
  5
10103E2
331
101039B
  5
101039B
331
10102BA
  5
10102BA
331
1010242
  5
1010242
331
101044B
  5
101044B
331
10101F3
  5
10101F3
331
1010163
  5
1010163
331
1010132
  5
1010132
331
101038C
  5
101038C
331
10101E4
  5
10101E4
331
10101DC
  5
10101DC
331
1010154
  5
1010154
331
10100EB
  5
10100EB
331
10103BD
  5
10103BD
331
101046D
  5
101046D
331
1010215
  5
1010215
331
10101CD
  5
10101CD
331
1010105
  5
1010105
331
10103AE
  5
10103AE
331
101045E
  5
101045E
331
1010206
  5
1010206
331
10100F6
  5
10100F6
331
101008D
  5
101008D
331
1010380
  5
1010380
331
1010318
  5
1010318
331
101016F
  5
101016F
331
1010127
  5
1010127
331
101007E
  5
101007E
331
145
  5
145
331
10102EB
  5
10102EB
331
10102DC
  5
10102DC
331
101030D
  5
101030D
331
101006C
  5
101006C
331
132
  5
132
331
110
  5
110
331
10103DF
  5
10103DF
331
10102FE
  5
10102FE
331
10102B7
  5
10102B7
331
101023F
  5
101023F
331
105
  5
105
331
1010488
  5
1010488
331
10103D0
  5
10103D0
331
1010479
  5
1010479
331
10103C1
  5
10103C1
331
10102A8
  5
10102A8
331
1010230
  5
1010230
331
1010221
  5
1010221
331
10103F2
  5
10103F2
331
10102CA
  5
10102CA
331
1010252
  5
1010252
331
1010142
  5
1010142
331
10103E3
  5
10103E3
331
101039C
  5
101039C
331
10102BB
  5
10102BB
331
1010243
  5
1010243
331
101044C
  5
101044C
331
10101F4
  5
10101F4
331
1010164
  5
1010164
331
1010133
  5
1010133
331
101038D
  5
101038D
331
10103BE
  5
10103BE
331
10101E5
  5
10101E5
331
10101DD
  5
10101DD
331
1010155
  5
1010155
331
101046E
  5
101046E
331
1010216
  5
1010216
331
10101CE
  5
10101CE
331
1010106
  5
1010106
331
10100EC
  5
10100EC
331
10103AF
  5
10103AF
331
101045F
  5
101045F
331
1010207
  5
1010207
331
10100F7
  5
10100F7
331
101008E
  5
101008E
331
1010328
  5
1010328
331
1010118
  5
1010118
331
101007F
  5
101007F
331
1010381
  5
1010381
331
1010319
  5
1010319
331
120
  5
120
331
10102EC
  5
10102EC
331
10102DD
  5
10102DD
331
101030E
  5
101030E
331
101006D
  5
101006D
331
133
  5
133
331
111
  5
111
331
10102FF
  5
10102FF
331
106
  5
106
331
1010489
  5
1010489
331
10103D1
  5
10103D1
331
10102F0
  5
10102F0
331
101047A
  5
101047A
331
10103C2
  5
10103C2
331
10102A9
  5
10102A9
331
1010231
  5
1010231
331
1010222
  5
1010222
331
10103F3
  5
10103F3
331
10102CB
  5
10102CB
331
1010253
  5
1010253
331
1010143
  5
1010143
331
10103E4
  5
10103E4
331
101039D
  5
101039D
331
10102BC
  5
10102BC
331
1010244
  5
1010244
331
101044D
  5
101044D
331
10101F5
  5
10101F5
331
1010165
  5
1010165
331
1010134
  5
1010134
331
101038E
  5
101038E
331
10103BF
  5
10103BF
331
10101E6
  5
10101E6
331
10101DE
  5
10101DE
331
1010156
  5
1010156
331
101046F
  5
101046F
331
1010217
  5
1010217
331
10101CF
  5
10101CF
331
1010107
  5
1010107
331
10100ED
  5
10100ED
331
1010329
  5
1010329
331
1010170
  5
1010170
331
1010128
  5
1010128
331
1010119
  5
1010119
331
101008F
  5
101008F
331
1010382
  5
1010382
331
101031A
  5
101031A
331
121
  5
121
331
101005B
  5
101005B
331
10102ED
  5
10102ED
331
10102DE
  5
10102DE
331
101030F
  5
101030F
331
101006E
  5
101006E
331
134
  5
134
331
112
  5
112
331
107
  5
107
331
1010300
  5
1010300
331
101048A
  5
101048A
331
10103D2
  5
10103D2
331
10102F1
  5
10102F1
331
101047B
  5
101047B
331
10103C3
  5
10103C3
331
10102AA
  5
10102AA
331
1010232
  5
1010232
331
1010223
  5
1010223
331
10103F4
  5
10103F4
331
10102CC
  5
10102CC
331
1010254
  5
1010254
331
1010144
  5
1010144
331
10103E5
  5
10103E5
331
101039E
  5
101039E
331
10102BD
  5
10102BD
331
1010245
  5
1010245
331
101044E
  5
101044E
331
10101F6
  5
10101F6
331
1010166
  5
1010166
331
1010135
  5
1010135
331
101038F
  5
101038F
331
10103B0
  5
10103B0
331
10101E7
  5
10101E7
331
10101DF
  5
10101DF
331
1010157
  5
1010157
331
1010460
  5
1010460
331
1010208
  5
1010208
331
10100F8
  5
10100F8
331
10100EE
  5
10100EE
331
1010171
  5
1010171
331
1010129
  5
1010129
331
101011A
  5
101011A
331
1010080
  5
1010080
331
1010383
  5
1010383
331
101031B
  5
101031B
331
122
  5
122
331
1010374
  5
1010374
331
101005C
  5
101005C
331
10102EE
  5
10102EE
331
10102DF
  5
10102DF
331
101006F
  5
101006F
331
135
  5
135
331
113
  5
113
331
10102D0
  5
10102D0
331
1010301
  5
1010301
331
101048B
  5
101048B
331
10103D3
  5
10103D3
331
10102F2
  5
10102F2
331
101047C
  5
101047C
331
10103C4
  5
10103C4
331
10102AB
  5
10102AB
331
1010233
  5
1010233
331
1010224
  5
1010224
331
10103F5
  5
10103F5
331
10102CD
  5
10102CD
331
1010145
  5
1010145
331
10103E6
  5
10103E6
331
101039F
  5
101039F
331
10102BE
  5
10102BE
331
1010246
  5
1010246
331
101044F
  5
101044F
331
10101F7
  5
10101F7
331
1010167
  5
1010167
331
1010136
  5
1010136
331
1010470
  5
1010470
331
1010218
  5
1010218
331
10101D0
  5
10101D0
331
1010108
  5
1010108
331
10100EF
  5
10100EF
331
10103B1
  5
10103B1
331
1010461
  5
1010461
331
1010209
  5
1010209
331
10100F9
  5
10100F9
331
1010090
  5
1010090
331
1010172
  5
1010172
331
101012A
  5
101012A
331
101011B
  5
101011B
331
1010081
  5
1010081
331
1010060
  5
1010060
331
1010384
  5
1010384
331
101031C
  5
101031C
331
123
  5
123
331
1010375
  5
1010375
331
101005D
  5
101005D
331
10102EF
  5
10102EF
331
136
  5
136
331
114
  5
114
331
10102E0
  5
10102E0
331
10102D1
  5
10102D1
331
1010070
  5
1010070
331
1010302
  5
1010302
331
101048C
  5
101048C
331
10103D4
  5
10103D4
331
10102F3
  5
10102F3
331
101047D
  5
101047D
331
10103C5
  5
10103C5
331
10102AC
  5
10102AC
331
1010234
  5
1010234
331
1010225
  5
1010225
331
10103F6
  5
10103F6
331
10102CE
  5
10102CE
331
1010146
  5
1010146
331
10103E7
  5
10103E7
331
1010390
  5
1010390
331
10102BF
  5
10102BF
331
1010247
  5
1010247
331
10101E8
  5
10101E8
331
1010158
  5
1010158
331
1010137
  5
1010137
331
1010471
  5
1010471
331
1010219
  5
1010219
331
10101D1
  5
10101D1
331
1010109
  5
1010109
331
10103B2
  5
10103B2
331
1010462
  5
1010462
331
101020A
  5
101020A
331
10100FA
  5
10100FA
331
1010091
  5
1010091
331
1010173
  5
1010173
331
101012B
  5
101012B
331
101011C
  5
101011C
331
1010082
  5
1010082
331
1010061
  5
1010061
331
1010385
  5
1010385
331
101031D
  5
101031D
331
124
  5
124
331
1010376
  5
1010376
331
101005E
  5
101005E
331
137
  5
137
331
115
  5
115
331
10102E1
  5
10102E1
331
10102D2
  5
10102D2
331
1010071
  5
1010071
331
1010303
  5
1010303
331
101048D
  5
101048D
331
10103D5
  5
10103D5
331
10102F4
  5
10102F4
331
101047E
  5
101047E
331
10103C6
  5
10103C6
331
10102AD
  5
10102AD
331
1010235
  5
1010235
331
1010226
  5
1010226
331
10103F7
  5
10103F7
331
1010450
  5
1010450
331
10103A0
  5
10103A0
331
10102CF
  5
10102CF
331
1010391
  5
1010391
331
10101F8
  5
10101F8
331
10101E9
  5
10101E9
331
1010159
  5
1010159
331
1010147
  5
1010147
331
1010472
  5
1010472
331
101021A
  5
101021A
331
10101D2
  5
10101D2
331
101010A
  5
101010A
331
10103B3
  5
10103B3
331
1010463
  5
1010463
331
101020B
  5
101020B
331
10100FB
  5
10100FB
331
1010092
  5
1010092
331
1010174
  5
1010174
331
101012C
  5
101012C
331
101011D
  5
101011D
331
1010083
  5
1010083
331
1010062
  5
1010062
331
128
  5
128
331
1010386
  5
1010386
331
101031E
  5
101031E
331
125
  5
125
331
1010377
  5
1010377
331
101005F
  5
101005F
331
116
  5
116
331
138
  5
138
331
10102E2
  5
10102E2
331
10102D3
  5
10102D3
331
1010072
  5
1010072
331
1010304
  5
1010304
331
101048E
  5
101048E
331
10103D6
  5
10103D6
331
10102F5
  5
10102F5
331
101047F
  5
101047F
331
10103C7
  5
10103C7
331
10102AE
  5
10102AE
331
1010236
  5
1010236
331
101029F
  5
101029F
331
1010227
  5
1010227
331
10103E8
  5
10103E8
331
1010451
  5
1010451
331
10103A1
  5
10103A1
331
10102C0
  5
10102C0
331
1010248
  5
1010248
331
1010392
  5
1010392
331
10101F9
  5
10101F9
331
10101EA
  5
10101EA
331
101015A
  5
101015A
331
1010138
  5
1010138
331
1010473
  5
1010473
331
101021B
  5
101021B
331
10101D3
  5
10101D3
331
101010B
  5
101010B
331
10103B4
  5
10103B4
331
1010464
  5
1010464
331
101020C
  5
101020C
331
10100FC
  5
10100FC
331
1010093
  5
1010093
331
1010175
  5
1010175
331
101012D
  5
101012D
331
101011E
  5
101011E
331
1010084
  5
1010084
331
1010063
  5
1010063
331
129
  5
129
331
1010387
  5
1010387
331
101031F
  5
101031F
331
126
  5
126
331
117
  5
117
331
1010378
  5
1010378
331
1010310
  5
1010310
331
139
  5
139
331
10102E3
  5
10102E3
331
10102D4
  5
10102D4
331
1010073
  5
1010073
331
1010305
  5
1010305
331
10103D7
  5
10103D7
331
10102F6
  5
10102F6
331
10102AF
  5
10102AF
331
1010237
  5
1010237
331
10103F8
  5
10103F8
331
1010148
  5
1010148
331
10103E9
  5
10103E9
331
1010452
  5
1010452
331
10103A2
  5
10103A2
331
10102C1
  5
10102C1
331
1010249
  5
1010249
331
1010393
  5
1010393
331
10101FA
  5
10101FA
331
10101EB
  5
10101EB
331
101015B
  5
101015B
331
1010139
  5
1010139
331
1010474
  5
1010474
331
101021C
  5
101021C
331
10101D4
  5
10101D4
331
101010C
  5
101010C
331
10103B5
  5
10103B5
331
1010465
  5
1010465
331
101020D
  5
101020D
331
10100FD
  5
10100FD
331
1010094
  5
1010094
331
1010176
  5
1010176
331
101012E
  5
101012E
331
101011F
  5
101011F
331
1010085
  5
1010085
331
1010064
  5
1010064
331
12A
  5
12A
331
127
  5
127
331
108
  5
108
331
1010320
  5
1010320
331
1010110
  5
1010110
331
1010379
  5
1010379
331
1010311
  5
1010311
331
1010098
  5
1010098
331
118
  5
118
331
13A
  5
13A
331
10102E4
  5
10102E4
331
10102D5
  5
10102D5
331
1010074
  5
1010074
331
1010306
  5
1010306
331
1010480
  5
1010480
331
10103C8
  5
10103C8
331
10102F7
  5
10102F7
331
10102A0
  5
10102A0
331
1010228
  5
1010228
331
10103F9
  5
10103F9
331
1010149
  5
1010149
331
10103EA
  5
10103EA
331
1010453
  5
1010453
331
10103A3
  5
10103A3
331
10102C2
  5
10102C2
331
101024A
  5
101024A
331
1010394
  5
1010394
331
10101FB
  5
10101FB
331
10101EC
  5
10101EC
331
101015C
  5
101015C
331
101013A
  5
101013A
331
1010475
  5
1010475
331
101021D
  5
101021D
331
10101D5
  5
10101D5
331
101010D
  5
101010D
331
10103B6
  5
10103B6
331
1010466
  5
1010466
331
101020E
  5
101020E
331
10100FE
  5
10100FE
331
1010095
  5
1010095
331
101012F
  5
101012F
331
1010086
  5
1010086
331
1010065
  5
1010065
331
12B
  5
12B
331
109
  5
109
331
1010321
  5
1010321
331
1010168
  5
1010168
331
1010120
  5
1010120
331
1010111
  5
1010111
331
101037A
  5
101037A
331
1010312
  5
1010312
331
1010099
  5
1010099
331
119
  5
119
331
13B
  5
13B
331
10102E5
  5
10102E5
331
10102D6
  5
10102D6
331
1010075
  5
1010075
331
10103D8
  5
10103D8
331
1010307
  5
1010307
331
1010481
  5
1010481
331
10103C9
  5
10103C9
331
10102B0
  5
10102B0
331
1010238
  5
1010238
331
10102A1
  5
10102A1
331
1010229
  5
1010229
331
10103FA
  5
10103FA
331
101014A
  5
101014A
331
10103EB
  5
10103EB
331
1010454
  5
1010454
331
10103A4
  5
10103A4
331
10102C3
  5
10102C3
331
101024B
  5
101024B
331
1010395
  5
1010395
331
10101FC
  5
10101FC
331
10101ED
  5
10101ED
331
101015D
  5
101015D
331
101013B
  5
101013B
331
1010476
  5
1010476
331
101021E
  5
101021E
331
10101D6
  5
10101D6
331
101010E
  5
101010E
331
10103B7
  5
10103B7
331
1010467
  5
1010467
331
101020F
  5
101020F
331
10100FF
  5
10100FF
331
1010096
  5
1010096
331
1010087
  5
1010087
331
1010066
  5
1010066
331
12C
  5
12C
331
10A
  5
10A
  0
ACDBDETAILVIEWSTYLE
  5
1010051
102
{ACAD_XDICTIONARY
360
1010525
102
}
102
{ACAD_REACTORS
330
1010050
102
}
330
1010050
100
AcDbModelDocViewStyle
 70
     0
  3
Imperial24
290
     0
100
AcDbDetailViewStyle
 70
     0
 71
     0
 90
        3
 71
     1
340
11
 62
   256
 40
0.24
340
0
 62
   256
 40
0.24
300

 40
0.36
280
     3
 71
     2
340
0
 90
       25
 62
   256
 71
     3
340
11
 62
   256
 40
0.24
 90
        1
 40
0.75
 90
        1
300
%<\AcVar ViewType \f "%tc1">% %<\AcVar ViewDetailId>%\PECHELLE %<\AcVar ViewScale \f "%sn">%
 71
     4
340
0
 90
       25
 62
   256
340
0
 90
       25
 62
   256
280
     0
  0
LAYOUT
  5
1010055
102
{ACAD_REACTORS
330
1010053
102
}
330
1010053
100
AcDbPlotSettings
  1

  2
Microsoft Print to PDF
  4

  6

 40
0.0
 41
0.0
 42
0.0
 43
0.0
 44
0.0
 45
0.0
 46
0.0
 47
0.0
 48
0.0
 49
0.0
140
0.0
141
0.0
142
1.0
143
1.0
 70
  1712
 72
     0
 73
     0
 74
     0
  7

 75
     0
147
1.0
 76
     0
 77
     2
 78
   300
148
0.0
149
0.0
100
AcDbLayout
  1
Model
 70
     1
 71
     0
 10
0.0
 20
0.0
 11
12.0
 21
9.0
 12
0.0
 22
0.0
 32
0.0
 14
0.0
 24
0.0
 34
0.0
 15
0.0
 25
0.0
 35
0.0
146
0.0
 13
0.0
 23
0.0
 33
0.0
 16
1.0
 26
0.0
 36
0.0
 17
0.0
 27
1.0
 37
0.0
 76
     0
330
1F
331
1010059
  0
LAYOUT
  5
1010056
102
{ACAD_REACTORS
330
1010053
102
}
330
1010053
100
AcDbPlotSettings
  1

  2
Microsoft Print to PDF
  4

  6

 40
0.0
 41
0.0
 42
0.0
 43
0.0
 44
0.0
 45
0.0
 46
0.0
 47
0.0
 48
0.0
 49
0.0
140
0.0
141
0.0
142
1.0
143
1.0
 70
   688
 72
     0
 73
     0
 74
     5
  7

 75
    16
147
1.0
 76
     0
 77
     2
 78
   300
148
0.0
149
0.0
100
AcDbLayout
  1
Présentation1
 70
     1
 71
     1
 10
0.0
 20
0.0
 11
12.0
 21
9.0
 12
0.0
 22
0.0
 32
0.0
 14
1.000000000000000E+20
 24
1.000000000000000E+20
 34
1.000000000000000E+20
 15
-1.000000000000000E+20
 25
-1.000000000000000E+20
 35
-1.000000000000000E+20
146
0.0
 13
0.0
 23
0.0
 33
0.0
 16
1.0
 26
0.0
 36
0.0
 17
0.0
 27
1.0
 37
0.0
 76
     0
330
1B
  0
MATERIAL
  5
101000D
102
{ACAD_XDICTIONARY
360
101000E
102
}
102
{ACAD_REACTORS
330
1010004
102
}
330
1010004
100
AcDbMaterial
  1
ByBlock
 72
     0
 43
0.0008202099737533
 43
0.0
 43
0.0
 43
0.0
 43
0.0
 43
0.0008202099737533
 43
0.0
 43
0.0
 43
0.0
 43
0.0
 43
1.0
 43
0.0
 43
0.0
 43
0.0
 43
0.0
 43
1.0
 77
     0
 47
0.0008202099737533
 47
0.0
 47
0.0
 47
0.0
 47
0.0
 47
0.0008202099737533
 47
0.0
 47
0.0
 47
0.0
 47
0.0
 47
1.0
 47
0.0
 47
0.0
 47
0.0
 47
0.0
 47
1.0
171
     0
 49
0.0008202099737533
 49
0.0
 49
0.0
 49
0.0
 49
0.0
 49
0.0008202099737533
 49
0.0
 49
0.0
 49
0.0
 49
0.0
 49
1.0
 49
0.0
 49
0.0
 49
0.0
 49
0.0
 49
1.0
175
     0
142
0.0008202099737533
142
0.0
142
0.0
142
0.0
142
0.0
142
0.0008202099737533
142
0.0
142
0.0
142
0.0
142
0.0
142
1.0
142
0.0
142
0.0
142
0.0
142
0.0
142
1.0
179
     0
144
0.0008202099737533
144
0.0
144
0.0
144
0.0
144
0.0
144
0.0008202099737533
144
0.0
144
0.0
144
0.0
144
0.0
144
1.0
144
0.0
144
0.0
144
0.0
144
0.0
144
1.0
147
0.0008202099737533
147
0.0
147
0.0
147
0.0
147
0.0
147
0.0008202099737533
147
0.0
147
0.0
147
0.0
147
0.0
147
1.0
147
0.0
147
0.0
147
0.0
147
0.0
147
1.0
  0
MATERIAL
  5
1010005
102
{ACAD_XDICTIONARY
360
1010006
102
}
102
{ACAD_REACTORS
330
1010004
102
}
330
1010004
100
AcDbMaterial
  1
ByLayer
 72
     0
 43
0.0008202099737533
 43
0.0
 43
0.0
 43
0.0
 43
0.0
 43
0.0008202099737533
 43
0.0
 43
0.0
 43
0.0
 43
0.0
 43
1.0
 43
0.0
 43
0.0
 43
0.0
 43
0.0
 43
1.0
 77
     0
 47
0.0008202099737533
 47
0.0
 47
0.0
 47
0.0
 47
0.0
 47
0.0008202099737533
 47
0.0
 47
0.0
 47
0.0
 47
0.0
 47
1.0
 47
0.0
 47
0.0
 47
0.0
 47
0.0
 47
1.0
171
     0
 49
0.0008202099737533
 49
0.0
 49
0.0
 49
0.0
 49
0.0
 49
0.0008202099737533
 49
0.0
 49
0.0
 49
0.0
 49
0.0
 49
1.0
 49
0.0
 49
0.0
 49
0.0
 49
0.0
 49
1.0
175
     0
142
0.0008202099737533
142
0.0
142
0.0
142
0.0
142
0.0
142
0.0008202099737533
142
0.0
142
0.0
142
0.0
142
0.0
142
1.0
142
0.0
142
0.0
142
0.0
142
0.0
142
1.0
179
     0
144
0.0008202099737533
144
0.0
144
0.0
144
0.0
144
0.0
144
0.0008202099737533
144
0.0
144
0.0
144
0.0
144
0.0
144
1.0
144
0.0
144
0.0
144
0.0
144
0.0
144
1.0
147
0.0008202099737533
147
0.0
147
0.0
147
0.0
147
0.0
147
0.0008202099737533
147
0.0
147
0.0
147
0.0
147
0.0
147
1.0
147
0.0
147
0.0
147
0.0
147
0.0
147
1.0
  0
MATERIAL
  5
1010015
102
{ACAD_XDICTIONARY
360
1010016
102
}
102
{ACAD_REACTORS
330
1010004
102
}
330
1010004
100
AcDbMaterial
  1
Global
 72
     0
 43
0.0008202099737533
 43
0.0
 43
0.0
 43
0.0
 43
0.0
 43
0.0008202099737533
 43
0.0
 43
0.0
 43
0.0
 43
0.0
 43
1.0
 43
0.0
 43
0.0
 43
0.0
 43
0.0
 43
1.0
 77
     0
 47
0.0008202099737533
 47
0.0
 47
0.0
 47
0.0
 47
0.0
 47
0.0008202099737533
 47
0.0
 47
0.0
 47
0.0
 47
0.0
 47
1.0
 47
0.0
 47
0.0
 47
0.0
 47
0.0
 47
1.0
171
     0
 49
0.0008202099737533
 49
0.0
 49
0.0
 49
0.0
 49
0.0
 49
0.0008202099737533
 49
0.0
 49
0.0
 49
0.0
 49
0.0
 49
1.0
 49
0.0
 49
0.0
 49
0.0
 49
0.0
 49
1.0
175
     0
142
0.0008202099737533
142
0.0
142
0.0
142
0.0
142
0.0
142
0.0008202099737533
142
0.0
142
0.0
142
0.0
142
0.0
142
1.0
142
0.0
142
0.0
142
0.0
142
0.0
142
1.0
179
     0
144
0.0008202099737533
144
0.0
144
0.0
144
0.0
144
0.0
144
0.0008202099737533
144
0.0
144
0.0
144
0.0
144
0.0
144
1.0
144
0.0
144
0.0
144
0.0
144
0.0
144
1.0
147
0.0008202099737533
147
0.0
147
0.0
147
0.0
147
0.0
147
0.0008202099737533
147
0.0
147
0.0
147
0.0
147
0.0
147
1.0
147
0.0
147
0.0
147
0.0
147
0.0
147
1.0
  0
MLEADERSTYLE
  5
101004D
102
{ACAD_REACTORS
330
101004C
102
}
330
101004C
100
AcDbMLeaderStyle
179
     2
170
     2
171
     1
172
     0
 90
        2
 40
0.0
 41
0.0
173
     1
 91
-1056964608
340
14
 92
       -2
290
     1
 42
0.09
291
     1
 43
0.36
  3
Standard
 44
0.18
300

342
11
174
     1
178
     6
175
     1
176
     0
 93
-1056964608
 45
0.18
292
     0
297
     0
 46
0.18
 94
-1056964608
 47
1.0
 49
1.0
140
1.0
293
     1
141
0.0
294
     1
177
     0
142
1.0
295
     0
296
     0
143
0.125
271
     0
272
     9
273
     9
  0
MLINESTYLE
  5
1010039
102
{ACAD_REACTORS
330
17
102
}
330
17
100
AcDbMlineStyle
  2
STANDARD
 70
     0
  3

 62
   256
 51
90.0
 52
90.0
 71
     2
 49
0.5
 62
   256
  6
BYLAYER
 49
-0.5
 62
   256
  6
BYLAYER
  0
ACDBPLACEHOLDER
  5
1010003
102
{ACAD_REACTORS
330
1010002
102
}
330
1010002
  0
SCALE
  5
101003B
102
{ACAD_REACTORS
330
101003A
102
}
330
101003A
100
AcDbScale
 70
     0
300
1:1
140
1.0
141
1.0
290
     1
  0
SCALE
  5
101003C
102
{ACAD_REACTORS
330
101003A
102
}
330
101003A
100
AcDbScale
 70
     0
300
1/128" = 1'-0"
140
0.0078125
141
12.0
290
     0
  0
SCALE
  5
101003D
102
{ACAD_REACTORS
330
101003A
102
}
330
101003A
100
AcDbScale
 70
     0
300
1/64" = 1'-0"
140
0.015625
141
12.0
290
     0
  0
SCALE
  5
101003E
102
{ACAD_REACTORS
330
101003A
102
}
330
101003A
100
AcDbScale
 70
     0
300
1/32" = 1'-0"
140
0.03125
141
12.0
290
     0
  0
SCALE
  5
101003F
102
{ACAD_REACTORS
330
101003A
102
}
330
101003A
100
AcDbScale
 70
     0
300
1/16" = 1'-0"
140
0.0625
141
12.0
290
     0
  0
SCALE
  5
1010040
102
{ACAD_REACTORS
330
101003A
102
}
330
101003A
100
AcDbScale
 70
     0
300
3/32" = 1'-0"
140
0.09375
141
12.0
290
     0
  0
SCALE
  5
1010041
102
{ACAD_REACTORS
330
101003A
102
}
330
101003A
100
AcDbScale
 70
     0
300
1/8" = 1'-0"
140
0.125
141
12.0
290
     0
  0
SCALE
  5
1010042
102
{ACAD_REACTORS
330
101003A
102
}
330
101003A
100
AcDbScale
 70
     0
300
3/16" = 1'-0"
140
0.1875
141
12.0
290
     0
  0
SCALE
  5
1010043
102
{ACAD_REACTORS
330
101003A
102
}
330
101003A
100
AcDbScale
 70
     0
300
1/4" = 1'-0"
140
0.25
141
12.0
290
     0
  0
SCALE
  5
1010044
102
{ACAD_REACTORS
330
101003A
102
}
330
101003A
100
AcDbScale
 70
     0
300
3/8" = 1'-0"
140
0.375
141
12.0
290
     0
  0
SCALE
  5
1010045
102
{ACAD_REACTORS
330
101003A
102
}
330
101003A
100
AcDbScale
 70
     0
300
1/2" = 1'-0"
140
0.5
141
12.0
290
     0
  0
SCALE
  5
1010046
102
{ACAD_REACTORS
330
101003A
102
}
330
101003A
100
AcDbScale
 70
     0
300
3/4" = 1'-0"
140
0.75
141
12.0
290
     0
  0
SCALE
  5
1010047
102
{ACAD_REACTORS
330
101003A
102
}
330
101003A
100
AcDbScale
 70
     0
300
1" = 1'-0"
140
1.0
141
12.0
290
     0
  0
SCALE
  5
1010048
102
{ACAD_REACTORS
330
101003A
102
}
330
101003A
100
AcDbScale
 70
     0
300
1-1/2" = 1'-0"
140
1.5
141
12.0
290
     0
  0
SCALE
  5
1010049
102
{ACAD_REACTORS
330
101003A
102
}
330
101003A
100
AcDbScale
 70
     0
300
3" = 1'-0"
140
3.0
141
12.0
290
     0
  0
SCALE
  5
101004A
102
{ACAD_REACTORS
330
101003A
102
}
330
101003A
100
AcDbScale
 70
     0
300
6" = 1'-0"
140
6.0
141
12.0
290
     0
  0
SCALE
  5
101004B
102
{ACAD_REACTORS
330
101003A
102
}
330
101003A
100
AcDbScale
 70
     0
300
1'-0" = 1'-0"
140
12.0
141
12.0
290
     0
  0
ACDBSECTIONVIEWSTYLE
  5
101004F
102
{ACAD_XDICTIONARY
360
1010523
102
}
102
{ACAD_REACTORS
330
101004E
102
}
330
101004E
100
AcDbModelDocViewStyle
 70
     0
  3
Imperial24
290
     0
100
AcDbSectionViewStyle
 70
     0
 71
     0
 90
       78
 71
     1
340
11
 62
   256
 40
0.24
340
0
340
0
 62
   256
 40
0.24
300
I, O, Q, S, X, Z
 40
0.48
 90
        3
 40
0.18
 90
        1
 71
     2
340
0
 90
       25
 62
   256
340
0
 90
       50
 62
   256
 40
0.24
 40
0.0
 40
0.24
 71
     3
340
11
 62
   256
 40
0.24
 90
        1
 40
0.75
 90
        1
300
%<\AcVar ViewType \f "%tc1">% %<\AcVar ViewSectionStartId>%-%<\AcVar ViewSectionEndId>%\PECHELLE %<\AcVar ViewScale \f "%sn">%
 71
     4
 62
   256
 62
   257
300
ANSI31
 40
1.0
 90
        0
290
     0
290
     0
 90
        6
 40
0.0
 40
1.570796326794896
 40
0.2617993877991494
 40
1.308996938995747
 40
-0.2617993877991494
 40
1.832595714594046
  0
TABLESTYLE
  5
1010038
102
{ACAD_XDICTIONARY
360
10104F0
102
}
102
{ACAD_REACTORS
330
1010037
102
}
330
1010037
100
AcDbTableStyle
280
     0
  3
Standard
 70
     0
 71
     0
 40
0.06
 41
0.06
280
     0
281
     0
  7
STANDARD
140
0.18
170
     2
 62
     0
 63
     7
283
     0
 90
      512
 91
        0
  1

274
    -2
284
     1
 64
     0
275
    -2
285
     1
 65
     0
276
    -2
286
     1
 66
     0
277
    -2
287
     1
 67
     0
278
    -2
288
     1
 68
     0
279
    -2
289
     1
 69
     0
  7
STANDARD
140
0.25
170
     5
 62
     0
 63
     7
283
     0
 90
      512
 91
        0
  1

274
    -2
284
     1
 64
     0
275
    -2
285
     1
 65
     0
276
    -2
286
     1
 66
     0
277
    -2
287
     1
 67
     0
278
    -2
288
     1
 68
     0
279
    -2
289
     1
 69
     0
  7
STANDARD
140
0.18
170
     5
 62
     0
 63
     7
283
     0
 90
      512
 91
        0
  1

274
    -2
284
     1
 64
     0
275
    -2
285
     1
 65
     0
276
    -2
286
     1
 66
     0
277
    -2
287
     1
 67
     0
278
    -2
288
     1
 68
     0
279
    -2
289
     1
 69
     0
  0
VISUALSTYLE
  5
1010023
102
{ACAD_XDICTIONARY
360
10104FD
102
}
102
{ACAD_REACTORS
330
101001D
102
}
330
101001D
100
AcDbVisualStyle
  2
2dWireframe
 70
     4
177
     2
291
     0
 71
     0
176
     1
 72
     2
176
     1
 73
     0
176
     1
 90
        0
176
     1
 40
0.6
176
     1
 41
30.0
176
     1
 63
     7
421
 16777215
176
     1
 74
     1
176
     1
 91
        4
176
     1
 64
     7
176
     1
 65
   257
176
     1
 75
     1
176
     1
175
     1
176
     1
 42
1.0
176
     1
 92
        0
176
     1
 66
   257
176
     1
 43
1.0
176
     1
 76
     1
176
     1
 77
     6
176
     1
 78
     2
176
     1
 67
     7
176
     1
 79
     5
176
     1
170
     0
176
     1
171
     0
176
     1
290
     0
176
     1
 93
        1
176
     1
 44
0.0
176
     1
173
     0
176
     1
1001
ACAD
1000
AcDbSavedByObjectVersion
1070
     0
  0
VISUALSTYLE
  5
1010022
102
{ACAD_XDICTIONARY
360
10104FB
102
}
102
{ACAD_REACTORS
330
101001D
102
}
330
101001D
100
AcDbVisualStyle
  2
Basic
 70
     7
177
     2
291
     1
 71
     1
176
     1
 72
     0
176
     1
 73
     1
176
     1
 90
        0
176
     1
 40
0.6
176
     1
 41
30.0
176
     1
 63
     7
421
 16777215
176
     1
 74
     0
176
     1
 91
        4
176
     1
 64
     7
176
     1
 65
   257
176
     1
 75
     1
176
     1
175
     1
176
     1
 42
1.0
176
     1
 92
        8
176
     1
 66
     7
176
     1
 43
1.0
176
     1
 76
     1
176
     1
 77
     6
176
     1
 78
     2
176
     1
 67
     7
176
     1
 79
     5
176
     1
170
     0
176
     1
171
     0
176
     1
290
     0
176
     1
 93
        1
176
     1
 44
0.0
176
     1
173
     0
176
     1
1001
ACAD
1000
AcDbSavedByObjectVersion
1070
     0
  0
VISUALSTYLE
  5
1010029
102
{ACAD_XDICTIONARY
360
1010509
102
}
102
{ACAD_REACTORS
330
101001D
102
}
330
101001D
100
AcDbVisualStyle
  2
Brighten
 70
    12
177
     2
291
     1
 71
     2
176
     1
 72
     2
176
     1
 73
     0
176
     1
 90
        0
176
     1
 40
0.6
176
     1
 41
30.0
176
     1
 63
     7
421
 16777215
176
     1
 74
     1
176
     1
 91
        4
176
     1
 64
     7
176
     1
 65
   257
176
     1
 75
     1
176
     1
175
     1
176
     1
 42
1.0
176
     1
 92
        8
176
     1
 66
     7
176
     1
 43
1.0
176
     1
 76
     1
176
     1
 77
     6
176
     1
 78
     2
176
     1
 67
     7
176
     1
 79
     5
176
     1
170
     0
176
     1
171
     0
176
     1
290
     0
176
     1
 93
        1
176
     1
 44
50.0
176
     1
173
     0
176
     1
1001
ACAD
1000
AcDbSavedByObjectVersion
1070
     0
  0
VISUALSTYLE
  5
101002D
102
{ACAD_XDICTIONARY
360
1010511
102
}
102
{ACAD_REACTORS
330
101001D
102
}
330
101001D
100
AcDbVisualStyle
  2
ColorChange
 70
    16
177
     2
291
     1
 71
     2
176
     1
 72
     2
176
     1
 73
     3
176
     1
 90
        0
176
     1
 40
0.6
176
     1
 41
30.0
176
     1
 63
     8
421
  8421504
176
     1
 74
     1
176
     1
 91
        4
176
     1
 64
     7
176
     1
 65
   257
176
     1
 75
     1
176
     1
175
     1
176
     1
 42
1.0
176
     1
 92
        8
176
     1
 66
     8
424
  8421504
176
     1
 43
1.0
176
     1
 76
     1
176
     1
 77
     6
176
     1
 78
     2
176
     1
 67
     7
176
     1
 79
     5
176
     1
170
     0
176
     1
171
     0
176
     1
290
     0
176
     1
 93
        1
176
     1
 44
0.0
176
     1
173
     0
176
     1
1001
ACAD
1000
AcDbSavedByObjectVersion
1070
     0
  0
VISUALSTYLE
  5
1010026
102
{ACAD_XDICTIONARY
360
1010503
102
}
102
{ACAD_REACTORS
330
101001D
102
}
330
101001D
100
AcDbVisualStyle
  2
Conceptual
 70
     9
177
     2
291
     0
 71
     3
176
     1
 72
     2
176
     1
 73
     0
176
     1
 90
        0
176
     1
 40
0.6
176
     1
 41
30.0
176
     1
 63
     7
421
 16777215
176
     1
 74
     2
176
     1
 91
        2
176
     1
 64
     7
176
     1
 65
   257
176
     1
 75
     1
176
     1
175
     1
176
     1
 42
179.0
176
     1
 92
        8
176
     1
 66
     7
176
     1
 43
1.0
176
     1
 76
     1
176
     1
 77
     6
176
     1
 78
     2
176
     1
 67
     7
176
     1
 79
     3
176
     1
170
     0
176
     1
171
     0
176
     1
290
     0
176
     1
 93
        1
176
     1
 44
0.0
176
     1
173
     0
176
     1
1001
ACAD
1000
AcDbSavedByObjectVersion
1070
     0
  0
VISUALSTYLE
  5
1010028
102
{ACAD_XDICTIONARY
360
1010507
102
}
102
{ACAD_REACTORS
330
101001D
102
}
330
101001D
100
AcDbVisualStyle
  2
Dim
 70
    11
177
     2
291
     1
 71
     2
176
     1
 72
     2
176
     1
 73
     0
176
     1
 90
        0
176
     1
 40
0.6
176
     1
 41
30.0
176
     1
 63
     7
421
 16777215
176
     1
 74
     1
176
     1
 91
        4
176
     1
 64
     7
176
     1
 65
   257
176
     1
 75
     1
176
     1
175
     1
176
     1
 42
1.0
176
     1
 92
        8
176
     1
 66
     7
176
     1
 43
1.0
176
     1
 76
     1
176
     1
 77
     6
176
     1
 78
     2
176
     1
 67
     7
176
     1
 79
     5
176
     1
170
     0
176
     1
171
     0
176
     1
290
     0
176
     1
 93
        1
176
     1
 44
-50.0
176
     1
173
     0
176
     1
1001
ACAD
1000
AcDbSavedByObjectVersion
1070
     0
  0
VISUALSTYLE
  5
1010035
102
{ACAD_XDICTIONARY
360
1010521
102
}
102
{ACAD_REACTORS
330
101001D
102
}
330
101001D
100
AcDbVisualStyle
  2
EdgeColorOff
 70
    22
177
     2
291
     1
 71
     2
176
     0
 72
     2
176
     0
 73
     0
176
     0
 90
        0
176
     0
 40
0.6
176
     0
 41
30.0
176
     0
 63
     7
421
 16777215
176
     0
 74
     1
176
     0
 91
        4
176
     0
 64
     7
176
     0
 65
   257
176
     0
 75
     1
176
     0
175
     1
176
     0
 42
1.0
176
     0
 92
        8
176
     2
 66
     7
176
     0
 43
1.0
176
     0
 76
     1
176
     0
 77
     6
176
     0
 78
     2
176
     0
 67
     7
176
     0
 79
     5
176
     0
170
     0
176
     0
171
     0
176
     0
290
     0
176
     0
 93
        1
176
     0
 44
0.0
176
     0
173
     0
176
     0
1001
ACAD
1000
AcDbSavedByObjectVersion
1070
     0
  0
VISUALSTYLE
  5
101002C
102
{ACAD_XDICTIONARY
360
101050F
102
}
102
{ACAD_REACTORS
330
101001D
102
}
330
101001D
100
AcDbVisualStyle
  2
Facepattern
 70
    15
177
     2
291
     1
 71
     2
176
     1
 72
     2
176
     1
 73
     0
176
     1
 90
        0
176
     1
 40
0.6
176
     1
 41
30.0
176
     1
 63
     7
421
 16777215
176
     1
 74
     1
176
     1
 91
        4
176
     1
 64
     7
176
     1
 65
   257
176
     1
 75
     1
176
     1
175
     1
176
     1
 42
1.0
176
     1
 92
        8
176
     1
 66
     7
176
     1
 43
1.0
176
     1
 76
     1
176
     1
 77
     6
176
     1
 78
     2
176
     1
 67
     7
176
     1
 79
     5
176
     1
170
     0
176
     1
171
     0
176
     1
290
     0
176
     1
 93
        1
176
     1
 44
0.0
176
     1
173
     0
176
     1
1001
ACAD
1000
AcDbSavedByObjectVersion
1070
     0
  0
VISUALSTYLE
  5
101001E
102
{ACAD_XDICTIONARY
360
10104F3
102
}
102
{ACAD_REACTORS
330
101001D
102
}
330
101001D
100
AcDbVisualStyle
  2
Flat
 70
     0
177
     2
291
     1
 71
     2
176
     1
 72
     1
176
     1
 73
     1
176
     1
 90
        2
176
     1
 40
0.6
176
     1
 41
30.0
176
     1
 63
     7
421
 16777215
176
     1
 74
     0
176
     1
 91
        0
176
     1
 64
     7
176
     1
 65
   257
176
     1
 75
     1
176
     1
175
     1
176
     1
 42
1.0
176
     1
 92
        8
176
     1
 66
     7
176
     1
 43
1.0
176
     1
 76
     1
176
     1
 77
     6
176
     1
 78
     2
176
     1
 67
     7
176
     1
 79
     5
176
     1
170
     0
176
     1
171
     0
176
     1
290
     0
176
     1
 93
       13
176
     1
 44
0.0
176
     1
173
     0
176
     1
1001
ACAD
1000
AcDbSavedByObjectVersion
1070
     0
  0
VISUALSTYLE
  5
101001F
102
{ACAD_XDICTIONARY
360
10104F5
102
}
102
{ACAD_REACTORS
330
101001D
102
}
330
101001D
100
AcDbVisualStyle
  2
FlatWithEdges
 70
     1
177
     2
291
     1
 71
     2
176
     1
 72
     1
176
     1
 73
     1
176
     1
 90
        2
176
     1
 40
0.6
176
     1
 41
30.0
176
     1
 63
     7
421
 16777215
176
     1
 74
     1
176
     1
 91
        0
176
     1
 64
     7
176
     1
 65
   257
176
     1
 75
     1
176
     1
175
     1
176
     1
 42
1.0
176
     1
 92
        0
176
     1
 66
   257
176
     1
 43
1.0
176
     1
 76
     1
176
     1
 77
     6
176
     1
 78
     2
176
     1
 67
     7
176
     1
 79
     5
176
     1
170
     0
176
     1
171
     0
176
     1
290
     0
176
     1
 93
       13
176
     1
 44
0.0
176
     1
173
     0
176
     1
1001
ACAD
1000
AcDbSavedByObjectVersion
1070
     0
  0
VISUALSTYLE
  5
1010020
102
{ACAD_XDICTIONARY
360
10104F7
102
}
102
{ACAD_REACTORS
330
101001D
102
}
330
101001D
100
AcDbVisualStyle
  2
Gouraud
 70
     2
177
     2
291
     1
 71
     2
176
     1
 72
     2
176
     1
 73
     1
176
     1
 90
        2
176
     1
 40
0.6
176
     1
 41
30.0
176
     1
 63
     7
421
 16777215
176
     1
 74
     0
176
     1
 91
        0
176
     1
 64
     7
176
     1
 65
   257
176
     1
 75
     1
176
     1
175
     1
176
     1
 42
1.0
176
     1
 92
        0
176
     1
 66
     7
176
     1
 43
1.0
176
     1
 76
     1
176
     1
 77
     6
176
     1
 78
     2
176
     1
 67
     7
176
     1
 79
     5
176
     1
170
     0
176
     1
171
     0
176
     1
290
     0
176
     1
 93
       13
176
     1
 44
0.0
176
     1
173
     0
176
     1
1001
ACAD
1000
AcDbSavedByObjectVersion
1070
     0
  0
VISUALSTYLE
  5
1010021
102
{ACAD_XDICTIONARY
360
10104F9
102
}
102
{ACAD_REACTORS
330
101001D
102
}
330
101001D
100
AcDbVisualStyle
  2
GouraudWithEdges
 70
     3
177
     2
291
     1
 71
     2
176
     1
 72
     2
176
     1
 73
     1
176
     1
 90
        2
176
     1
 40
0.6
176
     1
 41
30.0
176
     1
 63
     7
421
 16777215
176
     1
 74
     1
176
     1
 91
        0
176
     1
 64
     7
176
     1
 65
   257
176
     1
 75
     1
176
     1
175
     1
176
     1
 42
1.0
176
     1
 92
        0
176
     1
 66
   257
176
     1
 43
1.0
176
     1
 76
     1
176
     1
 77
     6
176
     1
 78
     2
176
     1
 67
     7
176
     1
 79
     5
176
     1
170
     0
176
     1
171
     0
176
     1
290
     0
176
     1
 93
       13
176
     1
 44
0.0
176
     1
173
     0
176
     1
1001
ACAD
1000
AcDbSavedByObjectVersion
1070
     0
  0
VISUALSTYLE
  5
1010025
102
{ACAD_XDICTIONARY
360
1010501
102
}
102
{ACAD_REACTORS
330
101001D
102
}
330
101001D
100
AcDbVisualStyle
  2
Hidden
 70
     6
177
     2
291
     0
 71
     1
176
     1
 72
     2
176
     1
 73
     2
176
     1
 90
        0
176
     1
 40
0.6
176
     1
 41
30.0
176
     1
 63
     7
421
 16777215
176
     1
 74
     2
176
     1
 91
        2
176
     1
 64
     7
176
     1
 65
   257
176
     1
 75
     2
176
     1
175
     1
176
     1
 42
40.0
176
     1
 92
        0
176
     1
 66
   257
176
     1
 43
1.0
176
     1
 76
     1
176
     1
 77
     6
176
     1
 78
     2
176
     1
 67
     7
176
     1
 79
     3
176
     1
170
     0
176
     1
171
     0
176
     1
290
     0
176
     1
 93
        1
176
     1
 44
0.0
176
     1
173
     0
176
     1
1001
ACAD
1000
AcDbSavedByObjectVersion
1070
     0
  0
VISUALSTYLE
  5
1010033
102
{ACAD_XDICTIONARY
360
101051D
102
}
102
{ACAD_REACTORS
330
101001D
102
}
330
101001D
100
AcDbVisualStyle
  2
JitterOff
 70
    20
177
     2
291
     1
 71
     2
176
     0
 72
     2
176
     0
 73
     0
176
     0
 90
        0
176
     0
 40
0.6
176
     0
 41
30.0
176
     0
 63
     7
421
 16777215
176
     0
 74
     1
176
     0
 91
        4
176
     0
 64
     7
176
     0
 65
   257
176
     0
 75
     1
176
     0
175
     1
176
     0
 42
1.0
176
     0
 92
       10
176
     2
 66
     7
176
     0
 43
1.0
176
     0
 76
     1
176
     0
 77
     6
176
     0
 78
     2
176
     0
 67
     7
176
     0
 79
     5
176
     0
170
     0
176
     0
171
     0
176
     0
290
     0
176
     0
 93
        1
176
     0
 44
0.0
176
     0
173
     0
176
     0
1001
ACAD
1000
AcDbSavedByObjectVersion
1070
     0
  0
VISUALSTYLE
  5
101002B
102
{ACAD_XDICTIONARY
360
101050D
102
}
102
{ACAD_REACTORS
330
101001D
102
}
330
101001D
100
AcDbVisualStyle
  2
Linepattern
 70
    14
177
     2
291
     1
 71
     2
176
     1
 72
     2
176
     1
 73
     0
176
     1
 90
        0
176
     1
 40
0.6
176
     1
 41
30.0
176
     1
 63
     7
421
 16777215
176
     1
 74
     1
176
     1
 91
        4
176
     1
 64
     7
176
     1
 65
   257
176
     1
 75
     7
176
     1
175
     7
176
     1
 42
1.0
176
     1
 92
        8
176
     1
 66
     7
176
     1
 43
1.0
176
     1
 76
     1
176
     1
 77
     6
176
     1
 78
     2
176
     1
 67
     7
176
     1
 79
     5
176
     1
170
     0
176
     1
171
     0
176
     1
290
     0
176
     1
 93
        1
176
     1
 44
0.0
176
     1
173
     0
176
     1
1001
ACAD
1000
AcDbSavedByObjectVersion
1070
     0
  0
VISUALSTYLE
  5
1010034
102
{ACAD_XDICTIONARY
360
101051F
102
}
102
{ACAD_REACTORS
330
101001D
102
}
330
101001D
100
AcDbVisualStyle
  2
OverhangOff
 70
    21
177
     2
291
     1
 71
     2
176
     0
 72
     2
176
     0
 73
     0
176
     0
 90
        0
176
     0
 40
0.6
176
     0
 41
30.0
176
     0
 63
     7
421
 16777215
176
     0
 74
     1
176
     0
 91
        4
176
     0
 64
     7
176
     0
 65
   257
176
     0
 75
     1
176
     0
175
     1
176
     0
 42
1.0
176
     0
 92
        9
176
     2
 66
     7
176
     0
 43
1.0
176
     0
 76
     1
176
     0
 77
     6
176
     0
 78
     2
176
     0
 67
     7
176
     0
 79
     5
176
     0
170
     0
176
     0
171
     0
176
     0
290
     0
176
     0
 93
        1
176
     0
 44
0.0
176
     0
173
     0
176
     0
1001
ACAD
1000
AcDbSavedByObjectVersion
1070
     0
  0
VISUALSTYLE
  5
1010027
102
{ACAD_XDICTIONARY
360
1010505
102
}
102
{ACAD_REACTORS
330
101001D
102
}
330
101001D
100
AcDbVisualStyle
  2
Realistic
 70
     8
177
     2
291
     0
 71
     2
176
     1
 72
     3
176
     1
 73
     0
176
     1
 90
        2
176
     1
 40
0.6
176
     1
 41
30.0
176
     1
 63
     7
421
 16777215
176
     1
 74
     0
176
     1
 91
        0
176
     1
 64
     7
176
     1
 65
   257
176
     1
 75
     1
176
     1
175
     1
176
     1
 42
1.0
176
     1
 92
        8
176
     1
 66
   257
176
     1
 43
1.0
176
     1
 76
     1
176
     1
 77
     6
176
     1
 78
     2
176
     1
 67
     7
176
     1
 79
     3
176
     1
170
     0
176
     1
171
     0
176
     1
290
     0
176
     1
 93
       13
176
     1
 44
0.0
176
     1
173
     0
176
     1
1001
ACAD
1000
AcDbSavedByObjectVersion
1070
     0
  0
VISUALSTYLE
  5
1010032
102
{ACAD_XDICTIONARY
360
101051B
102
}
102
{ACAD_REACTORS
330
101001D
102
}
330
101001D
100
AcDbVisualStyle
  2
Shaded
 70
    27
177
     2
291
     0
 71
     2
176
     1
 72
     2
176
     1
 73
     1
176
     1
 90
        2
176
     1
 40
0.6
176
     1
 41
30.0
176
     1
 63
     7
421
 16777215
176
     1
 74
     0
176
     1
 91
        4
176
     1
 64
     7
176
     1
 65
   257
176
     1
 75
     1
176
     1
175
     1
176
     1
 42
1.0
176
     1
 92
        8
176
     1
 66
   257
176
     1
 43
1.0
176
     1
 76
     1
176
     1
 77
     6
176
     1
 78
     2
176
     1
 67
     8
425
  7895160
176
     1
 79
     3
176
     1
170
     0
176
     1
171
     0
176
     1
290
     0
176
     1
 93
        5
176
     1
 44
0.0
176
     1
173
     0
176
     1
1001
ACAD
1000
AcDbSavedByObjectVersion
1070
     0
  0
VISUALSTYLE
  5
1010031
102
{ACAD_XDICTIONARY
360
1010519
102
}
102
{ACAD_REACTORS
330
101001D
102
}
330
101001D
100
AcDbVisualStyle
  2
Shaded with edges
 70
    26
177
     2
291
     0
 71
     2
176
     1
 72
     2
176
     1
 73
     1
176
     1
 90
        2
176
     1
 40
0.6
176
     1
 41
30.0
176
     1
 63
     7
421
 16777215
176
     1
 74
     1
176
     1
 91
        2
176
     1
 64
     7
176
     1
 65
   257
176
     1
 75
     2
176
     1
175
     1
176
     1
 42
1.0
176
     1
 92
        8
176
     1
 66
   257
176
     1
 43
1.0
176
     1
 76
     1
176
     1
 77
     6
176
     1
 78
     2
176
     1
 67
     7
176
     1
 79
     3
176
     1
170
     0
176
     1
171
     0
176
     1
290
     0
176
     1
 93
        5
176
     1
 44
0.0
176
     1
173
     0
176
     1
1001
ACAD
1000
AcDbSavedByObjectVersion
1070
     0
  0
VISUALSTYLE
  5
101002E
102
{ACAD_XDICTIONARY
360
1010513
102
}
102
{ACAD_REACTORS
330
101001D
102
}
330
101001D
100
AcDbVisualStyle
  2
Shades of Gray
 70
    23
177
     2
291
     0
 71
     2
176
     1
 72
     2
176
     1
 73
     3
176
     1
 90
        0
176
     1
 40
0.6
176
     1
 41
30.0
176
     1
 63
     7
421
 16777215
176
     1
 74
     2
176
     1
 91
        2
176
     1
 64
     7
176
     1
 65
     7
176
     1
 75
     1
176
     1
175
     1
176
     1
 42
40.0
176
     1
 92
        8
176
     1
 66
     7
176
     1
 43
1.0
176
     1
 76
     1
176
     1
 77
     6
176
     1
 78
     2
176
     1
 67
     7
176
     1
 79
     3
176
     1
170
     0
176
     1
171
     0
176
     1
290
     0
176
     1
 93
        1
176
     1
 44
0.0
176
     1
173
     0
176
     1
1001
ACAD
1000
AcDbSavedByObjectVersion
1070
     0
  0
VISUALSTYLE
  5
101002F
102
{ACAD_XDICTIONARY
360
1010515
102
}
102
{ACAD_REACTORS
330
101001D
102
}
330
101001D
100
AcDbVisualStyle
  2
Sketchy
 70
    24
177
     2
291
     0
 71
     1
176
     1
 72
     2
176
     1
 73
     2
176
     1
 90
        0
176
     1
 40
0.6
176
     1
 41
30.0
176
     1
 63
     7
421
 16777215
176
     1
 74
     2
176
     1
 91
        2
176
     1
 64
     7
176
     1
 65
     7
176
     1
 75
     1
176
     1
175
     1
176
     1
 42
40.0
176
     1
 92
       11
176
     1
 66
     7
176
     1
 43
1.0
176
     1
 76
     1
176
     1
 77
     6
176
     1
 78
     2
176
     1
 67
     7
176
     1
 79
     6
176
     1
170
     0
176
     1
171
     0
176
     1
290
     0
176
     1
 93
        1
176
     1
 44
0.0
176
     1
173
     0
176
     1
1001
ACAD
1000
AcDbSavedByObjectVersion
1070
     0
  0
VISUALSTYLE
  5
101002A
102
{ACAD_XDICTIONARY
360
101050B
102
}
102
{ACAD_REACTORS
330
101001D
102
}
330
101001D
100
AcDbVisualStyle
  2
Thicken
 70
    13
177
     2
291
     1
 71
     2
176
     1
 72
     2
176
     1
 73
     0
176
     1
 90
        0
176
     1
 40
0.6
176
     1
 41
30.0
176
     1
 63
     7
421
 16777215
176
     1
 74
     1
176
     1
 91
        4
176
     1
 64
     7
176
     1
 65
   257
176
     1
 75
     1
176
     1
175
     1
176
     1
 42
1.0
176
     1
 92
       12
176
     1
 66
     7
176
     1
 43
1.0
176
     1
 76
     1
176
     1
 77
     6
176
     1
 78
     2
176
     1
 67
     7
176
     1
 79
     5
176
     1
170
     0
176
     1
171
     0
176
     1
290
     0
176
     1
 93
        1
176
     1
 44
0.0
176
     1
173
     0
176
     1
1001
ACAD
1000
AcDbSavedByObjectVersion
1070
     0
  0
VISUALSTYLE
  5
1010024
102
{ACAD_XDICTIONARY
360
10104FF
102
}
102
{ACAD_REACTORS
330
101001D
102
}
330
101001D
100
AcDbVisualStyle
  2
Wireframe
 70
     5
177
     2
291
     0
 71
     0
176
     1
 72
     2
176
     1
 73
     0
176
     1
 90
        0
176
     1
 40
0.6
176
     1
 41
30.0
176
     1
 63
     7
421
 16777215
176
     1
 74
     1
176
     1
 91
        4
176
     1
 64
     7
176
     1
 65
   257
176
     1
 75
     1
176
     1
175
     1
176
     1
 42
1.0
176
     1
 92
        0
176
     1
 66
   257
176
     1
 43
1.0
176
     1
 76
     1
176
     1
 77
     6
176
     1
 78
     2
176
     1
 67
     7
176
     1
 79
     3
176
     1
170
     0
176
     1
171
     0
176
     1
290
     0
176
     1
 93
        1
176
     1
 44
0.0
176
     1
173
     0
176
     1
1001
ACAD
1000
AcDbSavedByObjectVersion
1070
     0
  0
VISUALSTYLE
  5
1010030
102
{ACAD_XDICTIONARY
360
1010517
102
}
102
{ACAD_REACTORS
330
101001D
102
}
330
101001D
100
AcDbVisualStyle
  2
X-Ray
 70
    25
177
     2
291
     0
 71
     2
176
     1
 72
     2
176
     1
 73
     1
176
     1
 90
        1
176
     1
 40
0.5
176
     1
 41
30.0
176
     1
 63
     7
421
 16777215
176
     1
 74
     1
176
     1
 91
        0
176
     1
 64
     7
176
     1
 65
   257
176
     1
 75
     1
176
     1
175
     1
176
     1
 42
1.0
176
     1
 92
        8
176
     1
 66
     7
176
     1
 43
1.0
176
     1
 76
     1
176
     1
 77
     6
176
     1
 78
     2
176
     1
 67
     7
176
     1
 79
     3
176
     1
170
     0
176
     1
171
     0
176
     1
290
     0
176
     1
 93
       13
176
     1
 44
0.0
176
     1
173
     0
176
     1
1001
ACAD
1000
AcDbSavedByObjectVersion
1070
     0
  0
DICTIONARYVAR
  5
10104EC
102
{ACAD_REACTORS
330
10104E6
102
}
330
10104E6
100
DictionaryVariables
280
     0
  1
1:1
  0
DICTIONARYVAR
  5
10104E8
102
{ACAD_REACTORS
330
10104E6
102
}
330
10104E6
100
DictionaryVariables
280
     0
  1
STANDARD
  0
DICTIONARYVAR
  5
10104E7
102
{ACAD_REACTORS
330
10104E6
102
}
330
10104E6
100
DictionaryVariables
280
     0
  1
STANDARD
  0
DICTIONARYVAR
  5
10104E9
102
{ACAD_REACTORS
330
10104E6
102
}
330
10104E6
100
DictionaryVariables
280
     0
  1
Imperial24
  0
DICTIONARYVAR
  5
10104EA
102
{ACAD_REACTORS
330
10104E6
102
}
330
10104E6
100
DictionaryVariables
280
     0
  1
Imperial24
  0
DICTIONARYVAR
  5
10104EE
102
{ACAD_REACTORS
330
10104E6
102
}
330
10104E6
100
DictionaryVariables
280
     0
  1
1
  0
DICTIONARYVAR
  5
10104EF
102
{ACAD_REACTORS
330
10104E6
102
}
330
10104E6
100
DictionaryVariables
280
     0
  1
15
  0
DICTIONARYVAR
  5
10104ED
102
{ACAD_REACTORS
330
10104E6
102
}
330
10104E6
100
DictionaryVariables
280
     0
  1
0
  0
DICTIONARYVAR
  5
10104EB
102
{ACAD_REACTORS
330
10104E6
102
}
330
10104E6
100
DictionaryVariables
280
     0
  1
0
  0
DICTIONARY
  5
1010525
330
1010051
100
AcDbDictionary
280
     1
281
     1
  3
ACAD_XREC_ROUNDTRIP
360
1010526
  0
DICTIONARY
  5
101000E
330
101000D
100
AcDbDictionary
280
     1
281
     1
  3
BUMPTILE
360
1010010
  3
DIFFUSETILE
360
101000F
  3
OPACITYTILE
360
1010013
  3
REFLECTIONTILE
360
1010012
  3
REFRACTIONTILE
360
1010014
  3
SPECULARTILE
360
1010011
  0
DICTIONARY
  5
1010006
330
1010005
100
AcDbDictionary
280
     1
281
     1
  3
BUMPTILE
360
1010008
  3
DIFFUSETILE
360
1010007
  3
OPACITYTILE
360
101000B
  3
REFLECTIONTILE
360
101000A
  3
REFRACTIONTILE
360
101000C
  3
SPECULARTILE
360
1010009
  0
DICTIONARY
  5
1010016
330
1010015
100
AcDbDictionary
280
     1
281
     1
  3
BUMPTILE
360
1010018
  3
DIFFUSETILE
360
1010017
  3
OPACITYTILE
360
101001B
  3
REFLECTIONTILE
360
101001A
  3
REFRACTIONTILE
360
101001C
  3
SPECULARTILE
360
1010019
  0
DICTIONARY
  5
1010523
330
101004F
100
AcDbDictionary
280
     1
281
     1
  3
ACAD_XREC_ROUNDTRIP
360
1010524
  0
DICTIONARY
  5
10104F0
330
1010038
100
AcDbDictionary
280
     1
281
     1
  3
ACAD_ROUNDTRIP_2008_TABLESTYLE_CELLSTYLEMAP
360
10104F1
  0
DICTIONARY
  5
10104FD
330
1010023
100
AcDbDictionary
280
     1
281
     1
  3
ACAD_XREC_ROUNDTRIP
360
10104FE
  0
DICTIONARY
  5
10104FB
330
1010022
100
AcDbDictionary
280
     1
281
     1
  3
ACAD_XREC_ROUNDTRIP
360
10104FC
  0
DICTIONARY
  5
1010509
330
1010029
100
AcDbDictionary
280
     1
281
     1
  3
ACAD_XREC_ROUNDTRIP
360
101050A
  0
DICTIONARY
  5
1010511
330
101002D
100
AcDbDictionary
280
     1
281
     1
  3
ACAD_XREC_ROUNDTRIP
360
1010512
  0
DICTIONARY
  5
1010503
330
1010026
100
AcDbDictionary
280
     1
281
     1
  3
ACAD_XREC_ROUNDTRIP
360
1010504
  0
DICTIONARY
  5
1010507
330
1010028
100
AcDbDictionary
280
     1
281
     1
  3
ACAD_XREC_ROUNDTRIP
360
1010508
  0
DICTIONARY
  5
1010521
330
1010035
100
AcDbDictionary
280
     1
281
     1
  3
ACAD_XREC_ROUNDTRIP
360
1010522
  0
DICTIONARY
  5
101050F
330
101002C
100
AcDbDictionary
280
     1
281
     1
  3
ACAD_XREC_ROUNDTRIP
360
1010510
  0
DICTIONARY
  5
10104F3
330
101001E
100
AcDbDictionary
280
     1
281
     1
  3
ACAD_XREC_ROUNDTRIP
360
10104F4
  0
DICTIONARY
  5
10104F5
330
101001F
100
AcDbDictionary
280
     1
281
     1
  3
ACAD_XREC_ROUNDTRIP
360
10104F6
  0
DICTIONARY
  5
10104F7
330
1010020
100
AcDbDictionary
280
     1
281
     1
  3
ACAD_XREC_ROUNDTRIP
360
10104F8
  0
DICTIONARY
  5
10104F9
330
1010021
100
AcDbDictionary
280
     1
281
     1
  3
ACAD_XREC_ROUNDTRIP
360
10104FA
  0
DICTIONARY
  5
1010501
330
1010025
100
AcDbDictionary
280
     1
281
     1
  3
ACAD_XREC_ROUNDTRIP
360
1010502
  0
DICTIONARY
  5
101051D
330
1010033
100
AcDbDictionary
280
     1
281
     1
  3
ACAD_XREC_ROUNDTRIP
360
101051E
  0
DICTIONARY
  5
101050D
330
101002B
100
AcDbDictionary
280
     1
281
     1
  3
ACAD_XREC_ROUNDTRIP
360
101050E
  0
DICTIONARY
  5
101051F
330
1010034
100
AcDbDictionary
280
     1
281
     1
  3
ACAD_XREC_ROUNDTRIP
360
1010520
  0
DICTIONARY
  5
1010505
330
1010027
100
AcDbDictionary
280
     1
281
     1
  3
ACAD_XREC_ROUNDTRIP
360
1010506
  0
DICTIONARY
  5
101051B
330
1010032
100
AcDbDictionary
280
     1
281
     1
  3
ACAD_XREC_ROUNDTRIP
360
101051C
  0
DICTIONARY
  5
1010519
330
1010031
100
AcDbDictionary
280
     1
281
     1
  3
ACAD_XREC_ROUNDTRIP
360
101051A
  0
DICTIONARY
  5
1010513
330
101002E
100
AcDbDictionary
280
     1
281
     1
  3
ACAD_XREC_ROUNDTRIP
360
1010514
  0
DICTIONARY
  5
1010515
330
101002F
100
AcDbDictionary
280
     1
281
     1
  3
ACAD_XREC_ROUNDTRIP
360
1010516
  0
DICTIONARY
  5
101050B
330
101002A
100
AcDbDictionary
280
     1
281
     1
  3
ACAD_XREC_ROUNDTRIP
360
101050C
  0
DICTIONARY
  5
10104FF
330
1010024
100
AcDbDictionary
280
     1
281
     1
  3
ACAD_XREC_ROUNDTRIP
360
1010500
  0
DICTIONARY
  5
1010517
330
1010030
100
AcDbDictionary
280
     1
281
     1
  3
ACAD_XREC_ROUNDTRIP
360
1010518
  0
XRECORD
  5
1010526
102
{ACAD_REACTORS
330
1010525
102
}
330
1010525
100
AcDbXrecord
280
     1
102
DISPLAYNAME
  1
Imperial24
102
FLAGS
 90
        0
  0
XRECORD
  5
1010010
102
{ACAD_REACTORS
330
101000E
102
}
330
101000E
100
AcDbXrecord
280
     1
270
     1
271
     1
  0
XRECORD
  5
101000F
102
{ACAD_REACTORS
330
101000E
102
}
330
101000E
100
AcDbXrecord
280
     1
270
     1
271
     1
  0
XRECORD
  5
1010013
102
{ACAD_REACTORS
330
101000E
102
}
330
101000E
100
AcDbXrecord
280
     1
270
     1
271
     1
  0
XRECORD
  5
1010012
102
{ACAD_REACTORS
330
101000E
102
}
330
101000E
100
AcDbXrecord
280
     1
270
     1
271
     1
  0
XRECORD
  5
1010014
102
{ACAD_REACTORS
330
101000E
102
}
330
101000E
100
AcDbXrecord
280
     1
270
     1
271
     1
  0
XRECORD
  5
1010011
102
{ACAD_REACTORS
330
101000E
102
}
330
101000E
100
AcDbXrecord
280
     1
270
     1
271
     1
  0
XRECORD
  5
1010008
102
{ACAD_REACTORS
330
1010006
102
}
330
1010006
100
AcDbXrecord
280
     1
270
     1
271
     1
  0
XRECORD
  5
1010007
102
{ACAD_REACTORS
330
1010006
102
}
330
1010006
100
AcDbXrecord
280
     1
270
     1
271
     1
  0
XRECORD
  5
101000B
102
{ACAD_REACTORS
330
1010006
102
}
330
1010006
100
AcDbXrecord
280
     1
270
     1
271
     1
  0
XRECORD
  5
101000A
102
{ACAD_REACTORS
330
1010006
102
}
330
1010006
100
AcDbXrecord
280
     1
270
     1
271
     1
  0
XRECORD
  5
101000C
102
{ACAD_REACTORS
330
1010006
102
}
330
1010006
100
AcDbXrecord
280
     1
270
     1
271
     1
  0
XRECORD
  5
1010009
102
{ACAD_REACTORS
330
1010006
102
}
330
1010006
100
AcDbXrecord
280
     1
270
     1
271
     1
  0
XRECORD
  5
1010018
102
{ACAD_REACTORS
330
1010016
102
}
330
1010016
100
AcDbXrecord
280
     1
270
     1
271
     1
  0
XRECORD
  5
1010017
102
{ACAD_REACTORS
330
1010016
102
}
330
1010016
100
AcDbXrecord
280
     1
270
     1
271
     1
  0
XRECORD
  5
101001B
102
{ACAD_REACTORS
330
1010016
102
}
330
1010016
100
AcDbXrecord
280
     1
270
     1
271
     1
  0
XRECORD
  5
101001A
102
{ACAD_REACTORS
330
1010016
102
}
330
1010016
100
AcDbXrecord
280
     1
270
     1
271
     1
  0
XRECORD
  5
101001C
102
{ACAD_REACTORS
330
1010016
102
}
330
1010016
100
AcDbXrecord
280
     1
270
     1
271
     1
  0
XRECORD
  5
1010019
102
{ACAD_REACTORS
330
1010016
102
}
330
1010016
100
AcDbXrecord
280
     1
270
     1
271
     1
  0
XRECORD
  5
1010524
102
{ACAD_REACTORS
330
1010523
102
}
330
1010523
100
AcDbXrecord
280
     1
102
DISPLAYNAME
  1
Imperial24
102
FLAGS
 90
        0
  0
CELLSTYLEMAP
  5
10104F1
102
{ACAD_REACTORS
330
10104F0
102
}
330
10104F0
100
AcDbCellStyleMap
 90
        3
300
CELLSTYLE
  1
TABLEFORMAT_BEGIN
 90
        5
170
     1
 91
        0
 92
    32768
 62
   257
 93
        1
300
CONTENTFORMAT
  1
CONTENTFORMAT_BEGIN
 90
        0
 91
        0
 92
      512
 93
        0
300

 40
0.0
140
1.0
 94
        5
 62
     0
340
11
144
0.25
309
CONTENTFORMAT_END
171
     0
 94
        0
309
TABLEFORMAT_END
  1
CELLSTYLE_BEGIN
 90
        1
 91
        1
300
_TITLE
309
CELLSTYLE_END
300
CELLSTYLE
  1
TABLEFORMAT_BEGIN
 90
        5
170
     1
 91
        0
 92
        0
 62
   257
 93
        1
300
CONTENTFORMAT
  1
CONTENTFORMAT_BEGIN
 90
        0
 91
        0
 92
      512
 93
        0
300

 40
0.0
140
1.0
 94
        5
 62
     0
340
11
144
0.18
309
CONTENTFORMAT_END
171
     0
 94
        0
309
TABLEFORMAT_END
  1
CELLSTYLE_BEGIN
 90
        2
 91
        1
300
_HEADER
309
CELLSTYLE_END
300
CELLSTYLE
  1
TABLEFORMAT_BEGIN
 90
        5
170
     1
 91
        0
 92
        0
 62
   257
 93
        1
300
CONTENTFORMAT
  1
CONTENTFORMAT_BEGIN
 90
        0
 91
        0
 92
      512
 93
        0
300

 40
0.0
140
1.0
 94
        2
 62
     0
340
11
144
0.18
309
CONTENTFORMAT_END
171
     0
 94
        0
309
TABLEFORMAT_END
  1
CELLSTYLE_BEGIN
 90
        3
 91
        2
300
_DATA
309
CELLSTYLE_END
  0
XRECORD
  5
10104FE
102
{ACAD_REACTORS
330
10104FD
102
}
330
10104FD
100
AcDbXrecord
280
     1
102
RTVSPost2010Prop28
280
     1
102
RTVSPost2010PropOp28
 70
     1
102
RTVSPost2010Prop29
280
     1
102
RTVSPost2010PropOp29
 70
     1
102
RTVSPost2010Prop30
280
     0
102
RTVSPost2010PropOp30
 70
     1
102
RTVSPost2010Prop31
280
     0
102
RTVSPost2010PropOp31
 70
     1
102
RTVSPost2010Prop32
280
     0
102
RTVSPost2010PropOp32
 70
     1
102
RTVSPost2010Prop33
280
     0
102
RTVSPost2010PropOp33
 70
     1
102
RTVSPost2010Prop34
280
     0
102
RTVSPost2010PropOp34
 70
     1
102
RTVSPost2010Prop35
280
     0
102
RTVSPost2010PropOp35
 70
     1
102
RTVSPost2010Prop36
280
     0
102
RTVSPost2010PropOp36
 70
     1
102
RTVSPost2010Prop37
 90
       50
102
RTVSPost2010PropOp37
 70
     1
102
RTVSPost2010Prop38
140
0.0
102
RTVSPost2010PropOp38
 70
     1
102
RTVSPost2010Prop39
140
1.0
102
RTVSPost2010PropOp39
 70
     1
102
RTVSPost2010Prop40
 90
        0
102
RTVSPost2010PropOp40
 70
     1
102
RTVSPost2010Prop41ColorIndex
 90
       18
102
RTVSPost2010Prop41ColorRGB
 90
        0
102
RTVSPost2010PropOp41
 70
     1
102
RTVSPost2010Prop42
 90
       50
102
RTVSPost2010PropOp42
 70
     1
102
RTVSPost2010Prop43
 90
        3
102
RTVSPost2010PropOp43
 70
     1
102
RTVSPost2010Prop44ColorIndex
 90
        5
102
RTVSPost2010Prop44ColorRGB
 90
      255
102
RTVSPost2010PropOp44
 70
     1
102
RTVSPost2010Prop45
280
     0
102
RTVSPost2010PropOp45
 70
     1
102
RTVSPost2010Prop46
 90
       50
102
RTVSPost2010PropOp46
 70
     1
102
RTVSPost2010Prop47
 90
       50
102
RTVSPost2010PropOp47
 70
     1
102
RTVSPost2010Prop48
 90
       50
102
RTVSPost2010PropOp48
 70
     1
102
RTVSPost2010Prop49
280
     0
102
RTVSPost2010PropOp49
 70
     1
102
RTVSPost2010Prop50
 90
       50
102
RTVSPost2010PropOp50
 70
     1
102
RTVSPost2010Prop51ColorIndex
 90
      256
102
RTVSPost2010Prop51ColorRGB
 90
-16777216
102
RTVSPost2010PropOp51
 70
     0
102
RTVSPost2010Prop52
140
1.0
102
RTVSPost2010PropOp52
 70
     0
102
RTVSPost2010Prop53
 90
        2
102
RTVSPost2010PropOp53
 70
     1
102
RTVSPost2010Prop54
  1
strokes_ogs.tif
102
RTVSPost2010PropOp54
 70
     1
102
RTVSPost2010Prop55
280
     0
102
RTVSPost2010PropOp55
 70
     1
102
RTVSPost2010Prop56
140
1.0
102
RTVSPost2010PropOp56
 70
     1
102
RTVSPost2010Prop57
140
1.0
102
RTVSPost2010PropOp57
 70
     1
  0
XRECORD
  5
10104FC
102
{ACAD_REACTORS
330
10104FB
102
}
330
10104FB
100
AcDbXrecord
280
     1
102
RTVSPost2010Prop28
280
     0
102
RTVSPost2010PropOp28
 70
     1
102
RTVSPost2010Prop29
280
     1
102
RTVSPost2010PropOp29
 70
     1
102
RTVSPost2010Prop30
280
     1
102
RTVSPost2010PropOp30
 70
     1
102
RTVSPost2010Prop31
280
     0
102
RTVSPost2010PropOp31
 70
     1
102
RTVSPost2010Prop32
280
     0
102
RTVSPost2010PropOp32
 70
     1
102
RTVSPost2010Prop33
280
     0
102
RTVSPost2010PropOp33
 70
     1
102
RTVSPost2010Prop34
280
     0
102
RTVSPost2010PropOp34
 70
     1
102
RTVSPost2010Prop35
280
     0
102
RTVSPost2010PropOp35
 70
     1
102
RTVSPost2010Prop36
280
     0
102
RTVSPost2010PropOp36
 70
     1
102
RTVSPost2010Prop37
 90
       50
102
RTVSPost2010PropOp37
 70
     1
102
RTVSPost2010Prop38
140
0.0
102
RTVSPost2010PropOp38
 70
     1
102
RTVSPost2010Prop39
140
1.0
102
RTVSPost2010PropOp39
 70
     1
102
RTVSPost2010Prop40
 90
        0
102
RTVSPost2010PropOp40
 70
     1
102
RTVSPost2010Prop41ColorIndex
 90
       18
102
RTVSPost2010Prop41ColorRGB
 90
        0
102
RTVSPost2010PropOp41
 70
     1
102
RTVSPost2010Prop42
 90
       50
102
RTVSPost2010PropOp42
 70
     1
102
RTVSPost2010Prop43
 90
        3
102
RTVSPost2010PropOp43
 70
     1
102
RTVSPost2010Prop44ColorIndex
 90
        5
102
RTVSPost2010Prop44ColorRGB
 90
      255
102
RTVSPost2010PropOp44
 70
     1
102
RTVSPost2010Prop45
280
     0
102
RTVSPost2010PropOp45
 70
     1
102
RTVSPost2010Prop46
 90
       50
102
RTVSPost2010PropOp46
 70
     1
102
RTVSPost2010Prop47
 90
       50
102
RTVSPost2010PropOp47
 70
     1
102
RTVSPost2010Prop48
 90
       50
102
RTVSPost2010PropOp48
 70
     1
102
RTVSPost2010Prop49
280
     0
102
RTVSPost2010PropOp49
 70
     1
102
RTVSPost2010Prop50
 90
       50
102
RTVSPost2010PropOp50
 70
     1
102
RTVSPost2010Prop51ColorIndex
 90
      256
102
RTVSPost2010Prop51ColorRGB
 90
-16777216
102
RTVSPost2010PropOp51
 70
     0
102
RTVSPost2010Prop52
140
1.0
102
RTVSPost2010PropOp52
 70
     0
102
RTVSPost2010Prop53
 90
        2
102
RTVSPost2010PropOp53
 70
     1
102
RTVSPost2010Prop54
  1
strokes_ogs.tif
102
RTVSPost2010PropOp54
 70
     1
102
RTVSPost2010Prop55
280
     0
102
RTVSPost2010PropOp55
 70
     1
102
RTVSPost2010Prop56
140
1.0
102
RTVSPost2010PropOp56
 70
     1
102
RTVSPost2010Prop57
140
1.0
102
RTVSPost2010PropOp57
 70
     1
  0
XRECORD
  5
101050A
102
{ACAD_REACTORS
330
1010509
102
}
330
1010509
100
AcDbXrecord
280
     1
102
RTVSPost2010Prop28
280
     0
102
RTVSPost2010PropOp28
 70
     1
102
RTVSPost2010Prop29
280
     1
102
RTVSPost2010PropOp29
 70
     1
102
RTVSPost2010Prop30
280
     1
102
RTVSPost2010PropOp30
 70
     1
102
RTVSPost2010Prop31
280
     0
102
RTVSPost2010PropOp31
 70
     1
102
RTVSPost2010Prop32
280
     0
102
RTVSPost2010PropOp32
 70
     1
102
RTVSPost2010Prop33
280
     0
102
RTVSPost2010PropOp33
 70
     1
102
RTVSPost2010Prop34
280
     0
102
RTVSPost2010PropOp34
 70
     1
102
RTVSPost2010Prop35
280
     0
102
RTVSPost2010PropOp35
 70
     1
102
RTVSPost2010Prop36
280
     0
102
RTVSPost2010PropOp36
 70
     1
102
RTVSPost2010Prop37
 90
       50
102
RTVSPost2010PropOp37
 70
     1
102
RTVSPost2010Prop38
140
0.0
102
RTVSPost2010PropOp38
 70
     1
102
RTVSPost2010Prop39
140
1.0
102
RTVSPost2010PropOp39
 70
     1
102
RTVSPost2010Prop40
 90
        0
102
RTVSPost2010PropOp40
 70
     1
102
RTVSPost2010Prop41ColorIndex
 90
       18
102
RTVSPost2010Prop41ColorRGB
 90
        0
102
RTVSPost2010PropOp41
 70
     1
102
RTVSPost2010Prop42
 90
       50
102
RTVSPost2010PropOp42
 70
     1
102
RTVSPost2010Prop43
 90
        3
102
RTVSPost2010PropOp43
 70
     1
102
RTVSPost2010Prop44ColorIndex
 90
        5
102
RTVSPost2010Prop44ColorRGB
 90
      255
102
RTVSPost2010PropOp44
 70
     1
102
RTVSPost2010Prop45
280
     0
102
RTVSPost2010PropOp45
 70
     1
102
RTVSPost2010Prop46
 90
       50
102
RTVSPost2010PropOp46
 70
     1
102
RTVSPost2010Prop47
 90
       50
102
RTVSPost2010PropOp47
 70
     1
102
RTVSPost2010Prop48
 90
       50
102
RTVSPost2010PropOp48
 70
     1
102
RTVSPost2010Prop49
280
     0
102
RTVSPost2010PropOp49
 70
     1
102
RTVSPost2010Prop50
 90
       50
102
RTVSPost2010PropOp50
 70
     1
102
RTVSPost2010Prop51ColorIndex
 90
      256
102
RTVSPost2010Prop51ColorRGB
 90
-16777216
102
RTVSPost2010PropOp51
 70
     0
102
RTVSPost2010Prop52
140
1.0
102
RTVSPost2010PropOp52
 70
     0
102
RTVSPost2010Prop53
 90
        2
102
RTVSPost2010PropOp53
 70
     1
102
RTVSPost2010Prop54
  1
strokes_ogs.tif
102
RTVSPost2010PropOp54
 70
     1
102
RTVSPost2010Prop55
280
     0
102
RTVSPost2010PropOp55
 70
     1
102
RTVSPost2010Prop56
140
1.0
102
RTVSPost2010PropOp56
 70
     1
102
RTVSPost2010Prop57
140
1.0
102
RTVSPost2010PropOp57
 70
     1
  0
XRECORD
  5
1010512
102
{ACAD_REACTORS
330
1010511
102
}
330
1010511
100
AcDbXrecord
280
     1
102
RTVSPost2010Prop28
280
     0
102
RTVSPost2010PropOp28
 70
     1
102
RTVSPost2010Prop29
280
     1
102
RTVSPost2010PropOp29
 70
     1
102
RTVSPost2010Prop30
280
     1
102
RTVSPost2010PropOp30
 70
     1
102
RTVSPost2010Prop31
280
     0
102
RTVSPost2010PropOp31
 70
     1
102
RTVSPost2010Prop32
280
     0
102
RTVSPost2010PropOp32
 70
     1
102
RTVSPost2010Prop33
280
     0
102
RTVSPost2010PropOp33
 70
     1
102
RTVSPost2010Prop34
280
     0
102
RTVSPost2010PropOp34
 70
     1
102
RTVSPost2010Prop35
280
     0
102
RTVSPost2010PropOp35
 70
     1
102
RTVSPost2010Prop36
280
     0
102
RTVSPost2010PropOp36
 70
     1
102
RTVSPost2010Prop37
 90
       50
102
RTVSPost2010PropOp37
 70
     1
102
RTVSPost2010Prop38
140
0.0
102
RTVSPost2010PropOp38
 70
     1
102
RTVSPost2010Prop39
140
1.0
102
RTVSPost2010PropOp39
 70
     1
102
RTVSPost2010Prop40
 90
        0
102
RTVSPost2010PropOp40
 70
     1
102
RTVSPost2010Prop41ColorIndex
 90
       18
102
RTVSPost2010Prop41ColorRGB
 90
        0
102
RTVSPost2010PropOp41
 70
     1
102
RTVSPost2010Prop42
 90
       50
102
RTVSPost2010PropOp42
 70
     1
102
RTVSPost2010Prop43
 90
        3
102
RTVSPost2010PropOp43
 70
     1
102
RTVSPost2010Prop44ColorIndex
 90
        5
102
RTVSPost2010Prop44ColorRGB
 90
      255
102
RTVSPost2010PropOp44
 70
     1
102
RTVSPost2010Prop45
280
     0
102
RTVSPost2010PropOp45
 70
     1
102
RTVSPost2010Prop46
 90
       50
102
RTVSPost2010PropOp46
 70
     1
102
RTVSPost2010Prop47
 90
       50
102
RTVSPost2010PropOp47
 70
     1
102
RTVSPost2010Prop48
 90
       50
102
RTVSPost2010PropOp48
 70
     1
102
RTVSPost2010Prop49
280
     0
102
RTVSPost2010PropOp49
 70
     1
102
RTVSPost2010Prop50
 90
       50
102
RTVSPost2010PropOp50
 70
     1
102
RTVSPost2010Prop51ColorIndex
 90
      256
102
RTVSPost2010Prop51ColorRGB
 90
-16777216
102
RTVSPost2010PropOp51
 70
     0
102
RTVSPost2010Prop52
140
1.0
102
RTVSPost2010PropOp52
 70
     0
102
RTVSPost2010Prop53
 90
        2
102
RTVSPost2010PropOp53
 70
     1
102
RTVSPost2010Prop54
  1
strokes_ogs.tif
102
RTVSPost2010PropOp54
 70
     1
102
RTVSPost2010Prop55
280
     0
102
RTVSPost2010PropOp55
 70
     1
102
RTVSPost2010Prop56
140
1.0
102
RTVSPost2010PropOp56
 70
     1
102
RTVSPost2010Prop57
140
1.0
102
RTVSPost2010PropOp57
 70
     1
  0
XRECORD
  5
1010504
102
{ACAD_REACTORS
330
1010503
102
}
330
1010503
100
AcDbXrecord
280
     1
102
RTVSPost2010Prop28
280
     0
102
RTVSPost2010PropOp28
 70
     1
102
RTVSPost2010Prop29
280
     1
102
RTVSPost2010PropOp29
 70
     1
102
RTVSPost2010Prop30
280
     1
102
RTVSPost2010PropOp30
 70
     1
102
RTVSPost2010Prop31
280
     0
102
RTVSPost2010PropOp31
 70
     1
102
RTVSPost2010Prop32
280
     0
102
RTVSPost2010PropOp32
 70
     1
102
RTVSPost2010Prop33
280
     0
102
RTVSPost2010PropOp33
 70
     1
102
RTVSPost2010Prop34
280
     0
102
RTVSPost2010PropOp34
 70
     1
102
RTVSPost2010Prop35
280
     0
102
RTVSPost2010PropOp35
 70
     1
102
RTVSPost2010Prop36
280
     0
102
RTVSPost2010PropOp36
 70
     1
102
RTVSPost2010Prop37
 90
       50
102
RTVSPost2010PropOp37
 70
     1
102
RTVSPost2010Prop38
140
0.0
102
RTVSPost2010PropOp38
 70
     1
102
RTVSPost2010Prop39
140
1.0
102
RTVSPost2010PropOp39
 70
     1
102
RTVSPost2010Prop40
 90
        0
102
RTVSPost2010PropOp40
 70
     1
102
RTVSPost2010Prop41ColorIndex
 90
       18
102
RTVSPost2010Prop41ColorRGB
 90
        0
102
RTVSPost2010PropOp41
 70
     1
102
RTVSPost2010Prop42
 90
       50
102
RTVSPost2010PropOp42
 70
     1
102
RTVSPost2010Prop43
 90
        3
102
RTVSPost2010PropOp43
 70
     1
102
RTVSPost2010Prop44ColorIndex
 90
        5
102
RTVSPost2010Prop44ColorRGB
 90
      255
102
RTVSPost2010PropOp44
 70
     1
102
RTVSPost2010Prop45
280
     0
102
RTVSPost2010PropOp45
 70
     1
102
RTVSPost2010Prop46
 90
       50
102
RTVSPost2010PropOp46
 70
     1
102
RTVSPost2010Prop47
 90
       50
102
RTVSPost2010PropOp47
 70
     1
102
RTVSPost2010Prop48
 90
       50
102
RTVSPost2010PropOp48
 70
     1
102
RTVSPost2010Prop49
280
     0
102
RTVSPost2010PropOp49
 70
     1
102
RTVSPost2010Prop50
 90
       50
102
RTVSPost2010PropOp50
 70
     1
102
RTVSPost2010Prop51ColorIndex
 90
      256
102
RTVSPost2010Prop51ColorRGB
 90
-16777216
102
RTVSPost2010PropOp51
 70
     0
102
RTVSPost2010Prop52
140
1.0
102
RTVSPost2010PropOp52
 70
     0
102
RTVSPost2010Prop53
 90
        2
102
RTVSPost2010PropOp53
 70
     1
102
RTVSPost2010Prop54
  1
strokes_ogs.tif
102
RTVSPost2010PropOp54
 70
     1
102
RTVSPost2010Prop55
280
     0
102
RTVSPost2010PropOp55
 70
     1
102
RTVSPost2010Prop56
140
1.0
102
RTVSPost2010PropOp56
 70
     1
102
RTVSPost2010Prop57
140
1.0
102
RTVSPost2010PropOp57
 70
     1
  0
XRECORD
  5
1010508
102
{ACAD_REACTORS
330
1010507
102
}
330
1010507
100
AcDbXrecord
280
     1
102
RTVSPost2010Prop28
280
     0
102
RTVSPost2010PropOp28
 70
     1
102
RTVSPost2010Prop29
280
     1
102
RTVSPost2010PropOp29
 70
     1
102
RTVSPost2010Prop30
280
     1
102
RTVSPost2010PropOp30
 70
     1
102
RTVSPost2010Prop31
280
     0
102
RTVSPost2010PropOp31
 70
     1
102
RTVSPost2010Prop32
280
     0
102
RTVSPost2010PropOp32
 70
     1
102
RTVSPost2010Prop33
280
     0
102
RTVSPost2010PropOp33
 70
     1
102
RTVSPost2010Prop34
280
     0
102
RTVSPost2010PropOp34
 70
     1
102
RTVSPost2010Prop35
280
     0
102
RTVSPost2010PropOp35
 70
     1
102
RTVSPost2010Prop36
280
     0
102
RTVSPost2010PropOp36
 70
     1
102
RTVSPost2010Prop37
 90
       50
102
RTVSPost2010PropOp37
 70
     1
102
RTVSPost2010Prop38
140
0.0
102
RTVSPost2010PropOp38
 70
     1
102
RTVSPost2010Prop39
140
1.0
102
RTVSPost2010PropOp39
 70
     1
102
RTVSPost2010Prop40
 90
        0
102
RTVSPost2010PropOp40
 70
     1
102
RTVSPost2010Prop41ColorIndex
 90
       18
102
RTVSPost2010Prop41ColorRGB
 90
        0
102
RTVSPost2010PropOp41
 70
     1
102
RTVSPost2010Prop42
 90
       50
102
RTVSPost2010PropOp42
 70
     1
102
RTVSPost2010Prop43
 90
        3
102
RTVSPost2010PropOp43
 70
     1
102
RTVSPost2010Prop44ColorIndex
 90
        5
102
RTVSPost2010Prop44ColorRGB
 90
      255
102
RTVSPost2010PropOp44
 70
     1
102
RTVSPost2010Prop45
280
     0
102
RTVSPost2010PropOp45
 70
     1
102
RTVSPost2010Prop46
 90
       50
102
RTVSPost2010PropOp46
 70
     1
102
RTVSPost2010Prop47
 90
       50
102
RTVSPost2010PropOp47
 70
     1
102
RTVSPost2010Prop48
 90
       50
102
RTVSPost2010PropOp48
 70
     1
102
RTVSPost2010Prop49
280
     0
102
RTVSPost2010PropOp49
 70
     1
102
RTVSPost2010Prop50
 90
       50
102
RTVSPost2010PropOp50
 70
     1
102
RTVSPost2010Prop51ColorIndex
 90
      256
102
RTVSPost2010Prop51ColorRGB
 90
-16777216
102
RTVSPost2010PropOp51
 70
     0
102
RTVSPost2010Prop52
140
1.0
102
RTVSPost2010PropOp52
 70
     0
102
RTVSPost2010Prop53
 90
        2
102
RTVSPost2010PropOp53
 70
     1
102
RTVSPost2010Prop54
  1
strokes_ogs.tif
102
RTVSPost2010PropOp54
 70
     1
102
RTVSPost2010Prop55
280
     0
102
RTVSPost2010PropOp55
 70
     1
102
RTVSPost2010Prop56
140
1.0
102
RTVSPost2010PropOp56
 70
     1
102
RTVSPost2010Prop57
140
1.0
102
RTVSPost2010PropOp57
 70
     1
  0
XRECORD
  5
1010522
102
{ACAD_REACTORS
330
1010521
102
}
330
1010521
100
AcDbXrecord
280
     1
102
RTVSPost2010Prop28
280
     0
102
RTVSPost2010PropOp28
 70
     1
102
RTVSPost2010Prop29
280
     1
102
RTVSPost2010PropOp29
 70
     1
102
RTVSPost2010Prop30
280
     1
102
RTVSPost2010PropOp30
 70
     1
102
RTVSPost2010Prop31
280
     0
102
RTVSPost2010PropOp31
 70
     1
102
RTVSPost2010Prop32
280
     0
102
RTVSPost2010PropOp32
 70
     1
102
RTVSPost2010Prop33
280
     0
102
RTVSPost2010PropOp33
 70
     1
102
RTVSPost2010Prop34
280
     0
102
RTVSPost2010PropOp34
 70
     1
102
RTVSPost2010Prop35
280
     0
102
RTVSPost2010PropOp35
 70
     1
102
RTVSPost2010Prop36
280
     0
102
RTVSPost2010PropOp36
 70
     1
102
RTVSPost2010Prop37
 90
       50
102
RTVSPost2010PropOp37
 70
     0
102
RTVSPost2010Prop38
140
0.0
102
RTVSPost2010PropOp38
 70
     0
102
RTVSPost2010Prop39
140
1.0
102
RTVSPost2010PropOp39
 70
     0
102
RTVSPost2010Prop40
 90
        0
102
RTVSPost2010PropOp40
 70
     0
102
RTVSPost2010Prop41ColorIndex
 90
       18
102
RTVSPost2010Prop41ColorRGB
 90
        0
102
RTVSPost2010PropOp41
 70
     0
102
RTVSPost2010Prop42
 90
       50
102
RTVSPost2010PropOp42
 70
     0
102
RTVSPost2010Prop43
 90
        3
102
RTVSPost2010PropOp43
 70
     0
102
RTVSPost2010Prop44ColorIndex
 90
        5
102
RTVSPost2010Prop44ColorRGB
 90
      255
102
RTVSPost2010PropOp44
 70
     0
102
RTVSPost2010Prop45
280
     0
102
RTVSPost2010PropOp45
 70
     1
102
RTVSPost2010Prop46
 90
       50
102
RTVSPost2010PropOp46
 70
     0
102
RTVSPost2010Prop47
 90
       50
102
RTVSPost2010PropOp47
 70
     0
102
RTVSPost2010Prop48
 90
       50
102
RTVSPost2010PropOp48
 70
     0
102
RTVSPost2010Prop49
280
     0
102
RTVSPost2010PropOp49
 70
     1
102
RTVSPost2010Prop50
 90
       50
102
RTVSPost2010PropOp50
 70
     0
102
RTVSPost2010Prop51ColorIndex
 90
      256
102
RTVSPost2010Prop51ColorRGB
 90
-16777216
102
RTVSPost2010PropOp51
 70
     0
102
RTVSPost2010Prop52
140
1.0
102
RTVSPost2010PropOp52
 70
     0
102
RTVSPost2010Prop53
 90
        2
102
RTVSPost2010PropOp53
 70
     0
102
RTVSPost2010Prop54
  1
strokes_ogs.tif
102
RTVSPost2010PropOp54
 70
     0
102
RTVSPost2010Prop55
280
     0
102
RTVSPost2010PropOp55
 70
     1
102
RTVSPost2010Prop56
140
1.0
102
RTVSPost2010PropOp56
 70
     0
102
RTVSPost2010Prop57
140
1.0
102
RTVSPost2010PropOp57
 70
     0
  0
XRECORD
  5
1010510
102
{ACAD_REACTORS
330
101050F
102
}
330
101050F
100
AcDbXrecord
280
     1
102
RTVSPost2010Prop28
280
     0
102
RTVSPost2010PropOp28
 70
     1
102
RTVSPost2010Prop29
280
     1
102
RTVSPost2010PropOp29
 70
     1
102
RTVSPost2010Prop30
280
     1
102
RTVSPost2010PropOp30
 70
     1
102
RTVSPost2010Prop31
280
     0
102
RTVSPost2010PropOp31
 70
     1
102
RTVSPost2010Prop32
280
     0
102
RTVSPost2010PropOp32
 70
     1
102
RTVSPost2010Prop33
280
     0
102
RTVSPost2010PropOp33
 70
     1
102
RTVSPost2010Prop34
280
     0
102
RTVSPost2010PropOp34
 70
     1
102
RTVSPost2010Prop35
280
     0
102
RTVSPost2010PropOp35
 70
     1
102
RTVSPost2010Prop36
280
     0
102
RTVSPost2010PropOp36
 70
     1
102
RTVSPost2010Prop37
 90
       50
102
RTVSPost2010PropOp37
 70
     1
102
RTVSPost2010Prop38
140
0.0
102
RTVSPost2010PropOp38
 70
     1
102
RTVSPost2010Prop39
140
1.0
102
RTVSPost2010PropOp39
 70
     1
102
RTVSPost2010Prop40
 90
        0
102
RTVSPost2010PropOp40
 70
     1
102
RTVSPost2010Prop41ColorIndex
 90
       18
102
RTVSPost2010Prop41ColorRGB
 90
        0
102
RTVSPost2010PropOp41
 70
     1
102
RTVSPost2010Prop42
 90
       50
102
RTVSPost2010PropOp42
 70
     1
102
RTVSPost2010Prop43
 90
        3
102
RTVSPost2010PropOp43
 70
     1
102
RTVSPost2010Prop44ColorIndex
 90
        5
102
RTVSPost2010Prop44ColorRGB
 90
      255
102
RTVSPost2010PropOp44
 70
     1
102
RTVSPost2010Prop45
280
     0
102
RTVSPost2010PropOp45
 70
     1
102
RTVSPost2010Prop46
 90
       50
102
RTVSPost2010PropOp46
 70
     1
102
RTVSPost2010Prop47
 90
       50
102
RTVSPost2010PropOp47
 70
     1
102
RTVSPost2010Prop48
 90
       50
102
RTVSPost2010PropOp48
 70
     1
102
RTVSPost2010Prop49
280
     0
102
RTVSPost2010PropOp49
 70
     1
102
RTVSPost2010Prop50
 90
       50
102
RTVSPost2010PropOp50
 70
     1
102
RTVSPost2010Prop51ColorIndex
 90
      256
102
RTVSPost2010Prop51ColorRGB
 90
-16777216
102
RTVSPost2010PropOp51
 70
     0
102
RTVSPost2010Prop52
140
1.0
102
RTVSPost2010PropOp52
 70
     0
102
RTVSPost2010Prop53
 90
        2
102
RTVSPost2010PropOp53
 70
     1
102
RTVSPost2010Prop54
  1
strokes_ogs.tif
102
RTVSPost2010PropOp54
 70
     1
102
RTVSPost2010Prop55
280
     0
102
RTVSPost2010PropOp55
 70
     1
102
RTVSPost2010Prop56
140
1.0
102
RTVSPost2010PropOp56
 70
     1
102
RTVSPost2010Prop57
140
1.0
102
RTVSPost2010PropOp57
 70
     1
  0
XRECORD
  5
10104F4
102
{ACAD_REACTORS
330
10104F3
102
}
330
10104F3
100
AcDbXrecord
280
     1
102
RTVSPost2010Prop28
280
     0
102
RTVSPost2010PropOp28
 70
     1
102
RTVSPost2010Prop29
280
     1
102
RTVSPost2010PropOp29
 70
     1
102
RTVSPost2010Prop30
280
     1
102
RTVSPost2010PropOp30
 70
     1
102
RTVSPost2010Prop31
280
     0
102
RTVSPost2010PropOp31
 70
     1
102
RTVSPost2010Prop32
280
     0
102
RTVSPost2010PropOp32
 70
     1
102
RTVSPost2010Prop33
280
     0
102
RTVSPost2010PropOp33
 70
     1
102
RTVSPost2010Prop34
280
     0
102
RTVSPost2010PropOp34
 70
     1
102
RTVSPost2010Prop35
280
     0
102
RTVSPost2010PropOp35
 70
     1
102
RTVSPost2010Prop36
280
     0
102
RTVSPost2010PropOp36
 70
     1
102
RTVSPost2010Prop37
 90
       50
102
RTVSPost2010PropOp37
 70
     1
102
RTVSPost2010Prop38
140
0.0
102
RTVSPost2010PropOp38
 70
     1
102
RTVSPost2010Prop39
140
1.0
102
RTVSPost2010PropOp39
 70
     1
102
RTVSPost2010Prop40
 90
        0
102
RTVSPost2010PropOp40
 70
     1
102
RTVSPost2010Prop41ColorIndex
 90
       18
102
RTVSPost2010Prop41ColorRGB
 90
        0
102
RTVSPost2010PropOp41
 70
     1
102
RTVSPost2010Prop42
 90
       50
102
RTVSPost2010PropOp42
 70
     1
102
RTVSPost2010Prop43
 90
        3
102
RTVSPost2010PropOp43
 70
     1
102
RTVSPost2010Prop44ColorIndex
 90
        5
102
RTVSPost2010Prop44ColorRGB
 90
      255
102
RTVSPost2010PropOp44
 70
     1
102
RTVSPost2010Prop45
280
     0
102
RTVSPost2010PropOp45
 70
     1
102
RTVSPost2010Prop46
 90
       50
102
RTVSPost2010PropOp46
 70
     1
102
RTVSPost2010Prop47
 90
       50
102
RTVSPost2010PropOp47
 70
     1
102
RTVSPost2010Prop48
 90
       50
102
RTVSPost2010PropOp48
 70
     1
102
RTVSPost2010Prop49
280
     0
102
RTVSPost2010PropOp49
 70
     1
102
RTVSPost2010Prop50
 90
       50
102
RTVSPost2010PropOp50
 70
     1
102
RTVSPost2010Prop51ColorIndex
 90
      256
102
RTVSPost2010Prop51ColorRGB
 90
-16777216
102
RTVSPost2010PropOp51
 70
     0
102
RTVSPost2010Prop52
140
1.0
102
RTVSPost2010PropOp52
 70
     0
102
RTVSPost2010Prop53
 90
        2
102
RTVSPost2010PropOp53
 70
     1
102
RTVSPost2010Prop54
  1
strokes_ogs.tif
102
RTVSPost2010PropOp54
 70
     1
102
RTVSPost2010Prop55
280
     0
102
RTVSPost2010PropOp55
 70
     1
102
RTVSPost2010Prop56
140
1.0
102
RTVSPost2010PropOp56
 70
     1
102
RTVSPost2010Prop57
140
1.0
102
RTVSPost2010PropOp57
 70
     1
  0
XRECORD
  5
10104F6
102
{ACAD_REACTORS
330
10104F5
102
}
330
10104F5
100
AcDbXrecord
280
     1
102
RTVSPost2010Prop28
280
     0
102
RTVSPost2010PropOp28
 70
     1
102
RTVSPost2010Prop29
280
     1
102
RTVSPost2010PropOp29
 70
     1
102
RTVSPost2010Prop30
280
     1
102
RTVSPost2010PropOp30
 70
     1
102
RTVSPost2010Prop31
280
     0
102
RTVSPost2010PropOp31
 70
     1
102
RTVSPost2010Prop32
280
     0
102
RTVSPost2010PropOp32
 70
     1
102
RTVSPost2010Prop33
280
     0
102
RTVSPost2010PropOp33
 70
     1
102
RTVSPost2010Prop34
280
     0
102
RTVSPost2010PropOp34
 70
     1
102
RTVSPost2010Prop35
280
     0
102
RTVSPost2010PropOp35
 70
     1
102
RTVSPost2010Prop36
280
     0
102
RTVSPost2010PropOp36
 70
     1
102
RTVSPost2010Prop37
 90
       50
102
RTVSPost2010PropOp37
 70
     1
102
RTVSPost2010Prop38
140
0.0
102
RTVSPost2010PropOp38
 70
     1
102
RTVSPost2010Prop39
140
1.0
102
RTVSPost2010PropOp39
 70
     1
102
RTVSPost2010Prop40
 90
        0
102
RTVSPost2010PropOp40
 70
     1
102
RTVSPost2010Prop41ColorIndex
 90
       18
102
RTVSPost2010Prop41ColorRGB
 90
        0
102
RTVSPost2010PropOp41
 70
     1
102
RTVSPost2010Prop42
 90
       50
102
RTVSPost2010PropOp42
 70
     1
102
RTVSPost2010Prop43
 90
        3
102
RTVSPost2010PropOp43
 70
     1
102
RTVSPost2010Prop44ColorIndex
 90
        5
102
RTVSPost2010Prop44ColorRGB
 90
      255
102
RTVSPost2010PropOp44
 70
     1
102
RTVSPost2010Prop45
280
     0
102
RTVSPost2010PropOp45
 70
     1
102
RTVSPost2010Prop46
 90
       50
102
RTVSPost2010PropOp46
 70
     1
102
RTVSPost2010Prop47
 90
       50
102
RTVSPost2010PropOp47
 70
     1
102
RTVSPost2010Prop48
 90
       50
102
RTVSPost2010PropOp48
 70
     1
102
RTVSPost2010Prop49
280
     0
102
RTVSPost2010PropOp49
 70
     1
102
RTVSPost2010Prop50
 90
       50
102
RTVSPost2010PropOp50
 70
     1
102
RTVSPost2010Prop51ColorIndex
 90
      256
102
RTVSPost2010Prop51ColorRGB
 90
-16777216
102
RTVSPost2010PropOp51
 70
     0
102
RTVSPost2010Prop52
140
1.0
102
RTVSPost2010PropOp52
 70
     0
102
RTVSPost2010Prop53
 90
        2
102
RTVSPost2010PropOp53
 70
     1
102
RTVSPost2010Prop54
  1
strokes_ogs.tif
102
RTVSPost2010PropOp54
 70
     1
102
RTVSPost2010Prop55
280
     0
102
RTVSPost2010PropOp55
 70
     1
102
RTVSPost2010Prop56
140
1.0
102
RTVSPost2010PropOp56
 70
     1
102
RTVSPost2010Prop57
140
1.0
102
RTVSPost2010PropOp57
 70
     1
  0
XRECORD
  5
10104F8
102
{ACAD_REACTORS
330
10104F7
102
}
330
10104F7
100
AcDbXrecord
280
     1
102
RTVSPost2010Prop28
280
     0
102
RTVSPost2010PropOp28
 70
     1
102
RTVSPost2010Prop29
280
     1
102
RTVSPost2010PropOp29
 70
     1
102
RTVSPost2010Prop30
280
     1
102
RTVSPost2010PropOp30
 70
     1
102
RTVSPost2010Prop31
280
     0
102
RTVSPost2010PropOp31
 70
     1
102
RTVSPost2010Prop32
280
     0
102
RTVSPost2010PropOp32
 70
     1
102
RTVSPost2010Prop33
280
     0
102
RTVSPost2010PropOp33
 70
     1
102
RTVSPost2010Prop34
280
     0
102
RTVSPost2010PropOp34
 70
     1
102
RTVSPost2010Prop35
280
     0
102
RTVSPost2010PropOp35
 70
     1
102
RTVSPost2010Prop36
280
     0
102
RTVSPost2010PropOp36
 70
     1
102
RTVSPost2010Prop37
 90
       50
102
RTVSPost2010PropOp37
 70
     1
102
RTVSPost2010Prop38
140
0.0
102
RTVSPost2010PropOp38
 70
     1
102
RTVSPost2010Prop39
140
1.0
102
RTVSPost2010PropOp39
 70
     1
102
RTVSPost2010Prop40
 90
        0
102
RTVSPost2010PropOp40
 70
     1
102
RTVSPost2010Prop41ColorIndex
 90
       18
102
RTVSPost2010Prop41ColorRGB
 90
        0
102
RTVSPost2010PropOp41
 70
     1
102
RTVSPost2010Prop42
 90
       50
102
RTVSPost2010PropOp42
 70
     1
102
RTVSPost2010Prop43
 90
        3
102
RTVSPost2010PropOp43
 70
     1
102
RTVSPost2010Prop44ColorIndex
 90
        5
102
RTVSPost2010Prop44ColorRGB
 90
      255
102
RTVSPost2010PropOp44
 70
     1
102
RTVSPost2010Prop45
280
     0
102
RTVSPost2010PropOp45
 70
     1
102
RTVSPost2010Prop46
 90
       50
102
RTVSPost2010PropOp46
 70
     1
102
RTVSPost2010Prop47
 90
       50
102
RTVSPost2010PropOp47
 70
     1
102
RTVSPost2010Prop48
 90
       50
102
RTVSPost2010PropOp48
 70
     1
102
RTVSPost2010Prop49
280
     0
102
RTVSPost2010PropOp49
 70
     1
102
RTVSPost2010Prop50
 90
       50
102
RTVSPost2010PropOp50
 70
     1
102
RTVSPost2010Prop51ColorIndex
 90
      256
102
RTVSPost2010Prop51ColorRGB
 90
-16777216
102
RTVSPost2010PropOp51
 70
     0
102
RTVSPost2010Prop52
140
1.0
102
RTVSPost2010PropOp52
 70
     0
102
RTVSPost2010Prop53
 90
        2
102
RTVSPost2010PropOp53
 70
     1
102
RTVSPost2010Prop54
  1
strokes_ogs.tif
102
RTVSPost2010PropOp54
 70
     1
102
RTVSPost2010Prop55
280
     0
102
RTVSPost2010PropOp55
 70
     1
102
RTVSPost2010Prop56
140
1.0
102
RTVSPost2010PropOp56
 70
     1
102
RTVSPost2010Prop57
140
1.0
102
RTVSPost2010PropOp57
 70
     1
  0
XRECORD
  5
10104FA
102
{ACAD_REACTORS
330
10104F9
102
}
330
10104F9
100
AcDbXrecord
280
     1
102
RTVSPost2010Prop28
280
     0
102
RTVSPost2010PropOp28
 70
     1
102
RTVSPost2010Prop29
280
     1
102
RTVSPost2010PropOp29
 70
     1
102
RTVSPost2010Prop30
280
     1
102
RTVSPost2010PropOp30
 70
     1
102
RTVSPost2010Prop31
280
     0
102
RTVSPost2010PropOp31
 70
     1
102
RTVSPost2010Prop32
280
     0
102
RTVSPost2010PropOp32
 70
     1
102
RTVSPost2010Prop33
280
     0
102
RTVSPost2010PropOp33
 70
     1
102
RTVSPost2010Prop34
280
     0
102
RTVSPost2010PropOp34
 70
     1
102
RTVSPost2010Prop35
280
     0
102
RTVSPost2010PropOp35
 70
     1
102
RTVSPost2010Prop36
280
     0
102
RTVSPost2010PropOp36
 70
     1
102
RTVSPost2010Prop37
 90
       50
102
RTVSPost2010PropOp37
 70
     1
102
RTVSPost2010Prop38
140
0.0
102
RTVSPost2010PropOp38
 70
     1
102
RTVSPost2010Prop39
140
1.0
102
RTVSPost2010PropOp39
 70
     1
102
RTVSPost2010Prop40
 90
        0
102
RTVSPost2010PropOp40
 70
     1
102
RTVSPost2010Prop41ColorIndex
 90
       18
102
RTVSPost2010Prop41ColorRGB
 90
        0
102
RTVSPost2010PropOp41
 70
     1
102
RTVSPost2010Prop42
 90
       50
102
RTVSPost2010PropOp42
 70
     1
102
RTVSPost2010Prop43
 90
        3
102
RTVSPost2010PropOp43
 70
     1
102
RTVSPost2010Prop44ColorIndex
 90
        5
102
RTVSPost2010Prop44ColorRGB
 90
      255
102
RTVSPost2010PropOp44
 70
     1
102
RTVSPost2010Prop45
280
     0
102
RTVSPost2010PropOp45
 70
     1
102
RTVSPost2010Prop46
 90
       50
102
RTVSPost2010PropOp46
 70
     1
102
RTVSPost2010Prop47
 90
       50
102
RTVSPost2010PropOp47
 70
     1
102
RTVSPost2010Prop48
 90
       50
102
RTVSPost2010PropOp48
 70
     1
102
RTVSPost2010Prop49
280
     0
102
RTVSPost2010PropOp49
 70
     1
102
RTVSPost2010Prop50
 90
       50
102
RTVSPost2010PropOp50
 70
     1
102
RTVSPost2010Prop51ColorIndex
 90
      256
102
RTVSPost2010Prop51ColorRGB
 90
-16777216
102
RTVSPost2010PropOp51
 70
     0
102
RTVSPost2010Prop52
140
1.0
102
RTVSPost2010PropOp52
 70
     0
102
RTVSPost2010Prop53
 90
        2
102
RTVSPost2010PropOp53
 70
     1
102
RTVSPost2010Prop54
  1
strokes_ogs.tif
102
RTVSPost2010PropOp54
 70
     1
102
RTVSPost2010Prop55
280
     0
102
RTVSPost2010PropOp55
 70
     1
102
RTVSPost2010Prop56
140
1.0
102
RTVSPost2010PropOp56
 70
     1
102
RTVSPost2010Prop57
140
1.0
102
RTVSPost2010PropOp57
 70
     1
  0
XRECORD
  5
1010502
102
{ACAD_REACTORS
330
1010501
102
}
330
1010501
100
AcDbXrecord
280
     1
102
RTVSPost2010Prop28
280
     0
102
RTVSPost2010PropOp28
 70
     1
102
RTVSPost2010Prop29
280
     1
102
RTVSPost2010PropOp29
 70
     1
102
RTVSPost2010Prop30
280
     1
102
RTVSPost2010PropOp30
 70
     1
102
RTVSPost2010Prop31
280
     0
102
RTVSPost2010PropOp31
 70
     1
102
RTVSPost2010Prop32
280
     0
102
RTVSPost2010PropOp32
 70
     1
102
RTVSPost2010Prop33
280
     0
102
RTVSPost2010PropOp33
 70
     1
102
RTVSPost2010Prop34
280
     0
102
RTVSPost2010PropOp34
 70
     1
102
RTVSPost2010Prop35
280
     0
102
RTVSPost2010PropOp35
 70
     1
102
RTVSPost2010Prop36
280
     0
102
RTVSPost2010PropOp36
 70
     1
102
RTVSPost2010Prop37
 90
       50
102
RTVSPost2010PropOp37
 70
     1
102
RTVSPost2010Prop38
140
0.0
102
RTVSPost2010PropOp38
 70
     1
102
RTVSPost2010Prop39
140
1.0
102
RTVSPost2010PropOp39
 70
     1
102
RTVSPost2010Prop40
 90
        0
102
RTVSPost2010PropOp40
 70
     1
102
RTVSPost2010Prop41ColorIndex
 90
       18
102
RTVSPost2010Prop41ColorRGB
 90
        0
102
RTVSPost2010PropOp41
 70
     1
102
RTVSPost2010Prop42
 90
       50
102
RTVSPost2010PropOp42
 70
     1
102
RTVSPost2010Prop43
 90
        3
102
RTVSPost2010PropOp43
 70
     1
102
RTVSPost2010Prop44ColorIndex
 90
        5
102
RTVSPost2010Prop44ColorRGB
 90
      255
102
RTVSPost2010PropOp44
 70
     1
102
RTVSPost2010Prop45
280
     0
102
RTVSPost2010PropOp45
 70
     1
102
RTVSPost2010Prop46
 90
       50
102
RTVSPost2010PropOp46
 70
     1
102
RTVSPost2010Prop47
 90
       50
102
RTVSPost2010PropOp47
 70
     1
102
RTVSPost2010Prop48
 90
       50
102
RTVSPost2010PropOp48
 70
     1
102
RTVSPost2010Prop49
280
     0
102
RTVSPost2010PropOp49
 70
     1
102
RTVSPost2010Prop50
 90
       50
102
RTVSPost2010PropOp50
 70
     1
102
RTVSPost2010Prop51ColorIndex
 90
      256
102
RTVSPost2010Prop51ColorRGB
 90
-16777216
102
RTVSPost2010PropOp51
 70
     0
102
RTVSPost2010Prop52
140
1.0
102
RTVSPost2010PropOp52
 70
     0
102
RTVSPost2010Prop53
 90
        2
102
RTVSPost2010PropOp53
 70
     1
102
RTVSPost2010Prop54
  1
strokes_ogs.tif
102
RTVSPost2010PropOp54
 70
     1
102
RTVSPost2010Prop55
280
     0
102
RTVSPost2010PropOp55
 70
     1
102
RTVSPost2010Prop56
140
1.0
102
RTVSPost2010PropOp56
 70
     1
102
RTVSPost2010Prop57
140
1.0
102
RTVSPost2010PropOp57
 70
     1
  0
XRECORD
  5
101051E
102
{ACAD_REACTORS
330
101051D
102
}
330
101051D
100
AcDbXrecord
280
     1
102
RTVSPost2010Prop28
280
     0
102
RTVSPost2010PropOp28
 70
     1
102
RTVSPost2010Prop29
280
     1
102
RTVSPost2010PropOp29
 70
     1
102
RTVSPost2010Prop30
280
     1
102
RTVSPost2010PropOp30
 70
     1
102
RTVSPost2010Prop31
280
     0
102
RTVSPost2010PropOp31
 70
     1
102
RTVSPost2010Prop32
280
     0
102
RTVSPost2010PropOp32
 70
     1
102
RTVSPost2010Prop33
280
     0
102
RTVSPost2010PropOp33
 70
     1
102
RTVSPost2010Prop34
280
     0
102
RTVSPost2010PropOp34
 70
     1
102
RTVSPost2010Prop35
280
     0
102
RTVSPost2010PropOp35
 70
     1
102
RTVSPost2010Prop36
280
     0
102
RTVSPost2010PropOp36
 70
     1
102
RTVSPost2010Prop37
 90
       50
102
RTVSPost2010PropOp37
 70
     0
102
RTVSPost2010Prop38
140
0.0
102
RTVSPost2010PropOp38
 70
     0
102
RTVSPost2010Prop39
140
1.0
102
RTVSPost2010PropOp39
 70
     0
102
RTVSPost2010Prop40
 90
        0
102
RTVSPost2010PropOp40
 70
     0
102
RTVSPost2010Prop41ColorIndex
 90
       18
102
RTVSPost2010Prop41ColorRGB
 90
        0
102
RTVSPost2010PropOp41
 70
     0
102
RTVSPost2010Prop42
 90
       50
102
RTVSPost2010PropOp42
 70
     0
102
RTVSPost2010Prop43
 90
        3
102
RTVSPost2010PropOp43
 70
     0
102
RTVSPost2010Prop44ColorIndex
 90
        5
102
RTVSPost2010Prop44ColorRGB
 90
      255
102
RTVSPost2010PropOp44
 70
     0
102
RTVSPost2010Prop45
280
     0
102
RTVSPost2010PropOp45
 70
     1
102
RTVSPost2010Prop46
 90
       50
102
RTVSPost2010PropOp46
 70
     0
102
RTVSPost2010Prop47
 90
       50
102
RTVSPost2010PropOp47
 70
     0
102
RTVSPost2010Prop48
 90
       50
102
RTVSPost2010PropOp48
 70
     0
102
RTVSPost2010Prop49
280
     0
102
RTVSPost2010PropOp49
 70
     1
102
RTVSPost2010Prop50
 90
       50
102
RTVSPost2010PropOp50
 70
     0
102
RTVSPost2010Prop51ColorIndex
 90
      256
102
RTVSPost2010Prop51ColorRGB
 90
-16777216
102
RTVSPost2010PropOp51
 70
     0
102
RTVSPost2010Prop52
140
1.0
102
RTVSPost2010PropOp52
 70
     0
102
RTVSPost2010Prop53
 90
        2
102
RTVSPost2010PropOp53
 70
     0
102
RTVSPost2010Prop54
  1
strokes_ogs.tif
102
RTVSPost2010PropOp54
 70
     0
102
RTVSPost2010Prop55
280
     0
102
RTVSPost2010PropOp55
 70
     1
102
RTVSPost2010Prop56
140
1.0
102
RTVSPost2010PropOp56
 70
     0
102
RTVSPost2010Prop57
140
1.0
102
RTVSPost2010PropOp57
 70
     0
  0
XRECORD
  5
101050E
102
{ACAD_REACTORS
330
101050D
102
}
330
101050D
100
AcDbXrecord
280
     1
102
RTVSPost2010Prop28
280
     0
102
RTVSPost2010PropOp28
 70
     1
102
RTVSPost2010Prop29
280
     1
102
RTVSPost2010PropOp29
 70
     1
102
RTVSPost2010Prop30
280
     1
102
RTVSPost2010PropOp30
 70
     1
102
RTVSPost2010Prop31
280
     0
102
RTVSPost2010PropOp31
 70
     1
102
RTVSPost2010Prop32
280
     0
102
RTVSPost2010PropOp32
 70
     1
102
RTVSPost2010Prop33
280
     0
102
RTVSPost2010PropOp33
 70
     1
102
RTVSPost2010Prop34
280
     0
102
RTVSPost2010PropOp34
 70
     1
102
RTVSPost2010Prop35
280
     0
102
RTVSPost2010PropOp35
 70
     1
102
RTVSPost2010Prop36
280
     0
102
RTVSPost2010PropOp36
 70
     1
102
RTVSPost2010Prop37
 90
       50
102
RTVSPost2010PropOp37
 70
     1
102
RTVSPost2010Prop38
140
0.0
102
RTVSPost2010PropOp38
 70
     1
102
RTVSPost2010Prop39
140
1.0
102
RTVSPost2010PropOp39
 70
     1
102
RTVSPost2010Prop40
 90
        0
102
RTVSPost2010PropOp40
 70
     1
102
RTVSPost2010Prop41ColorIndex
 90
       18
102
RTVSPost2010Prop41ColorRGB
 90
        0
102
RTVSPost2010PropOp41
 70
     1
102
RTVSPost2010Prop42
 90
       50
102
RTVSPost2010PropOp42
 70
     1
102
RTVSPost2010Prop43
 90
        3
102
RTVSPost2010PropOp43
 70
     1
102
RTVSPost2010Prop44ColorIndex
 90
        5
102
RTVSPost2010Prop44ColorRGB
 90
      255
102
RTVSPost2010PropOp44
 70
     1
102
RTVSPost2010Prop45
280
     0
102
RTVSPost2010PropOp45
 70
     1
102
RTVSPost2010Prop46
 90
       50
102
RTVSPost2010PropOp46
 70
     1
102
RTVSPost2010Prop47
 90
       50
102
RTVSPost2010PropOp47
 70
     1
102
RTVSPost2010Prop48
 90
       50
102
RTVSPost2010PropOp48
 70
     1
102
RTVSPost2010Prop49
280
     0
102
RTVSPost2010PropOp49
 70
     1
102
RTVSPost2010Prop50
 90
       50
102
RTVSPost2010PropOp50
 70
     1
102
RTVSPost2010Prop51ColorIndex
 90
      256
102
RTVSPost2010Prop51ColorRGB
 90
-16777216
102
RTVSPost2010PropOp51
 70
     0
102
RTVSPost2010Prop52
140
1.0
102
RTVSPost2010PropOp52
 70
     0
102
RTVSPost2010Prop53
 90
        2
102
RTVSPost2010PropOp53
 70
     1
102
RTVSPost2010Prop54
  1
strokes_ogs.tif
102
RTVSPost2010PropOp54
 70
     1
102
RTVSPost2010Prop55
280
     0
102
RTVSPost2010PropOp55
 70
     1
102
RTVSPost2010Prop56
140
1.0
102
RTVSPost2010PropOp56
 70
     1
102
RTVSPost2010Prop57
140
1.0
102
RTVSPost2010PropOp57
 70
     1
  0
XRECORD
  5
1010520
102
{ACAD_REACTORS
330
101051F
102
}
330
101051F
100
AcDbXrecord
280
     1
102
RTVSPost2010Prop28
280
     0
102
RTVSPost2010PropOp28
 70
     1
102
RTVSPost2010Prop29
280
     1
102
RTVSPost2010PropOp29
 70
     1
102
RTVSPost2010Prop30
280
     1
102
RTVSPost2010PropOp30
 70
     1
102
RTVSPost2010Prop31
280
     0
102
RTVSPost2010PropOp31
 70
     1
102
RTVSPost2010Prop32
280
     0
102
RTVSPost2010PropOp32
 70
     1
102
RTVSPost2010Prop33
280
     0
102
RTVSPost2010PropOp33
 70
     1
102
RTVSPost2010Prop34
280
     0
102
RTVSPost2010PropOp34
 70
     1
102
RTVSPost2010Prop35
280
     0
102
RTVSPost2010PropOp35
 70
     1
102
RTVSPost2010Prop36
280
     0
102
RTVSPost2010PropOp36
 70
     1
102
RTVSPost2010Prop37
 90
       50
102
RTVSPost2010PropOp37
 70
     0
102
RTVSPost2010Prop38
140
0.0
102
RTVSPost2010PropOp38
 70
     0
102
RTVSPost2010Prop39
140
1.0
102
RTVSPost2010PropOp39
 70
     0
102
RTVSPost2010Prop40
 90
        0
102
RTVSPost2010PropOp40
 70
     0
102
RTVSPost2010Prop41ColorIndex
 90
       18
102
RTVSPost2010Prop41ColorRGB
 90
        0
102
RTVSPost2010PropOp41
 70
     0
102
RTVSPost2010Prop42
 90
       50
102
RTVSPost2010PropOp42
 70
     0
102
RTVSPost2010Prop43
 90
        3
102
RTVSPost2010PropOp43
 70
     0
102
RTVSPost2010Prop44ColorIndex
 90
        5
102
RTVSPost2010Prop44ColorRGB
 90
      255
102
RTVSPost2010PropOp44
 70
     0
102
RTVSPost2010Prop45
280
     0
102
RTVSPost2010PropOp45
 70
     1
102
RTVSPost2010Prop46
 90
       50
102
RTVSPost2010PropOp46
 70
     0
102
RTVSPost2010Prop47
 90
       50
102
RTVSPost2010PropOp47
 70
     0
102
RTVSPost2010Prop48
 90
       50
102
RTVSPost2010PropOp48
 70
     0
102
RTVSPost2010Prop49
280
     0
102
RTVSPost2010PropOp49
 70
     1
102
RTVSPost2010Prop50
 90
       50
102
RTVSPost2010PropOp50
 70
     0
102
RTVSPost2010Prop51ColorIndex
 90
      256
102
RTVSPost2010Prop51ColorRGB
 90
-16777216
102
RTVSPost2010PropOp51
 70
     0
102
RTVSPost2010Prop52
140
1.0
102
RTVSPost2010PropOp52
 70
     0
102
RTVSPost2010Prop53
 90
        2
102
RTVSPost2010PropOp53
 70
     0
102
RTVSPost2010Prop54
  1
strokes_ogs.tif
102
RTVSPost2010PropOp54
 70
     0
102
RTVSPost2010Prop55
280
     0
102
RTVSPost2010PropOp55
 70
     1
102
RTVSPost2010Prop56
140
1.0
102
RTVSPost2010PropOp56
 70
     0
102
RTVSPost2010Prop57
140
1.0
102
RTVSPost2010PropOp57
 70
     0
  0
XRECORD
  5
1010506
102
{ACAD_REACTORS
330
1010505
102
}
330
1010505
100
AcDbXrecord
280
     1
102
RTVSPost2010Prop28
280
     0
102
RTVSPost2010PropOp28
 70
     1
102
RTVSPost2010Prop29
280
     1
102
RTVSPost2010PropOp29
 70
     1
102
RTVSPost2010Prop30
280
     1
102
RTVSPost2010PropOp30
 70
     1
102
RTVSPost2010Prop31
280
     0
102
RTVSPost2010PropOp31
 70
     1
102
RTVSPost2010Prop32
280
     0
102
RTVSPost2010PropOp32
 70
     1
102
RTVSPost2010Prop33
280
     0
102
RTVSPost2010PropOp33
 70
     1
102
RTVSPost2010Prop34
280
     0
102
RTVSPost2010PropOp34
 70
     1
102
RTVSPost2010Prop35
280
     0
102
RTVSPost2010PropOp35
 70
     1
102
RTVSPost2010Prop36
280
     0
102
RTVSPost2010PropOp36
 70
     1
102
RTVSPost2010Prop37
 90
       50
102
RTVSPost2010PropOp37
 70
     1
102
RTVSPost2010Prop38
140
0.0
102
RTVSPost2010PropOp38
 70
     1
102
RTVSPost2010Prop39
140
1.0
102
RTVSPost2010PropOp39
 70
     1
102
RTVSPost2010Prop40
 90
        0
102
RTVSPost2010PropOp40
 70
     1
102
RTVSPost2010Prop41ColorIndex
 90
       18
102
RTVSPost2010Prop41ColorRGB
 90
        0
102
RTVSPost2010PropOp41
 70
     1
102
RTVSPost2010Prop42
 90
       50
102
RTVSPost2010PropOp42
 70
     1
102
RTVSPost2010Prop43
 90
        3
102
RTVSPost2010PropOp43
 70
     1
102
RTVSPost2010Prop44ColorIndex
 90
        5
102
RTVSPost2010Prop44ColorRGB
 90
      255
102
RTVSPost2010PropOp44
 70
     1
102
RTVSPost2010Prop45
280
     0
102
RTVSPost2010PropOp45
 70
     1
102
RTVSPost2010Prop46
 90
       50
102
RTVSPost2010PropOp46
 70
     1
102
RTVSPost2010Prop47
 90
       50
102
RTVSPost2010PropOp47
 70
     1
102
RTVSPost2010Prop48
 90
       50
102
RTVSPost2010PropOp48
 70
     1
102
RTVSPost2010Prop49
280
     0
102
RTVSPost2010PropOp49
 70
     1
102
RTVSPost2010Prop50
 90
       50
102
RTVSPost2010PropOp50
 70
     1
102
RTVSPost2010Prop51ColorIndex
 90
      256
102
RTVSPost2010Prop51ColorRGB
 90
-16777216
102
RTVSPost2010PropOp51
 70
     0
102
RTVSPost2010Prop52
140
1.0
102
RTVSPost2010PropOp52
 70
     0
102
RTVSPost2010Prop53
 90
        2
102
RTVSPost2010PropOp53
 70
     1
102
RTVSPost2010Prop54
  1
strokes_ogs.tif
102
RTVSPost2010PropOp54
 70
     1
102
RTVSPost2010Prop55
280
     0
102
RTVSPost2010PropOp55
 70
     1
102
RTVSPost2010Prop56
140
1.0
102
RTVSPost2010PropOp56
 70
     1
102
RTVSPost2010Prop57
140
1.0
102
RTVSPost2010PropOp57
 70
     1
  0
XRECORD
  5
101051C
102
{ACAD_REACTORS
330
101051B
102
}
330
101051B
100
AcDbXrecord
280
     1
102
RTVSPost2010Prop28
280
     0
102
RTVSPost2010PropOp28
 70
     1
102
RTVSPost2010Prop29
280
     1
102
RTVSPost2010PropOp29
 70
     1
102
RTVSPost2010Prop30
280
     1
102
RTVSPost2010PropOp30
 70
     1
102
RTVSPost2010Prop31
280
     0
102
RTVSPost2010PropOp31
 70
     1
102
RTVSPost2010Prop32
280
     0
102
RTVSPost2010PropOp32
 70
     1
102
RTVSPost2010Prop33
280
     0
102
RTVSPost2010PropOp33
 70
     1
102
RTVSPost2010Prop34
280
     0
102
RTVSPost2010PropOp34
 70
     1
102
RTVSPost2010Prop35
280
     0
102
RTVSPost2010PropOp35
 70
     1
102
RTVSPost2010Prop36
280
     0
102
RTVSPost2010PropOp36
 70
     1
102
RTVSPost2010Prop37
 90
       50
102
RTVSPost2010PropOp37
 70
     1
102
RTVSPost2010Prop38
140
0.0
102
RTVSPost2010PropOp38
 70
     1
102
RTVSPost2010Prop39
140
1.0
102
RTVSPost2010PropOp39
 70
     1
102
RTVSPost2010Prop40
 90
        0
102
RTVSPost2010PropOp40
 70
     1
102
RTVSPost2010Prop41ColorIndex
 90
       18
102
RTVSPost2010Prop41ColorRGB
 90
        0
102
RTVSPost2010PropOp41
 70
     1
102
RTVSPost2010Prop42
 90
       50
102
RTVSPost2010PropOp42
 70
     1
102
RTVSPost2010Prop43
 90
        3
102
RTVSPost2010PropOp43
 70
     1
102
RTVSPost2010Prop44ColorIndex
 90
        5
102
RTVSPost2010Prop44ColorRGB
 90
      255
102
RTVSPost2010PropOp44
 70
     1
102
RTVSPost2010Prop45
280
     0
102
RTVSPost2010PropOp45
 70
     1
102
RTVSPost2010Prop46
 90
       50
102
RTVSPost2010PropOp46
 70
     1
102
RTVSPost2010Prop47
 90
       50
102
RTVSPost2010PropOp47
 70
     1
102
RTVSPost2010Prop48
 90
       50
102
RTVSPost2010PropOp48
 70
     1
102
RTVSPost2010Prop49
280
     0
102
RTVSPost2010PropOp49
 70
     1
102
RTVSPost2010Prop50
 90
       50
102
RTVSPost2010PropOp50
 70
     1
102
RTVSPost2010Prop51ColorIndex
 90
      256
102
RTVSPost2010Prop51ColorRGB
 90
-16777216
102
RTVSPost2010PropOp51
 70
     0
102
RTVSPost2010Prop52
140
1.0
102
RTVSPost2010PropOp52
 70
     0
102
RTVSPost2010Prop53
 90
        2
102
RTVSPost2010PropOp53
 70
     1
102
RTVSPost2010Prop54
  1
strokes_ogs.tif
102
RTVSPost2010PropOp54
 70
     1
102
RTVSPost2010Prop55
280
     0
102
RTVSPost2010PropOp55
 70
     1
102
RTVSPost2010Prop56
140
1.0
102
RTVSPost2010PropOp56
 70
     1
102
RTVSPost2010Prop57
140
1.0
102
RTVSPost2010PropOp57
 70
     1
  0
XRECORD
  5
101051A
102
{ACAD_REACTORS
330
1010519
102
}
330
1010519
100
AcDbXrecord
280
     1
102
RTVSPost2010Prop28
280
     0
102
RTVSPost2010PropOp28
 70
     1
102
RTVSPost2010Prop29
280
     1
102
RTVSPost2010PropOp29
 70
     1
102
RTVSPost2010Prop30
280
     1
102
RTVSPost2010PropOp30
 70
     1
102
RTVSPost2010Prop31
280
     0
102
RTVSPost2010PropOp31
 70
     1
102
RTVSPost2010Prop32
280
     0
102
RTVSPost2010PropOp32
 70
     1
102
RTVSPost2010Prop33
280
     0
102
RTVSPost2010PropOp33
 70
     1
102
RTVSPost2010Prop34
280
     0
102
RTVSPost2010PropOp34
 70
     1
102
RTVSPost2010Prop35
280
     0
102
RTVSPost2010PropOp35
 70
     1
102
RTVSPost2010Prop36
280
     0
102
RTVSPost2010PropOp36
 70
     1
102
RTVSPost2010Prop37
 90
       50
102
RTVSPost2010PropOp37
 70
     1
102
RTVSPost2010Prop38
140
0.0
102
RTVSPost2010PropOp38
 70
     1
102
RTVSPost2010Prop39
140
1.0
102
RTVSPost2010PropOp39
 70
     1
102
RTVSPost2010Prop40
 90
        0
102
RTVSPost2010PropOp40
 70
     1
102
RTVSPost2010Prop41ColorIndex
 90
       18
102
RTVSPost2010Prop41ColorRGB
 90
        0
102
RTVSPost2010PropOp41
 70
     1
102
RTVSPost2010Prop42
 90
       50
102
RTVSPost2010PropOp42
 70
     1
102
RTVSPost2010Prop43
 90
        3
102
RTVSPost2010PropOp43
 70
     1
102
RTVSPost2010Prop44ColorIndex
 90
        5
102
RTVSPost2010Prop44ColorRGB
 90
      255
102
RTVSPost2010PropOp44
 70
     1
102
RTVSPost2010Prop45
280
     0
102
RTVSPost2010PropOp45
 70
     1
102
RTVSPost2010Prop46
 90
       50
102
RTVSPost2010PropOp46
 70
     1
102
RTVSPost2010Prop47
 90
       50
102
RTVSPost2010PropOp47
 70
     1
102
RTVSPost2010Prop48
 90
       50
102
RTVSPost2010PropOp48
 70
     1
102
RTVSPost2010Prop49
280
     0
102
RTVSPost2010PropOp49
 70
     1
102
RTVSPost2010Prop50
 90
       50
102
RTVSPost2010PropOp50
 70
     1
102
RTVSPost2010Prop51ColorIndex
 90
      256
102
RTVSPost2010Prop51ColorRGB
 90
-16777216
102
RTVSPost2010PropOp51
 70
     0
102
RTVSPost2010Prop52
140
1.0
102
RTVSPost2010PropOp52
 70
     0
102
RTVSPost2010Prop53
 90
        2
102
RTVSPost2010PropOp53
 70
     1
102
RTVSPost2010Prop54
  1
strokes_ogs.tif
102
RTVSPost2010PropOp54
 70
     1
102
RTVSPost2010Prop55
280
     0
102
RTVSPost2010PropOp55
 70
     1
102
RTVSPost2010Prop56
140
1.0
102
RTVSPost2010PropOp56
 70
     1
102
RTVSPost2010Prop57
140
1.0
102
RTVSPost2010PropOp57
 70
     1
  0
XRECORD
  5
1010514
102
{ACAD_REACTORS
330
1010513
102
}
330
1010513
100
AcDbXrecord
280
     1
102
RTVSPost2010Prop28
280
     0
102
RTVSPost2010PropOp28
 70
     1
102
RTVSPost2010Prop29
280
     1
102
RTVSPost2010PropOp29
 70
     1
102
RTVSPost2010Prop30
280
     1
102
RTVSPost2010PropOp30
 70
     1
102
RTVSPost2010Prop31
280
     0
102
RTVSPost2010PropOp31
 70
     1
102
RTVSPost2010Prop32
280
     0
102
RTVSPost2010PropOp32
 70
     1
102
RTVSPost2010Prop33
280
     0
102
RTVSPost2010PropOp33
 70
     1
102
RTVSPost2010Prop34
280
     0
102
RTVSPost2010PropOp34
 70
     1
102
RTVSPost2010Prop35
280
     0
102
RTVSPost2010PropOp35
 70
     1
102
RTVSPost2010Prop36
280
     0
102
RTVSPost2010PropOp36
 70
     1
102
RTVSPost2010Prop37
 90
       50
102
RTVSPost2010PropOp37
 70
     1
102
RTVSPost2010Prop38
140
0.0
102
RTVSPost2010PropOp38
 70
     1
102
RTVSPost2010Prop39
140
1.0
102
RTVSPost2010PropOp39
 70
     1
102
RTVSPost2010Prop40
 90
        0
102
RTVSPost2010PropOp40
 70
     1
102
RTVSPost2010Prop41ColorIndex
 90
       18
102
RTVSPost2010Prop41ColorRGB
 90
        0
102
RTVSPost2010PropOp41
 70
     1
102
RTVSPost2010Prop42
 90
       50
102
RTVSPost2010PropOp42
 70
     1
102
RTVSPost2010Prop43
 90
        3
102
RTVSPost2010PropOp43
 70
     1
102
RTVSPost2010Prop44ColorIndex
 90
        5
102
RTVSPost2010Prop44ColorRGB
 90
      255
102
RTVSPost2010PropOp44
 70
     1
102
RTVSPost2010Prop45
280
     0
102
RTVSPost2010PropOp45
 70
     1
102
RTVSPost2010Prop46
 90
       50
102
RTVSPost2010PropOp46
 70
     1
102
RTVSPost2010Prop47
 90
       50
102
RTVSPost2010PropOp47
 70
     1
102
RTVSPost2010Prop48
 90
       50
102
RTVSPost2010PropOp48
 70
     1
102
RTVSPost2010Prop49
280
     0
102
RTVSPost2010PropOp49
 70
     1
102
RTVSPost2010Prop50
 90
       50
102
RTVSPost2010PropOp50
 70
     1
102
RTVSPost2010Prop51ColorIndex
 90
      256
102
RTVSPost2010Prop51ColorRGB
 90
-16777216
102
RTVSPost2010PropOp51
 70
     0
102
RTVSPost2010Prop52
140
1.0
102
RTVSPost2010PropOp52
 70
     0
102
RTVSPost2010Prop53
 90
        2
102
RTVSPost2010PropOp53
 70
     1
102
RTVSPost2010Prop54
  1
strokes_ogs.tif
102
RTVSPost2010PropOp54
 70
     1
102
RTVSPost2010Prop55
280
     0
102
RTVSPost2010PropOp55
 70
     1
102
RTVSPost2010Prop56
140
1.0
102
RTVSPost2010PropOp56
 70
     1
102
RTVSPost2010Prop57
140
1.0
102
RTVSPost2010PropOp57
 70
     1
  0
XRECORD
  5
1010516
102
{ACAD_REACTORS
330
1010515
102
}
330
1010515
100
AcDbXrecord
280
     1
102
RTVSPost2010Prop28
280
     0
102
RTVSPost2010PropOp28
 70
     1
102
RTVSPost2010Prop29
280
     1
102
RTVSPost2010PropOp29
 70
     1
102
RTVSPost2010Prop30
280
     1
102
RTVSPost2010PropOp30
 70
     1
102
RTVSPost2010Prop31
280
     0
102
RTVSPost2010PropOp31
 70
     1
102
RTVSPost2010Prop32
280
     0
102
RTVSPost2010PropOp32
 70
     1
102
RTVSPost2010Prop33
280
     0
102
RTVSPost2010PropOp33
 70
     1
102
RTVSPost2010Prop34
280
     0
102
RTVSPost2010PropOp34
 70
     1
102
RTVSPost2010Prop35
280
     0
102
RTVSPost2010PropOp35
 70
     1
102
RTVSPost2010Prop36
280
     0
102
RTVSPost2010PropOp36
 70
     1
102
RTVSPost2010Prop37
 90
       50
102
RTVSPost2010PropOp37
 70
     1
102
RTVSPost2010Prop38
140
0.0
102
RTVSPost2010PropOp38
 70
     1
102
RTVSPost2010Prop39
140
1.0
102
RTVSPost2010PropOp39
 70
     1
102
RTVSPost2010Prop40
 90
        0
102
RTVSPost2010PropOp40
 70
     1
102
RTVSPost2010Prop41ColorIndex
 90
       18
102
RTVSPost2010Prop41ColorRGB
 90
        0
102
RTVSPost2010PropOp41
 70
     1
102
RTVSPost2010Prop42
 90
       50
102
RTVSPost2010PropOp42
 70
     1
102
RTVSPost2010Prop43
 90
        3
102
RTVSPost2010PropOp43
 70
     1
102
RTVSPost2010Prop44ColorIndex
 90
        5
102
RTVSPost2010Prop44ColorRGB
 90
      255
102
RTVSPost2010PropOp44
 70
     1
102
RTVSPost2010Prop45
280
     0
102
RTVSPost2010PropOp45
 70
     1
102
RTVSPost2010Prop46
 90
       50
102
RTVSPost2010PropOp46
 70
     1
102
RTVSPost2010Prop47
 90
       50
102
RTVSPost2010PropOp47
 70
     1
102
RTVSPost2010Prop48
 90
       50
102
RTVSPost2010PropOp48
 70
     1
102
RTVSPost2010Prop49
280
     0
102
RTVSPost2010PropOp49
 70
     1
102
RTVSPost2010Prop50
 90
       50
102
RTVSPost2010PropOp50
 70
     1
102
RTVSPost2010Prop51ColorIndex
 90
      256
102
RTVSPost2010Prop51ColorRGB
 90
-16777216
102
RTVSPost2010PropOp51
 70
     0
102
RTVSPost2010Prop52
140
1.0
102
RTVSPost2010PropOp52
 70
     0
102
RTVSPost2010Prop53
 90
        2
102
RTVSPost2010PropOp53
 70
     1
102
RTVSPost2010Prop54
  1
strokes_ogs.tif
102
RTVSPost2010PropOp54
 70
     1
102
RTVSPost2010Prop55
280
     0
102
RTVSPost2010PropOp55
 70
     1
102
RTVSPost2010Prop56
140
1.0
102
RTVSPost2010PropOp56
 70
     1
102
RTVSPost2010Prop57
140
1.0
102
RTVSPost2010PropOp57
 70
     1
  0
XRECORD
  5
101050C
102
{ACAD_REACTORS
330
101050B
102
}
330
101050B
100
AcDbXrecord
280
     1
102
RTVSPost2010Prop28
280
     0
102
RTVSPost2010PropOp28
 70
     1
102
RTVSPost2010Prop29
280
     1
102
RTVSPost2010PropOp29
 70
     1
102
RTVSPost2010Prop30
280
     1
102
RTVSPost2010PropOp30
 70
     1
102
RTVSPost2010Prop31
280
     0
102
RTVSPost2010PropOp31
 70
     1
102
RTVSPost2010Prop32
280
     0
102
RTVSPost2010PropOp32
 70
     1
102
RTVSPost2010Prop33
280
     0
102
RTVSPost2010PropOp33
 70
     1
102
RTVSPost2010Prop34
280
     0
102
RTVSPost2010PropOp34
 70
     1
102
RTVSPost2010Prop35
280
     0
102
RTVSPost2010PropOp35
 70
     1
102
RTVSPost2010Prop36
280
     0
102
RTVSPost2010PropOp36
 70
     1
102
RTVSPost2010Prop37
 90
       50
102
RTVSPost2010PropOp37
 70
     1
102
RTVSPost2010Prop38
140
0.0
102
RTVSPost2010PropOp38
 70
     1
102
RTVSPost2010Prop39
140
1.0
102
RTVSPost2010PropOp39
 70
     1
102
RTVSPost2010Prop40
 90
        0
102
RTVSPost2010PropOp40
 70
     1
102
RTVSPost2010Prop41ColorIndex
 90
       18
102
RTVSPost2010Prop41ColorRGB
 90
        0
102
RTVSPost2010PropOp41
 70
     1
102
RTVSPost2010Prop42
 90
       50
102
RTVSPost2010PropOp42
 70
     1
102
RTVSPost2010Prop43
 90
        3
102
RTVSPost2010PropOp43
 70
     1
102
RTVSPost2010Prop44ColorIndex
 90
        5
102
RTVSPost2010Prop44ColorRGB
 90
      255
102
RTVSPost2010PropOp44
 70
     1
102
RTVSPost2010Prop45
280
     0
102
RTVSPost2010PropOp45
 70
     1
102
RTVSPost2010Prop46
 90
       50
102
RTVSPost2010PropOp46
 70
     1
102
RTVSPost2010Prop47
 90
       50
102
RTVSPost2010PropOp47
 70
     1
102
RTVSPost2010Prop48
 90
       50
102
RTVSPost2010PropOp48
 70
     1
102
RTVSPost2010Prop49
280
     0
102
RTVSPost2010PropOp49
 70
     1
102
RTVSPost2010Prop50
 90
       50
102
RTVSPost2010PropOp50
 70
     1
102
RTVSPost2010Prop51ColorIndex
 90
      256
102
RTVSPost2010Prop51ColorRGB
 90
-16777216
102
RTVSPost2010PropOp51
 70
     0
102
RTVSPost2010Prop52
140
1.0
102
RTVSPost2010PropOp52
 70
     0
102
RTVSPost2010Prop53
 90
        2
102
RTVSPost2010PropOp53
 70
     1
102
RTVSPost2010Prop54
  1
strokes_ogs.tif
102
RTVSPost2010PropOp54
 70
     1
102
RTVSPost2010Prop55
280
     0
102
RTVSPost2010PropOp55
 70
     1
102
RTVSPost2010Prop56
140
1.0
102
RTVSPost2010PropOp56
 70
     1
102
RTVSPost2010Prop57
140
1.0
102
RTVSPost2010PropOp57
 70
     1
  0
XRECORD
  5
1010500
102
{ACAD_REACTORS
330
10104FF
102
}
330
10104FF
100
AcDbXrecord
280
     1
102
RTVSPost2010Prop28
280
     0
102
RTVSPost2010PropOp28
 70
     1
102
RTVSPost2010Prop29
280
     1
102
RTVSPost2010PropOp29
 70
     1
102
RTVSPost2010Prop30
280
     1
102
RTVSPost2010PropOp30
 70
     1
102
RTVSPost2010Prop31
280
     0
102
RTVSPost2010PropOp31
 70
     1
102
RTVSPost2010Prop32
280
     0
102
RTVSPost2010PropOp32
 70
     1
102
RTVSPost2010Prop33
280
     0
102
RTVSPost2010PropOp33
 70
     1
102
RTVSPost2010Prop34
280
     0
102
RTVSPost2010PropOp34
 70
     1
102
RTVSPost2010Prop35
280
     0
102
RTVSPost2010PropOp35
 70
     1
102
RTVSPost2010Prop36
280
     0
102
RTVSPost2010PropOp36
 70
     1
102
RTVSPost2010Prop37
 90
       50
102
RTVSPost2010PropOp37
 70
     1
102
RTVSPost2010Prop38
140
0.0
102
RTVSPost2010PropOp38
 70
     1
102
RTVSPost2010Prop39
140
1.0
102
RTVSPost2010PropOp39
 70
     1
102
RTVSPost2010Prop40
 90
        0
102
RTVSPost2010PropOp40
 70
     1
102
RTVSPost2010Prop41ColorIndex
 90
       18
102
RTVSPost2010Prop41ColorRGB
 90
        0
102
RTVSPost2010PropOp41
 70
     1
102
RTVSPost2010Prop42
 90
       50
102
RTVSPost2010PropOp42
 70
     1
102
RTVSPost2010Prop43
 90
        3
102
RTVSPost2010PropOp43
 70
     1
102
RTVSPost2010Prop44ColorIndex
 90
        5
102
RTVSPost2010Prop44ColorRGB
 90
      255
102
RTVSPost2010PropOp44
 70
     1
102
RTVSPost2010Prop45
280
     0
102
RTVSPost2010PropOp45
 70
     1
102
RTVSPost2010Prop46
 90
       50
102
RTVSPost2010PropOp46
 70
     1
102
RTVSPost2010Prop47
 90
       50
102
RTVSPost2010PropOp47
 70
     1
102
RTVSPost2010Prop48
 90
       50
102
RTVSPost2010PropOp48
 70
     1
102
RTVSPost2010Prop49
280
     0
102
RTVSPost2010PropOp49
 70
     1
102
RTVSPost2010Prop50
 90
       50
102
RTVSPost2010PropOp50
 70
     1
102
RTVSPost2010Prop51ColorIndex
 90
      256
102
RTVSPost2010Prop51ColorRGB
 90
-16777216
102
RTVSPost2010PropOp51
 70
     0
102
RTVSPost2010Prop52
140
1.0
102
RTVSPost2010PropOp52
 70
     0
102
RTVSPost2010Prop53
 90
        2
102
RTVSPost2010PropOp53
 70
     1
102
RTVSPost2010Prop54
  1
strokes_ogs.tif
102
RTVSPost2010PropOp54
 70
     1
102
RTVSPost2010Prop55
280
     0
102
RTVSPost2010PropOp55
 70
     1
102
RTVSPost2010Prop56
140
1.0
102
RTVSPost2010PropOp56
 70
     1
102
RTVSPost2010Prop57
140
1.0
102
RTVSPost2010PropOp57
 70
     1
  0
XRECORD
  5
1010518
102
{ACAD_REACTORS
330
1010517
102
}
330
1010517
100
AcDbXrecord
280
     1
102
RTVSPost2010Prop28
280
     0
102
RTVSPost2010PropOp28
 70
     1
102
RTVSPost2010Prop29
280
     1
102
RTVSPost2010PropOp29
 70
     1
102
RTVSPost2010Prop30
280
     1
102
RTVSPost2010PropOp30
 70
     1
102
RTVSPost2010Prop31
280
     0
102
RTVSPost2010PropOp31
 70
     1
102
RTVSPost2010Prop32
280
     0
102
RTVSPost2010PropOp32
 70
     1
102
RTVSPost2010Prop33
280
     0
102
RTVSPost2010PropOp33
 70
     1
102
RTVSPost2010Prop34
280
     0
102
RTVSPost2010PropOp34
 70
     1
102
RTVSPost2010Prop35
280
     0
102
RTVSPost2010PropOp35
 70
     1
102
RTVSPost2010Prop36
280
     0
102
RTVSPost2010PropOp36
 70
     1
102
RTVSPost2010Prop37
 90
       50
102
RTVSPost2010PropOp37
 70
     1
102
RTVSPost2010Prop38
140
0.0
102
RTVSPost2010PropOp38
 70
     1
102
RTVSPost2010Prop39
140
1.0
102
RTVSPost2010PropOp39
 70
     1
102
RTVSPost2010Prop40
 90
        0
102
RTVSPost2010PropOp40
 70
     1
102
RTVSPost2010Prop41ColorIndex
 90
       18
102
RTVSPost2010Prop41ColorRGB
 90
        0
102
RTVSPost2010PropOp41
 70
     1
102
RTVSPost2010Prop42
 90
       50
102
RTVSPost2010PropOp42
 70
     1
102
RTVSPost2010Prop43
 90
        3
102
RTVSPost2010PropOp43
 70
     1
102
RTVSPost2010Prop44ColorIndex
 90
        5
102
RTVSPost2010Prop44ColorRGB
 90
      255
102
RTVSPost2010PropOp44
 70
     1
102
RTVSPost2010Prop45
280
     0
102
RTVSPost2010PropOp45
 70
     1
102
RTVSPost2010Prop46
 90
       50
102
RTVSPost2010PropOp46
 70
     1
102
RTVSPost2010Prop47
 90
       50
102
RTVSPost2010PropOp47
 70
     1
102
RTVSPost2010Prop48
 90
       50
102
RTVSPost2010PropOp48
 70
     1
102
RTVSPost2010Prop49
280
     0
102
RTVSPost2010PropOp49
 70
     1
102
RTVSPost2010Prop50
 90
       50
102
RTVSPost2010PropOp50
 70
     1
102
RTVSPost2010Prop51ColorIndex
 90
      256
102
RTVSPost2010Prop51ColorRGB
 90
-16777216
102
RTVSPost2010PropOp51
 70
     0
102
RTVSPost2010Prop52
140
1.0
102
RTVSPost2010PropOp52
 70
     0
102
RTVSPost2010Prop53
 90
        2
102
RTVSPost2010PropOp53
 70
     1
102
RTVSPost2010Prop54
  1
strokes_ogs.tif
102
RTVSPost2010PropOp54
 70
     1
102
RTVSPost2010Prop55
280
     0
102
RTVSPost2010PropOp55
 70
     1
102
RTVSPost2010Prop56
140
1.0
102
RTVSPost2010PropOp56
 70
     1
102
RTVSPost2010Prop57
140
1.0
102
RTVSPost2010PropOp57
 70
     1
  0
ENDSEC
  0
EOF
