  0
SECTION
  2
HEADER
  9
$ACADVER
  1
AC1027
  9
$ACADMAINTVER
 70
   125
  9
$DWGCODEPAGE
  3
ANSI_1252
  9
$LASTSAVEDBY
  1
ducro
  9
$REQUIREDVERSIONS
160
                 0
  9
$INSBASE
 10
0.0
 20
0.0
 30
0.0
  9
$EXTMIN
 10
36.18038027072885
 20
158.401467125
 30
0.0
  9
$EXTMAX
 10
167.8458966457288
 20
270.6190296113281
 30
0.0
  9
$LIMMIN
 10
0.0
 20
0.0
  9
$LIMMAX
 10
12.0
 20
9.0
  9
$ORTHOMODE
 70
     0
  9
$REGENMODE
 70
     1
  9
$FILLMODE
 70
     1
  9
$QTEXTMODE
 70
     0
  9
$MIRRTEXT
 70
     0
  9
$LTSCALE
 40
1.0
  9
$ATTMODE
 70
     1
  9
$TEXTSIZE
 40
2.5
  9
$TRACEWID
 40
0.05
  9
$TEXTSTYLE
  7
STANDARD
  9
$CLAYER
  8
0
  9
$CELTYPE
  6
CONTINUOUS
  9
$CECOLOR
 62
   256
  9
$CELTSCALE
 40
1.0
  9
$DISPSILH
 70
     0
  9
$DIMSCALE
 40
1.0
  9
$DIMASZ
 40
0.18
  9
$DIMEXO
 40
0.0625
  9
$DIMDLI
 40
0.38
  9
$DIMRND
 40
0.0
  9
$DIMDLE
 40
0.0
  9
$DIMEXE
 40
0.18
  9
$DIMTP
 40
0.0
  9
$DIMTM
 40
0.0
  9
$DIMTXT
 40
0.18
  9
$DIMCEN
 40
0.09
  9
$DIMTSZ
 40
0.0
  9
$DIMTOL
 70
     0
  9
$DIMLIM
 70
     0
  9
$DIMTIH
 70
     1
  9
$DIMTOH
 70
     1
  9
$DIMSE1
 70
     0
  9
$DIMSE2
 70
     0
  9
$DIMTAD
 70
     0
  9
$DIMZIN
 70
     0
  9
$DIMBLK
  1

  9
$DIMASO
 70
     1
  9
$DIMSHO
 70
     1
  9
$DIMPOST
  1

  9
$DIMAPOST
  1

  9
$DIMALT
 70
     0
  9
$DIMALTD
 70
     2
  9
$DIMALTF
 40
25.4
  9
$DIMLFAC
 40
1.0
  9
$DIMTOFL
 70
     0
  9
$DIMTVP
 40
0.0
  9
$DIMTIX
 70
     0
  9
$DIMSOXD
 70
     0
  9
$DIMSAH
 70
     0
  9
$DIMBLK1
  1

  9
$DIMBLK2
  1

  9
$DIMSTYLE
  2
ISO-25
  9
$DIMCLRD
 70
     0
  9
$DIMCLRE
 70
     0
  9
$DIMCLRT
 70
     0
  9
$DIMTFAC
 40
1.0
  9
$DIMGAP
 40
0.09
  9
$DIMJUST
 70
     0
  9
$DIMSD1
 70
     0
  9
$DIMSD2
 70
     0
  9
$DIMTOLJ
 70
     1
  9
$DIMTZIN
 70
     0
  9
$DIMALTZ
 70
     0
  9
$DIMALTTZ
 70
     0
  9
$DIMUPT
 70
     0
  9
$DIMDEC
 70
     4
  9
$DIMTDEC
 70
     4
  9
$DIMALTU
 70
     2
  9
$DIMALTTD
 70
     2
  9
$DIMTXSTY
  7
STANDARD
  9
$DIMAUNIT
 70
     0
  9
$DIMADEC
 70
     0
  9
$DIMALTRND
 40
0.0
  9
$DIMAZIN
 70
     0
  9
$DIMDSEP
 70
    46
  9
$DIMATFIT
 70
     3
  9
$DIMFRAC
 70
     0
  9
$DIMLDRBLK
  1

  9
$DIMLUNIT
 70
     2
  9
$DIMLWD
 70
    -2
  9
$DIMLWE
 70
    -2
  9
$DIMTMOVE
 70
     0
  9
$DIMFXL
 40
1.0
  9
$DIMFXLON
 70
     0
  9
$DIMJOGANG
 40
0.7853981633974483
  9
$DIMTFILL
 70
     0
  9
$DIMTFILLCLR
 70
     0
  9
$DIMARCSYM
 70
     0
  9
$DIMLTYPE
  6

  9
$DIMLTEX1
  6

  9
$DIMLTEX2
  6

  9
$DIMTXTDIRECTION
 70
     0
  9
$LUNITS
 70
     2
  9
$LUPREC
 70
     4
  9
$SKETCHINC
 40
0.1
  9
$FILLETRAD
 40
0.0
  9
$AUNITS
 70
     0
  9
$AUPREC
 70
     0
  9
$MENU
  1
.
  9
$ELEVATION
 40
0.0
  9
$PELEVATION
 40
0.0
  9
$THICKNESS
 40
0.0
  9
$LIMCHECK
 70
     0
  9
$CHAMFERA
 40
0.0
  9
$CHAMFERB
 40
0.0
  9
$CHAMFERC
 40
0.0
  9
$CHAMFERD
 40
0.0
  9
$SKPOLY
 70
     0
  9
$TDCREATE
 40
2458465.741296297
  9
$TDUCREATE
 40
2458465.699629630
  9
$TDUPDATE
 40
2458516.787615741
  9
$TDUUPDATE
 40
2458516.745949074
  9
$TDINDWG
 40
0.0084837963
  9
$TDUSRTIMER
 40
0.0084837963
  9
$USRTIMER
 70
     1
  9
$ANGBASE
 50
0.0
  9
$ANGDIR
 70
     0
  9
$PDMODE
 70
     0
  9
$PDSIZE
 40
0.0
  9
$PLINEWID
 40
0.0
  9
$SPLFRAME
 70
     0
  9
$SPLINETYPE
 70
     6
  9
$SPLINESEGS
 70
     8
  9
$HANDSEED
  5
1010136
  9
$SURFTAB1
 70
     6
  9
$SURFTAB2
 70
     6
  9
$SURFTYPE
 70
     6
  9
$SURFU
 70
     6
  9
$SURFV
 70
     6
  9
$UCSBASE
  2

  9
$UCSNAME
  2

  9
$UCSORG
 10
0.0
 20
0.0
 30
0.0
  9
$UCSXDIR
 10
1.0
 20
0.0
 30
0.0
  9
$UCSYDIR
 10
0.0
 20
1.0
 30
0.0
  9
$UCSORTHOREF
  2

  9
$UCSORTHOVIEW
 70
     0
  9
$UCSORGTOP
 10
0.0
 20
0.0
 30
0.0
  9
$UCSORGBOTTOM
 10
0.0
 20
0.0
 30
0.0
  9
$UCSORGLEFT
 10
0.0
 20
0.0
 30
0.0
  9
$UCSORGRIGHT
 10
0.0
 20
0.0
 30
0.0
  9
$UCSORGFRONT
 10
0.0
 20
0.0
 30
0.0
  9
$UCSORGBACK
 10
0.0
 20
0.0
 30
0.0
  9
$PUCSBASE
  2

  9
$PUCSNAME
  2

  9
$PUCSORG
 10
0.0
 20
0.0
 30
0.0
  9
$PUCSXDIR
 10
1.0
 20
0.0
 30
0.0
  9
$PUCSYDIR
 10
0.0
 20
1.0
 30
0.0
  9
$PUCSORTHOREF
  2

  9
$PUCSORTHOVIEW
 70
     0
  9
$PUCSORGTOP
 10
0.0
 20
0.0
 30
0.0
  9
$PUCSORGBOTTOM
 10
0.0
 20
0.0
 30
0.0
  9
$PUCSORGLEFT
 10
0.0
 20
0.0
 30
0.0
  9
$PUCSORGRIGHT
 10
0.0
 20
0.0
 30
0.0
  9
$PUCSORGFRONT
 10
0.0
 20
0.0
 30
0.0
  9
$PUCSORGBACK
 10
0.0
 20
0.0
 30
0.0
  9
$USERI1
 70
     0
  9
$USERI2
 70
     0
  9
$USERI3
 70
     0
  9
$USERI4
 70
     0
  9
$USERI5
 70
     0
  9
$USERR1
 40
0.0
  9
$USERR2
 40
0.0
  9
$USERR3
 40
0.0
  9
$USERR4
 40
0.0
  9
$USERR5
 40
0.0
  9
$WORLDVIEW
 70
     1
  9
$SHADEDGE
 70
     3
  9
$SHADEDIF
 70
    70
  9
$TILEMODE
 70
     1
  9
$MAXACTVP
 70
    64
  9
$PINSBASE
 10
0.0
 20
0.0
 30
0.0
  9
$PLIMCHECK
 70
     0
  9
$PEXTMIN
 10
1.000000000000000E+20
 20
1.000000000000000E+20
 30
1.000000000000000E+20
  9
$PEXTMAX
 10
-1.000000000000000E+20
 20
-1.000000000000000E+20
 30
-1.000000000000000E+20
  9
$PLIMMIN
 10
0.0
 20
0.0
  9
$PLIMMAX
 10
12.0
 20
9.0
  9
$UNITMODE
 70
     0
  9
$VISRETAIN
 70
     1
  9
$PLINEGEN
 70
     0
  9
$PSLTSCALE
 70
     1
  9
$TREEDEPTH
 70
  3020
  9
$CMLSTYLE
  2
Standard
  9
$CMLJUST
 70
     0
  9
$CMLSCALE
 40
1.0
  9
$PROXYGRAPHICS
 70
     1
  9
$MEASUREMENT
 70
     1
  9
$CELWEIGHT
370
    -1
  9
$ENDCAPS
280
     0
  9
$JOINSTYLE
280
     0
  9
$LWDISPLAY
290
     0
  9
$INSUNITS
 70
     0
  9
$HYPERLINKBASE
  1

  9
$STYLESHEET
  1

  9
$XEDIT
290
     1
  9
$CEPSNTYPE
380
     0
  9
$PSTYLEMODE
290
     1
  9
$FINGERPRINTGUID
  2
{2C3CA5A0-8762-E84D-891C-677A162032EC}
  9
$VERSIONGUID
  2
{35835547-11AA-BF45-9612-2B8C3CCFAA9B}
  9
$EXTNAMES
290
     1
  9
$PSVPSCALE
 40
0.0
  9
$OLESTARTUP
290
     0
  9
$SORTENTS
280
   127
  9
$INDEXCTL
280
     0
  9
$HIDETEXT
280
     0
  9
$XCLIPFRAME
280
     2
  9
$HALOGAP
280
     0
  9
$OBSCOLOR
 70
   257
  9
$OBSLTYPE
280
     0
  9
$INTERSECTIONDISPLAY
280
     0
  9
$INTERSECTIONCOLOR
 70
   257
  9
$DIMASSOC
280
     1
  9
$PROJECTNAME
  1

  9
$CAMERADISPLAY
290
     0
  9
$LENSLENGTH
 40
50.0
  9
$CAMERAHEIGHT
 40
0.0
  9
$STEPSPERSEC
 40
2.0
  9
$STEPSIZE
 40
6.0
  9
$3DDWFPREC
 40
2.0
  9
$PSOLWIDTH
 40
0.25
  9
$PSOLHEIGHT
 40
4.0
  9
$LOFTANG1
 40
1.570796326794896
  9
$LOFTANG2
 40
1.570796326794896
  9
$LOFTMAG1
 40
0.0
  9
$LOFTMAG2
 40
0.0
  9
$LOFTPARAM
 70
     7
  9
$LOFTNORMALS
280
     1
  9
$LATITUDE
 40
37.795
  9
$LONGITUDE
 40
-122.394
  9
$NORTHDIRECTION
 40
0.0
  9
$TIMEZONE
 70
 -8000
  9
$LIGHTGLYPHDISPLAY
280
     1
  9
$TILEMODELIGHTSYNCH
280
     1
  9
$CMATERIAL
347
1010004
  9
$SOLIDHIST
280
     0
  9
$SHOWHIST
280
     1
  9
$DWFFRAME
280
     2
  9
$DGNFRAME
280
     0
  9
$REALWORLDSCALE
290
     1
  9
$INTERFERECOLOR
 62
     1
  9
$INTERFEREOBJVS
345
1010026
  9
$INTERFEREVPVS
346
1010023
  9
$CSHADOW
280
     0
  9
$SHADOWPLANELOCATION
 40
0.0
  0
ENDSEC
  0
SECTION
  2
CLASSES
  0
CLASS
  1
ACDBDICTIONARYWDFLT
  2
AcDbDictionaryWithDefault
  3
ObjectDBX Classes
 90
        0
 91
        1
280
     0
281
     0
  0
CLASS
  1
MATERIAL
  2
AcDbMaterial
  3
ObjectDBX Classes
 90
     1153
 91
        3
280
     0
281
     0
  0
CLASS
  1
VISUALSTYLE
  2
AcDbVisualStyle
  3
ObjectDBX Classes
 90
     4095
 91
       24
280
     0
281
     0
  0
CLASS
  1
TABLESTYLE
  2
AcDbTableStyle
  3
ObjectDBX Classes
 90
     4095
 91
        1
280
     0
281
     0
  0
CLASS
  1
SCALE
  2
AcDbScale
  3
ObjectDBX Classes
 90
     1153
 91
       17
280
     0
281
     0
  0
CLASS
  1
MLEADERSTYLE
  2
AcDbMLeaderStyle
  3
ACDB_MLEADERSTYLE_CLASS
 90
     4095
 91
        1
280
     0
281
     0
  0
CLASS
  1
ACDBSECTIONVIEWSTYLE
  2
AcDbSectionViewStyle
  3
ObjectDBX Classes
 90
     1025
 91
        1
280
     0
281
     0
  0
CLASS
  1
ACDBDETAILVIEWSTYLE
  2
AcDbDetailViewStyle
  3
ObjectDBX Classes
 90
     1025
 91
        1
280
     0
281
     0
  0
CLASS
  1
SORTENTSTABLE
  2
AcDbSortentsTable
  3
ObjectDBX Classes
 90
        0
 91
        1
280
     0
281
     0
  0
CLASS
  1
DICTIONARYVAR
  2
AcDbDictionaryVar
  3
ObjectDBX Classes
 90
        0
 91
        9
280
     0
281
     0
  0
CLASS
  1
CELLSTYLEMAP
  2
AcDbCellStyleMap
  3
ObjectDBX Classes
 90
     1152
 91
        1
280
     0
281
     0
  0
ENDSEC
  0
SECTION
  2
TABLES
  0
TABLE
  2
VPORT
  5
8
330
0
100
AcDbSymbolTable
 70
     1
1001
ACAD
1000
DbSaveVer
1071
        5
  0
VPORT
  5
2E
330
8
100
AcDbSymbolTableRecord
100
AcDbViewportTableRecord
  2
*ACTIVE
 70
     0
 10
0.0
 20
0.0
 11
1.0
 21
1.0
 12
59.4520624478464
 22
209.565682732156
 13
0.0
 23
0.0
 14
10.0
 24
10.0
 15
10.0
 25
10.0
 16
0.0
 26
0.0
 36
1.0
 17
0.0
 27
0.0
 37
0.0
 40
140.4972502130133
 41
2.292712066905615
 42
50.0
 43
0.0
 44
0.0
 50
0.0
 51
0.0
 71
     0
 72
   100
 73
     1
 74
     3
 75
     0
 76
     0
 77
     0
 78
     0
281
     0
 65
     1
110
0.0
120
0.0
130
0.0
111
1.0
121
0.0
131
0.0
112
0.0
122
1.0
132
0.0
 79
     0
146
0.0
348
1010022
 60
     3
 61
     5
292
     1
282
     1
141
0.0
142
0.0
 63
   250
421
  3355443
1001
ACAD_NAV_VCDISPLAY
1070
     3
  0
ENDTAB
  0
TABLE
  2
LTYPE
  5
5
330
0
100
AcDbSymbolTable
 70
     1
  0
LTYPE
  5
14
330
5
100
AcDbSymbolTableRecord
100
AcDbLinetypeTableRecord
  2
BYBLOCK
 70
     0
  3

 72
    65
 73
     0
 40
0.0
  0
LTYPE
  5
15
330
5
100
AcDbSymbolTableRecord
100
AcDbLinetypeTableRecord
  2
BYLAYER
 70
     0
  3

 72
    65
 73
     0
 40
0.0
  0
LTYPE
  5
16
330
5
100
AcDbSymbolTableRecord
100
AcDbLinetypeTableRecord
  2
CONTINUOUS
 70
     0
  3
Solid line
 72
    65
 73
     0
 40
0.0
  0
ENDTAB
  0
TABLE
  2
LAYER
  5
2
330
0
100
AcDbSymbolTable
 70
     2
  0
LAYER
  5
50
102
{ACAD_XDICTIONARY
360
1010118
102
}
330
2
100
AcDbSymbolTableRecord
100
AcDbLayerTableRecord
  2
0
 70
     0
 62
     7
  6
CONTINUOUS
370
    -3
390
1010002
347
1010014
348
0
  0
LAYER
  5
51
102
{ACAD_XDICTIONARY
360
101011A
102
}
330
2
100
AcDbSymbolTableRecord
100
AcDbLayerTableRecord
  2
CALQUE_1
 70
     0
 62
     7
  6
CONTINUOUS
370
    -3
390
1010002
347
1010014
348
0
  0
ENDTAB
  0
TABLE
  2
STYLE
  5
3
330
0
100
AcDbSymbolTable
 70
     1
  0
STYLE
  5
11
330
3
100
AcDbSymbolTableRecord
100
AcDbTextStyleTableRecord
  2
STANDARD
 70
     0
 40
0.0
 41
1.0
 50
0.0
 71
     0
 42
2.5
  3
txt
  4

  0
ENDTAB
  0
TABLE
  2
VIEW
  5
6
330
0
100
AcDbSymbolTable
 70
     0
  0
ENDTAB
  0
TABLE
  2
UCS
  5
7
330
0
100
AcDbSymbolTable
 70
     0
  0
ENDTAB
  0
TABLE
  2
APPID
  5
9
330
0
100
AcDbSymbolTable
 70
     2
  0
APPID
  5
12
330
9
100
AcDbSymbolTableRecord
100
AcDbRegAppTableRecord
  2
ACAD
 70
     0
  0
APPID
  5
101011C
330
9
100
AcDbSymbolTableRecord
100
AcDbRegAppTableRecord
  2
ACAD_NAV_VCDISPLAY
 70
     0
  0
ENDTAB
  0
TABLE
  2
DIMSTYLE
  5
A
330
0
100
AcDbSymbolTable
 70
     1
100
AcDbDimStyleTable
 71
     1
340
27
  0
DIMSTYLE
105
27
330
A
100
AcDbSymbolTableRecord
100
AcDbDimStyleTableRecord
  2
ISO-25
 70
     0
 41
2.5
 42
0.625
 43
3.75
 44
1.25
 73
     0
 74
     0
 77
     1
 78
     8
140
2.5
141
2.5
143
0.03937007874016
147
0.625
171
     3
172
     1
271
     2
272
     2
274
     3
283
     0
284
     8
340
11
  0
ENDTAB
  0
TABLE
  2
BLOCK_RECORD
  5
1
330
0
100
AcDbSymbolTable
 70
     0
  0
BLOCK_RECORD
  5
1F
102
{ACAD_XDICTIONARY
360
1010059
102
}
330
1
100
AcDbSymbolTableRecord
100
AcDbBlockTableRecord
  2
*MODEL_SPACE
340
1010052
 70
     0
280
     1
281
     0
  0
BLOCK_RECORD
  5
1B
330
1
100
AcDbSymbolTableRecord
100
AcDbBlockTableRecord
  2
*PAPER_SPACE
340
1010053
 70
     0
280
     1
281
     0
  0
ENDTAB
  0
ENDSEC
  0
SECTION
  2
BLOCKS
  0
BLOCK
  5
20
330
1F
100
AcDbEntity
  8
0
100
AcDbBlockBegin
  2
*MODEL_SPACE
 70
     0
 10
0.0
 20
0.0
 30
0.0
  3
*MODEL_SPACE
  1

  0
ENDBLK
  5
21
330
1F
100
AcDbEntity
  8
0
100
AcDbBlockEnd
  0
BLOCK
  5
1C
330
1B
100
AcDbEntity
 67
     1
  8
0
100
AcDbBlockBegin
  2
*PAPER_SPACE
 70
     0
 10
0.0
 20
0.0
 30
0.0
  3
*PAPER_SPACE
  1

  0
ENDBLK
  5
1D
330
1B
100
AcDbEntity
 67
     1
  8
0
100
AcDbBlockEnd
  0
ENDSEC
  0
SECTION
  2
ENTITIES
  0
SPLINE
  5
12A9
330
1F
100
AcDbEntity
  8
CALQUE_1
 62
     1
100
AcDbSpline
210
0.0
220
0.0
230
1.0
 70
     8
 71
     3
 72
     8
 73
     4
 74
     0
 42
0.000000001
 43
0.0000000001
 40
0.0
 40
0.0
 40
0.0
 40
0.0
 40
1.0
 40
1.0
 40
1.0
 40
1.0
 10
103.8072646457288
 20
158.540991
 30
0.0
 10
96.55468864572885
 20
159.188477
 30
0.0
 10
87.65123364572884
 20
162.348028
 30
0.0
 10
81.53841464572884
 20
166.443481
 30
0.0
  0
SPLINE
  5
12AA
330
1F
100
AcDbEntity
  8
CALQUE_1
 62
     1
100
AcDbSpline
210
0.0
220
0.0
230
1.0
 70
     8
 71
     3
 72
     8
 73
     4
 74
     0
 42
0.000000001
 43
0.0000000001
 40
0.0
 40
0.0
 40
0.0
 40
0.0
 40
1.0
 40
1.0
 40
1.0
 40
1.0
 10
81.53841464572884
 20
166.443481
 30
0.0
 10
78.50758164572885
 20
168.474071
 30
0.0
 10
74.44642364572885
 20
171.89539
 30
0.0
 10
74.44642364572885
 20
172.418119
 30
0.0
  0
SPLINE
  5
12AB
330
1F
100
AcDbEntity
  8
CALQUE_1
 62
     1
100
AcDbSpline
210
0.0
220
0.0
230
1.0
 70
     8
 71
     3
 72
     8
 73
     4
 74
     0
 42
0.000000001
 43
0.0000000001
 40
0.0
 40
0.0
 40
0.0
 40
0.0
 40
1.0
 40
1.0
 40
1.0
 40
1.0
 10
74.44642364572885
 20
172.418119
 30
0.0
 10
74.44642364572885
 20
172.63581
 30
0.0
 10
75.71662764572884
 20
173.738988
 30
0.0
 10
77.26910464572885
 20
174.869624
 30
0.0
  0
SPLINE
  5
12AC
330
1F
100
AcDbEntity
  8
CALQUE_1
 62
     1
100
AcDbSpline
210
0.0
220
0.0
230
1.0
 70
     8
 71
     3
 72
     8
 73
     4
 74
     0
 42
0.000000001
 43
0.0000000001
 40
0.0
 40
0.0
 40
0.0
 40
0.0
 40
1.0
 40
1.0
 40
1.0
 40
1.0
 10
77.26910464572885
 20
174.869624
 30
0.0
 10
81.85577264572884
 20
178.209983
 30
0.0
 10
86.29129664572884
 20
181.313428
 30
0.0
 10
86.70644464572886
 20
181.472741
 30
0.0
  0
SPLINE
  5
12AD
330
1F
100
AcDbEntity
  8
CALQUE_1
 62
     1
100
AcDbSpline
210
0.0
220
0.0
230
1.0
 70
     8
 71
     3
 72
     8
 73
     4
 74
     0
 42
0.000000001
 43
0.0000000001
 40
0.0
 40
0.0
 40
0.0
 40
0.0
 40
1.0
 40
1.0
 40
1.0
 40
1.0
 10
86.70644464572886
 20
181.472741
 30
0.0
 10
86.91922664572885
 20
181.5543899999999
 30
0.0
 10
87.84826664572884
 20
181.034962
 30
0.0
 10
88.77097364572884
 20
180.31846
 30
0.0
  0
SPLINE
  5
12AE
330
1F
100
AcDbEntity
  8
CALQUE_1
 62
     1
100
AcDbSpline
210
0.0
220
0.0
230
1.0
 70
     8
 71
     3
 72
     8
 73
     4
 74
     0
 42
0.000000001
 43
0.0000000001
 40
0.0
 40
0.0
 40
0.0
 40
0.0
 40
1.0
 40
1.0
 40
1.0
 40
1.0
 10
88.77097364572884
 20
180.31846
 30
0.0
 10
92.15529464572885
 20
177.690489
 30
0.0
 10
96.16536664572883
 20
175.913077
 30
0.0
 10
101.1285116457288
 20
174.841154
 30
0.0
  0
SPLINE
  5
12AF
330
1F
100
AcDbEntity
  8
CALQUE_1
 62
     1
100
AcDbSpline
210
0.0
220
0.0
230
1.0
 70
     8
 71
     3
 72
     8
 73
     4
 74
     0
 42
0.000000001
 43
0.0000000001
 40
0.0
 40
0.0
 40
0.0
 40
0.0
 40
1.0
 40
1.0
 40
1.0
 40
1.0
 10
101.1285116457288
 20
174.841154
 30
0.0
 10
106.5248926457288
 20
173.675664
 30
0.0
 10
111.5047406457288
 20
173.758943
 30
0.0
 10
117.1925626457288
 20
175.109801
 30
0.0
  0
SPLINE
  5
12B0
330
1F
100
AcDbEntity
  8
CALQUE_1
 62
     1
100
AcDbSpline
210
0.0
220
0.0
230
1.0
 70
     8
 71
     3
 72
     8
 73
     4
 74
     0
 42
0.000000001
 43
0.0000000001
 40
0.0
 40
0.0
 40
0.0
 40
0.0
 40
1.0
 40
1.0
 40
1.0
 40
1.0
 10
117.1925626457288
 20
175.109801
 30
0.0
 10
126.9281296457288
 20
177.421994
 30
0.0
 10
134.9385386457288
 20
183.892258
 30
0.0
 10
139.5055986457288
 20
193.13277
 30
0.0
  0
SPLINE
  5
12B1
330
1F
100
AcDbEntity
  8
CALQUE_1
 62
     1
100
AcDbSpline
210
0.0
220
0.0
230
1.0
 70
     8
 71
     3
 72
     8
 73
     4
 74
     0
 42
0.000000001
 43
0.0000000001
 40
0.0
 40
0.0
 40
0.0
 40
0.0
 40
1.0
 40
1.0
 40
1.0
 40
1.0
 10
139.5055986457288
 20
193.13277
 30
0.0
 10
140.6073426457288
 20
195.361949
 30
0.0
 10
142.1961986457288
 20
199.738651
 30
0.0
 10
142.6366276457288
 20
201.757554
 30
0.0
  0
SPLINE
  5
12B2
330
1F
100
AcDbEntity
  8
CALQUE_1
 62
     1
100
AcDbSpline
210
0.0
220
0.0
230
1.0
 70
     8
 71
     3
 72
     8
 73
     4
 74
     0
 42
0.000000001
 43
0.0000000001
 40
0.0
 40
0.0
 40
0.0
 40
0.0
 40
1.0
 40
1.0
 40
1.0
 40
1.0
 10
142.6366276457288
 20
201.757554
 30
0.0
 10
142.7786716457288
 20
202.408705
 30
0.0
 10
143.0522756457288
 20
202.535739
 30
0.0
 10
145.5183366457288
 20
203.095482
 30
0.0
  0
SPLINE
  5
12B4
330
1F
100
AcDbEntity
  8
CALQUE_1
 62
     1
100
AcDbSpline
210
0.0
220
0.0
230
1.0
 70
     8
 71
     3
 72
     8
 73
     4
 74
     0
 42
0.000000001
 43
0.0000000001
 40
0.0
 40
0.0
 40
0.0
 40
0.0
 40
1.0
 40
1.0
 40
1.0
 40
1.0
 10
151.4144926457288
 20
202.042572
 30
0.0
 10
153.1587816457288
 20
201.123314
 30
0.0
 10
155.3199436457288
 20
200.161136
 30
0.0
 10
156.2170746457288
 20
199.904395
 30
0.0
  0
SPLINE
  5
12B5
330
1F
100
AcDbEntity
  8
CALQUE_1
 62
     1
100
AcDbSpline
210
0.0
220
0.0
230
1.0
 70
     8
 71
     3
 72
     8
 73
     4
 74
     0
 42
0.000000001
 43
0.0000000001
 40
0.0
 40
0.0
 40
0.0
 40
0.0
 40
1.0
 40
1.0
 40
1.0
 40
1.0
 10
156.2170746457288
 20
199.904395
 30
0.0
 10
157.3899196457288
 20
199.568754
 30
0.0
 10
157.8482326457288
 20
199.300457
 30
0.0
 10
157.8482326457288
 20
198.949511
 30
0.0
  0
SPLINE
  5
12B6
330
1F
100
AcDbEntity
  8
CALQUE_1
 62
     1
100
AcDbSpline
210
0.0
220
0.0
230
1.0
 70
     8
 71
     3
 72
     8
 73
     4
 74
     0
 42
0.000000001
 43
0.0000000001
 40
0.0
 40
0.0
 40
0.0
 40
0.0
 40
1.0
 40
1.0
 40
1.0
 40
1.0
 10
157.8482326457288
 20
198.949511
 30
0.0
 10
157.8482326457288
 20
197.920081
 30
0.0
 10
155.7810706457288
 20
191.276123
 30
0.0
 10
154.5731176457288
 20
188.423091
 30
0.0
  0
SPLINE
  5
12B7
330
1F
100
AcDbEntity
  8
CALQUE_1
 62
     1
100
AcDbSpline
210
0.0
220
0.0
230
1.0
 70
     8
 71
     3
 72
     8
 73
     4
 74
     0
 42
0.000000001
 43
0.0000000001
 40
0.0
 40
0.0
 40
0.0
 40
0.0
 40
1.0
 40
1.0
 40
1.0
 40
1.0
 10
154.5731176457288
 20
188.423091
 30
0.0
 10
151.9524626457288
 20
182.233497
 30
0.0
 10
148.9648396457288
 20
177.826886
 30
0.0
 10
144.0851416457288
 20
172.95381
 30
0.0
  0
SPLINE
  5
12B8
330
1F
100
AcDbEntity
  8
CALQUE_1
 62
     1
100
AcDbSpline
210
0.0
220
0.0
230
1.0
 70
     8
 71
     3
 72
     8
 73
     4
 74
     0
 42
0.000000001
 43
0.0000000001
 40
0.0
 40
0.0
 40
0.0
 40
0.0
 40
1.0
 40
1.0
 40
1.0
 40
1.0
 10
144.0851416457288
 20
172.95381
 30
0.0
 10
139.9219496457288
 20
168.796275
 30
0.0
 10
136.5332496457288
 20
166.350182
 30
0.0
 10
131.3241876457288
 20
163.742474
 30
0.0
  0
SPLINE
  5
12B9
330
1F
100
AcDbEntity
  8
CALQUE_1
 62
     1
100
AcDbSpline
210
0.0
220
0.0
230
1.0
 70
     8
 71
     3
 72
     8
 73
     4
 74
     0
 42
0.000000001
 43
0.0000000001
 40
0.0
 40
0.0
 40
0.0
 40
0.0
 40
1.0
 40
1.0
 40
1.0
 40
1.0
 10
131.3241876457288
 20
163.742474
 30
0.0
 10
125.6193226457288
 20
160.886565
 30
0.0
 10
120.3815526457288
 20
159.336882
 30
0.0
 10
114.1018166457288
 20
158.646955
 30
0.0
  0
SPLINE
  5
12BA
330
1F
100
AcDbEntity
  8
CALQUE_1
 62
     1
100
AcDbSpline
210
0.0
220
0.0
230
1.0
 70
     8
 71
     3
 72
     8
 73
     4
 74
     0
 42
0.000000001
 43
0.0000000001
 40
0.0
 40
0.0
 40
0.0
 40
0.0
 40
1.0
 40
1.0
 40
1.0
 40
1.0
 10
114.1018166457288
 20
158.646955
 30
0.0
 10
111.5240536457288
 20
158.363748
 30
0.0
 10
106.3850726457288
 20
158.310849
 30
0.0
 10
103.8072646457288
 20
158.540991
 30
0.0
  0
SPLINE
  5
12CE
330
1F
100
AcDbEntity
  8
CALQUE_1
 62
     1
100
AcDbSpline
210
0.0
220
0.0
230
1.0
 70
     8
 71
     3
 72
     8
 73
     4
 74
     0
 42
0.000000001
 43
0.0000000001
 40
0.0
 40
0.0
 40
0.0
 40
0.0
 40
1.0
 40
1.0
 40
1.0
 40
1.0
 10
71.32594764572885
 20
175.403813
 30
0.0
 10
70.46780564572884
 20
176.359609
 30
0.0
 10
69.10961564572885
 20
178.00813
 30
0.0
 10
68.30773264572885
 20
179.067195
 30
0.0
  0
SPLINE
  5
12CF
330
1F
100
AcDbEntity
  8
CALQUE_1
 62
     1
100
AcDbSpline
210
0.0
220
0.0
230
1.0
 70
     8
 71
     3
 72
     8
 73
     4
 74
     0
 42
0.000000001
 43
0.0000000001
 40
0.0
 40
0.0
 40
0.0
 40
0.0
 40
1.0
 40
1.0
 40
1.0
 40
1.0
 10
68.30773264572885
 20
179.067195
 30
0.0
 10
66.66230064572885
 20
181.240328
 30
0.0
 10
63.42138564572884
 20
187.412661
 30
0.0
 10
63.75208764572885
 20
187.743374
 30
0.0
  0
SPLINE
  5
12D0
330
1F
100
AcDbEntity
  8
CALQUE_1
 62
     1
100
AcDbSpline
210
0.0
220
0.0
230
1.0
 70
     8
 71
     3
 72
     8
 73
     4
 74
     0
 42
0.000000001
 43
0.0000000001
 40
0.0
 40
0.0
 40
0.0
 40
0.0
 40
1.0
 40
1.0
 40
1.0
 40
1.0
 10
63.75208764572885
 20
187.743374
 30
0.0
 10
63.87111964572884
 20
187.862399
 30
0.0
 10
64.54069464572885
 20
187.806751
 30
0.0
 10
65.24002164572884
 20
187.619708
 30
0.0
  0
SPLINE
  5
12D1
330
1F
100
AcDbEntity
  8
CALQUE_1
 62
     1
100
AcDbSpline
210
0.0
220
0.0
230
1.0
 70
     8
 71
     3
 72
     8
 73
     4
 74
     0
 42
0.000000001
 43
0.0000000001
 40
0.0
 40
0.0
 40
0.0
 40
0.0
 40
1.0
 40
1.0
 40
1.0
 40
1.0
 10
65.24002164572884
 20
187.619708
 30
0.0
 10
65.93934864572884
 20
187.432666
 30
0.0
 10
67.09049764572885
 20
187.279631
 30
0.0
 10
67.79810864572884
 20
187.279631
 30
0.0
  0
SPLINE
  5
12D2
330
1F
100
AcDbEntity
  8
CALQUE_1
 62
     1
100
AcDbSpline
210
0.0
220
0.0
230
1.0
 70
     8
 71
     3
 72
     8
 73
     4
 74
     0
 42
0.000000001
 43
0.0000000001
 40
0.0
 40
0.0
 40
0.0
 40
0.0
 40
1.0
 40
1.0
 40
1.0
 40
1.0
 10
67.79810864572884
 20
187.279631
 30
0.0
 10
71.05007564572885
 20
187.279631
 30
0.0
 10
72.88375764572885
 20
190.048696
 30
0.0
 10
71.32488164572885
 20
192.60548
 30
0.0
  0
SPLINE
  5
12D3
330
1F
100
AcDbEntity
  8
CALQUE_1
 62
     1
100
AcDbSpline
210
0.0
220
0.0
230
1.0
 70
     8
 71
     3
 72
     8
 73
     4
 74
     0
 42
0.000000001
 43
0.0000000001
 40
0.0
 40
0.0
 40
0.0
 40
0.0
 40
1.0
 40
1.0
 40
1.0
 40
1.0
 10
71.32488164572885
 20
192.60548
 30
0.0
 10
70.55218364572884
 20
193.872817
 30
0.0
 10
70.60973664572884
 20
194.241131
 30
0.0
 10
71.64757264572884
 20
194.671023
 30
0.0
  0
SPLINE
  5
12D4
330
1F
100
AcDbEntity
  8
CALQUE_1
 62
     1
100
AcDbSpline
210
0.0
220
0.0
230
1.0
 70
     8
 71
     3
 72
     8
 73
     4
 74
     0
 42
0.000000001
 43
0.0000000001
 40
0.0
 40
0.0
 40
0.0
 40
0.0
 40
1.0
 40
1.0
 40
1.0
 40
1.0
 10
71.64757264572884
 20
194.671023
 30
0.0
 10
72.13652264572885
 20
194.87355
 30
0.0
 10
73.15402464572885
 20
195.527318
 30
0.0
 10
73.90868064572885
 20
196.1238379999999
 30
0.0
  0
SPLINE
  5
12D5
330
1F
100
AcDbEntity
  8
CALQUE_1
 62
     1
100
AcDbSpline
210
0.0
220
0.0
230
1.0
 70
     8
 71
     3
 72
     8
 73
     4
 74
     0
 42
0.000000001
 43
0.0000000001
 40
0.0
 40
0.0
 40
0.0
 40
0.0
 40
1.0
 40
1.0
 40
1.0
 40
1.0
 10
73.90868064572885
 20
196.1238379999999
 30
0.0
 10
74.66331364572885
 20
196.720355
 30
0.0
 10
75.44409164572885
 20
197.207167
 30
0.0
 10
75.64371064572885
 20
197.2056399999999
 30
0.0
  0
SPLINE
  5
12D6
330
1F
100
AcDbEntity
  8
CALQUE_1
 62
     1
100
AcDbSpline
210
0.0
220
0.0
230
1.0
 70
     8
 71
     3
 72
     8
 73
     4
 74
     0
 42
0.000000001
 43
0.0000000001
 40
0.0
 40
0.0
 40
0.0
 40
0.0
 40
1.0
 40
1.0
 40
1.0
 40
1.0
 10
75.64371064572885
 20
197.2056399999999
 30
0.0
 10
75.84333064572884
 20
197.204278
 30
0.0
 10
76.26378864572885
 20
196.754528
 30
0.0
 10
76.57806064572885
 20
196.206561
 30
0.0
  0
SPLINE
  5
12D8
330
1F
100
AcDbEntity
  8
CALQUE_1
 62
     1
100
AcDbSpline
210
0.0
220
0.0
230
1.0
 70
     8
 71
     3
 72
     8
 73
     4
 74
     0
 42
0.000000001
 43
0.0000000001
 40
0.0
 40
0.0
 40
0.0
 40
0.0
 40
1.0
 40
1.0
 40
1.0
 40
1.0
 10
83.81189064572884
 20
199.99106
 30
0.0
 10
89.54986764572884
 20
204.1085
 30
0.0
 10
113.5436486457288
 20
221.316848
 30
0.0
 10
136.7581506457288
 20
237.964143
 30
0.0
  0
SPLINE
  5
12D9
330
1F
100
AcDbEntity
  8
CALQUE_1
 62
     1
100
AcDbSpline
210
0.0
220
0.0
230
1.0
 70
     8
 71
     3
 72
     8
 73
     4
 74
     0
 42
0.000000001
 43
0.0000000001
 40
0.0
 40
0.0
 40
0.0
 40
0.0
 40
1.0
 40
1.0
 40
1.0
 40
1.0
 10
136.7581506457288
 20
237.964143
 30
0.0
 10
140.5269366457288
 20
240.666774
 30
0.0
 10
143.7961516457288
 20
242.949261
 30
0.0
 10
144.0230726457288
 20
243.036334
 30
0.0
  0
SPLINE
  5
12DA
330
1F
100
AcDbEntity
  8
CALQUE_1
 62
     1
100
AcDbSpline
210
0.0
220
0.0
230
1.0
 70
     8
 71
     3
 72
     8
 73
     4
 74
     0
 42
0.000000001
 43
0.0000000001
 40
0.0
 40
0.0
 40
0.0
 40
0.0
 40
1.0
 40
1.0
 40
1.0
 40
1.0
 10
144.0230726457288
 20
243.036334
 30
0.0
 10
144.6497546457288
 20
243.276815
 30
0.0
 10
148.9813376457288
 20
238.148319
 30
0.0
 10
151.4469226457288
 20
234.24666
 30
0.0
  0
SPLINE
  5
12DB
330
1F
100
AcDbEntity
  8
CALQUE_1
 62
     1
100
AcDbSpline
210
0.0
220
0.0
230
1.0
 70
     8
 71
     3
 72
     8
 73
     4
 74
     0
 42
0.000000001
 43
0.0000000001
 40
0.0
 40
0.0
 40
0.0
 40
0.0
 40
1.0
 40
1.0
 40
1.0
 40
1.0
 10
151.4469226457288
 20
234.24666
 30
0.0
 10
152.6223776457288
 20
232.386582
 30
0.0
 10
154.1596936457288
 20
229.173792
 30
0.0
 10
154.1489826457288
 20
228.599686
 30
0.0
  0
SPLINE
  5
12DC
330
1F
100
AcDbEntity
  8
CALQUE_1
 62
     1
100
AcDbSpline
210
0.0
220
0.0
230
1.0
 70
     8
 71
     3
 72
     8
 73
     4
 74
     0
 42
0.000000001
 43
0.0000000001
 40
0.0
 40
0.0
 40
0.0
 40
0.0
 40
1.0
 40
1.0
 40
1.0
 40
1.0
 10
154.1489826457288
 20
228.599686
 30
0.0
 10
154.1405856457288
 20
228.154599
 30
0.0
 10
153.2701886457288
 20
227.347118
 30
0.0
 10
150.9575866457288
 20
225.639393
 30
0.0
  0
SPLINE
  5
12DD
330
1F
100
AcDbEntity
  8
CALQUE_1
 62
     1
100
AcDbSpline
210
0.0
220
0.0
230
1.0
 70
     8
 71
     3
 72
     8
 73
     4
 74
     0
 42
0.000000001
 43
0.0000000001
 40
0.0
 40
0.0
 40
0.0
 40
0.0
 40
1.0
 40
1.0
 40
1.0
 40
1.0
 10
150.9575866457288
 20
225.639393
 30
0.0
 10
146.9065276457288
 20
222.64788
 30
0.0
 10
143.4843076457288
 20
220.895666
 30
0.0
 10
141.6927006457288
 20
220.895666
 30
0.0
  0
SPLINE
  5
12DE
330
1F
100
AcDbEntity
  8
CALQUE_1
 62
     1
100
AcDbSpline
210
0.0
220
0.0
230
1.0
 70
     8
 71
     3
 72
     8
 73
     4
 74
     0
 42
0.000000001
 43
0.0000000001
 40
0.0
 40
0.0
 40
0.0
 40
0.0
 40
1.0
 40
1.0
 40
1.0
 40
1.0
 10
141.6927006457288
 20
220.895666
 30
0.0
 10
140.2698316457288
 20
220.895666
 30
0.0
 10
141.9635806457288
 20
222.016155
 30
0.0
 10
122.3882796457288
 20
208.124895
 30
0.0
  0
SPLINE
  5
12DF
330
1F
100
AcDbEntity
  8
CALQUE_1
 62
     1
100
AcDbSpline
210
0.0
220
0.0
230
1.0
 70
     8
 71
     3
 72
     8
 73
     4
 74
     0
 42
0.000000001
 43
0.0000000001
 40
0.0
 40
0.0
 40
0.0
 40
0.0
 40
1.0
 40
1.0
 40
1.0
 40
1.0
 10
122.3882796457288
 20
208.124895
 30
0.0
 10
119.5018286457288
 20
206.076585
 30
0.0
 10
116.5019276457288
 20
203.952195
 30
0.0
 10
115.7218086457288
 20
203.404028
 30
0.0
  0
SPLINE
  5
12E0
330
1F
100
AcDbEntity
  8
CALQUE_1
 62
     1
100
AcDbSpline
210
0.0
220
0.0
230
1.0
 70
     8
 71
     3
 72
     8
 73
     4
 74
     0
 42
0.000000001
 43
0.0000000001
 40
0.0
 40
0.0
 40
0.0
 40
0.0
 40
1.0
 40
1.0
 40
1.0
 40
1.0
 10
115.7218086457288
 20
203.404028
 30
0.0
 10
113.3276436457288
 20
201.721715
 30
0.0
 10
91.54286464572885
 20
186.303203
 30
0.0
 10
82.38945364572884
 20
179.812537
 30
0.0
  0
SPLINE
  5
12E1
330
1F
100
AcDbEntity
  8
CALQUE_1
 62
     1
100
AcDbSpline
210
0.0
220
0.0
230
1.0
 70
     8
 71
     3
 72
     8
 73
     4
 74
     0
 42
0.000000001
 43
0.0000000001
 40
0.0
 40
0.0
 40
0.0
 40
0.0
 40
1.0
 40
1.0
 40
1.0
 40
1.0
 10
82.38945364572884
 20
179.812537
 30
0.0
 10
77.63071664572883
 20
176.438136
 30
0.0
 10
73.54572964572884
 20
173.674729
 30
0.0
 10
73.31170564572885
 20
173.671631
 30
0.0
  0
SPLINE
  5
12E2
330
1F
100
AcDbEntity
  8
CALQUE_1
 62
     1
100
AcDbSpline
210
0.0
220
0.0
230
1.0
 70
     8
 71
     3
 72
     8
 73
     4
 74
     0
 42
0.000000001
 43
0.0000000001
 40
0.0
 40
0.0
 40
0.0
 40
0.0
 40
1.0
 40
1.0
 40
1.0
 40
1.0
 10
73.31170564572885
 20
173.671631
 30
0.0
 10
73.07765864572885
 20
173.668545
 30
0.0
 10
72.18406764572884
 20
174.448017
 30
0.0
 10
71.32594764572885
 20
175.403813
 30
0.0
  0
SPLINE
  5
12FD
330
1F
100
AcDbEntity
  8
CALQUE_1
 62
     1
100
AcDbSpline
210
0.0
220
0.0
230
1.0
 70
     8
 71
     3
 72
     8
 73
     4
 74
     0
 42
0.000000001
 43
0.0000000001
 40
0.0
 40
0.0
 40
0.0
 40
0.0
 40
1.0
 40
1.0
 40
1.0
 40
1.0
 10
93.37695464572885
 20
178.353949
 30
0.0
 10
92.79466264572885
 20
178.749635
 30
0.0
 10
92.31823964572885
 20
179.128574
 30
0.0
 10
92.31823964572885
 20
179.196035
 30
0.0
  0
SPLINE
  5
12FE
330
1F
100
AcDbEntity
  8
CALQUE_1
 62
     1
100
AcDbSpline
210
0.0
220
0.0
230
1.0
 70
     8
 71
     3
 72
     8
 73
     4
 74
     0
 42
0.000000001
 43
0.0000000001
 40
0.0
 40
0.0
 40
0.0
 40
0.0
 40
1.0
 40
1.0
 40
1.0
 40
1.0
 10
92.31823964572885
 20
179.196035
 30
0.0
 10
92.31823964572885
 20
179.263497
 30
0.0
 10
93.32534864572885
 20
180.312056
 30
0.0
 10
94.55626764572883
 20
181.526165
 30
0.0
  0
SPLINE
  5
12FF
330
1F
100
AcDbEntity
  8
CALQUE_1
 62
     1
100
AcDbSpline
210
0.0
220
0.0
230
1.0
 70
     8
 71
     3
 72
     8
 73
     4
 74
     0
 42
0.000000001
 43
0.0000000001
 40
0.0
 40
0.0
 40
0.0
 40
0.0
 40
1.0
 40
1.0
 40
1.0
 40
1.0
 10
94.55626764572883
 20
181.526165
 30
0.0
 10
97.32568464572885
 20
184.257751
 30
0.0
 10
97.90820364572887
 20
185.634936
 30
0.0
 10
96.88155564572884
 20
187.023541
 30
0.0
  0
SPLINE
  5
1300
330
1F
100
AcDbEntity
  8
CALQUE_1
 62
     1
100
AcDbSpline
210
0.0
220
0.0
230
1.0
 70
     8
 71
     3
 72
     8
 73
     4
 74
     0
 42
0.000000001
 43
0.0000000001
 40
0.0
 40
0.0
 40
0.0
 40
0.0
 40
1.0
 40
1.0
 40
1.0
 40
1.0
 10
96.88155564572884
 20
187.023541
 30
0.0
 10
96.08900064572885
 20
188.095548
 30
0.0
 10
96.20993864572886
 20
188.420681
 30
0.0
 10
97.81098064572885
 20
189.522229
 30
0.0
  0
SPLINE
  5
1301
330
1F
100
AcDbEntity
  8
CALQUE_1
 62
     1
100
AcDbSpline
210
0.0
220
0.0
230
1.0
 70
     8
 71
     3
 72
     8
 73
     4
 74
     0
 42
0.000000001
 43
0.0000000001
 40
0.0
 40
0.0
 40
0.0
 40
0.0
 40
1.0
 40
1.0
 40
1.0
 40
1.0
 10
97.81098064572885
 20
189.522229
 30
0.0
 10
99.36944864572886
 20
190.594488
 30
0.0
 10
99.78822764572885
 20
190.611028
 30
0.0
 10
100.9295056457288
 20
189.645389
 30
0.0
  0
SPLINE
  5
1302
330
1F
100
AcDbEntity
  8
CALQUE_1
 62
     1
100
AcDbSpline
210
0.0
220
0.0
230
1.0
 70
     8
 71
     3
 72
     8
 73
     4
 74
     0
 42
0.000000001
 43
0.0000000001
 40
0.0
 40
0.0
 40
0.0
 40
0.0
 40
1.0
 40
1.0
 40
1.0
 40
1.0
 10
100.9295056457288
 20
189.645389
 30
0.0
 10
102.9879526457288
 20
187.903735
 30
0.0
 10
109.9741646457288
 20
185.4659899999999
 30
0.0
 10
115.0126096457288
 20
184.731294
 30
0.0
  0
SPLINE
  5
1303
330
1F
100
AcDbEntity
  8
CALQUE_1
 62
     1
100
AcDbSpline
210
0.0
220
0.0
230
1.0
 70
     8
 71
     3
 72
     8
 73
     4
 74
     0
 42
0.000000001
 43
0.0000000001
 40
0.0
 40
0.0
 40
0.0
 40
0.0
 40
1.0
 40
1.0
 40
1.0
 40
1.0
 10
115.0126096457288
 20
184.731294
 30
0.0
 10
118.0507046457288
 20
184.288284
 30
0.0
 10
118.1330856457288
 20
184.2628
 30
0.0
 10
118.1330856457288
 20
183.766045
 30
0.0
  0
SPLINE
  5
1304
330
1F
100
AcDbEntity
  8
CALQUE_1
 62
     1
100
AcDbSpline
210
0.0
220
0.0
230
1.0
 70
     8
 71
     3
 72
     8
 73
     4
 74
     0
 42
0.000000001
 43
0.0000000001
 40
0.0
 40
0.0
 40
0.0
 40
0.0
 40
1.0
 40
1.0
 40
1.0
 40
1.0
 10
118.1330856457288
 20
183.766045
 30
0.0
 10
118.1330856457288
 20
182.307746
 30
0.0
 10
106.8355336457288
 20
182.498483
 30
0.0
 10
102.4945546457288
 20
184.030072
 30
0.0
  0
SPLINE
  5
1305
330
1F
100
AcDbEntity
  8
CALQUE_1
 62
     1
100
AcDbSpline
210
0.0
220
0.0
230
1.0
 70
     8
 71
     3
 72
     8
 73
     4
 74
     0
 42
0.000000001
 43
0.0000000001
 40
0.0
 40
0.0
 40
0.0
 40
0.0
 40
1.0
 40
1.0
 40
1.0
 40
1.0
 10
102.4945546457288
 20
184.030072
 30
0.0
 10
101.4552886457288
 20
184.396747
 30
0.0
 10
101.3959876457288
 20
184.386963
 30
0.0
 10
101.3959876457288
 20
183.848803
 30
0.0
  0
SPLINE
  5
1306
330
1F
100
AcDbEntity
  8
CALQUE_1
 62
     1
100
AcDbSpline
210
0.0
220
0.0
230
1.0
 70
     8
 71
     3
 72
     8
 73
     4
 74
     0
 42
0.000000001
 43
0.0000000001
 40
0.0
 40
0.0
 40
0.0
 40
0.0
 40
1.0
 40
1.0
 40
1.0
 40
1.0
 10
101.3959876457288
 20
183.848803
 30
0.0
 10
101.3959876457288
 20
182.555137
 30
0.0
 10
99.66817464572885
 20
180.524913
 30
0.0
 10
96.87213764572886
 20
178.533167
 30
0.0
  0
SPLINE
  5
1307
330
1F
100
AcDbEntity
  8
CALQUE_1
 62
     1
100
AcDbSpline
210
0.0
220
0.0
230
1.0
 70
     8
 71
     3
 72
     8
 73
     4
 74
     0
 42
0.000000001
 43
0.0000000001
 40
0.0
 40
0.0
 40
0.0
 40
0.0
 40
1.0
 40
1.0
 40
1.0
 40
1.0
 10
96.87213764572886
 20
178.533167
 30
0.0
 10
95.34666764572884
 20
177.446504
 30
0.0
 10
94.75690864572884
 20
177.416263
 30
0.0
 10
93.37695464572885
 20
178.353949
 30
0.0
  0
SPLINE
  5
1316
330
1F
100
AcDbEntity
  8
CALQUE_1
 62
     1
100
AcDbSpline
210
0.0
220
0.0
230
1.0
 70
     8
 71
     3
 72
     8
 73
     4
 74
     0
 42
0.000000001
 43
0.0000000001
 40
0.0
 40
0.0
 40
0.0
 40
0.0
 40
1.0
 40
1.0
 40
1.0
 40
1.0
 10
66.36155464572884
 20
188.605007
 30
0.0
 10
64.03622164572886
 20
189.116685
 30
0.0
 10
61.78271564572885
 20
190.744076
 30
0.0
 10
60.27683064572884
 20
192.999145
 30
0.0
  0
SPLINE
  5
1317
330
1F
100
AcDbEntity
  8
CALQUE_1
 62
     1
100
AcDbSpline
210
0.0
220
0.0
230
1.0
 70
     8
 71
     3
 72
     8
 73
     4
 74
     0
 42
0.000000001
 43
0.0000000001
 40
0.0
 40
0.0
 40
0.0
 40
0.0
 40
1.0
 40
1.0
 40
1.0
 40
1.0
 10
60.27683064572884
 20
192.999145
 30
0.0
 10
59.64481564572885
 20
193.9455889999999
 30
0.0
 10
59.12772464572885
 20
194.516355
 30
0.0
 10
59.12772464572885
 20
194.267511
 30
0.0
  0
SPLINE
  5
1318
330
1F
100
AcDbEntity
  8
CALQUE_1
 62
     1
100
AcDbSpline
210
0.0
220
0.0
230
1.0
 70
     8
 71
     3
 72
     8
 73
     4
 74
     0
 42
0.000000001
 43
0.0000000001
 40
0.0
 40
0.0
 40
0.0
 40
0.0
 40
1.0
 40
1.0
 40
1.0
 40
1.0
 10
59.12772464572885
 20
194.267511
 30
0.0
 10
59.12772464572885
 20
193.041162
 30
0.0
 10
56.32365364572885
 20
193.582563
 30
0.0
 10
53.33348864572885
 20
195.386255
 30
0.0
  0
SPLINE
  5
131A
330
1F
100
AcDbEntity
  8
CALQUE_1
 62
     1
100
AcDbSpline
210
0.0
220
0.0
230
1.0
 70
     8
 71
     3
 72
     8
 73
     4
 74
     0
 42
0.000000001
 43
0.0000000001
 40
0.0
 40
0.0
 40
0.0
 40
0.0
 40
1.0
 40
1.0
 40
1.0
 40
1.0
 10
49.50381364572884
 20
195.406158
 30
0.0
 10
44.85553064572885
 20
193.2559
 30
0.0
 10
41.95423664572884
 20
193.248293
 30
0.0
 10
41.41796864572884
 20
195.384961
 30
0.0
  0
SPLINE
  5
131B
330
1F
100
AcDbEntity
  8
CALQUE_1
 62
     1
100
AcDbSpline
210
0.0
220
0.0
230
1.0
 70
     8
 71
     3
 72
     8
 73
     4
 74
     0
 42
0.000000001
 43
0.0000000001
 40
0.0
 40
0.0
 40
0.0
 40
0.0
 40
1.0
 40
1.0
 40
1.0
 40
1.0
 10
41.41796864572884
 20
195.384961
 30
0.0
 10
41.01430364572885
 20
196.99327
 30
0.0
 10
43.08096664572885
 20
199.671344
 30
0.0
 10
45.55472164572885
 20
200.74553
 30
0.0
  0
SPLINE
  5
131C
330
1F
100
AcDbEntity
  8
CALQUE_1
 62
     1
100
AcDbSpline
210
0.0
220
0.0
230
1.0
 70
     8
 71
     3
 72
     8
 73
     4
 74
     0
 42
0.000000001
 43
0.0000000001
 40
0.0
 40
0.0
 40
0.0
 40
0.0
 40
1.0
 40
1.0
 40
1.0
 40
1.0
 10
45.55472164572885
 20
200.74553
 30
0.0
 10
46.73550964572885
 20
201.258266
 30
0.0
 10
46.71646864572885
 20
201.258423
 30
0.0
 10
43.95086464572885
 20
200.758716
 30
0.0
  0
SPLINE
  5
131D
330
1F
100
AcDbEntity
  8
CALQUE_1
 62
     1
100
AcDbSpline
210
0.0
220
0.0
230
1.0
 70
     8
 71
     3
 72
     8
 73
     4
 74
     0
 42
0.000000001
 43
0.0000000001
 40
0.0
 40
0.0
 40
0.0
 40
0.0
 40
1.0
 40
1.0
 40
1.0
 40
1.0
 10
43.95086464572885
 20
200.758716
 30
0.0
 10
40.52090564572885
 20
200.138994
 30
0.0
 10
38.69282864572885
 20
200.200963
 30
0.0
 10
37.54283664572885
 20
200.975937
 30
0.0
  0
SPLINE
  5
131E
330
1F
100
AcDbEntity
  8
CALQUE_1
 62
     1
100
AcDbSpline
210
0.0
220
0.0
230
1.0
 70
     8
 71
     3
 72
     8
 73
     4
 74
     0
 42
0.000000001
 43
0.0000000001
 40
0.0
 40
0.0
 40
0.0
 40
0.0
 40
1.0
 40
1.0
 40
1.0
 40
1.0
 10
37.54283664572885
 20
200.975937
 30
0.0
 10
35.72912564572885
 20
202.198204
 30
0.0
 10
35.72612964572885
 20
203.876852
 30
0.0
 10
37.53443964572884
 20
205.685159
 30
0.0
  0
SPLINE
  5
131F
330
1F
100
AcDbEntity
  8
CALQUE_1
 62
     1
100
AcDbSpline
210
0.0
220
0.0
230
1.0
 70
     8
 71
     3
 72
     8
 73
     4
 74
     0
 42
0.000000001
 43
0.0000000001
 40
0.0
 40
0.0
 40
0.0
 40
0.0
 40
1.0
 40
1.0
 40
1.0
 40
1.0
 10
37.53443964572884
 20
205.685159
 30
0.0
 10
38.88416464572884
 20
207.034887
 30
0.0
 10
41.17057764572884
 20
208.174409
 30
0.0
 10
43.47028864572884
 20
208.643507
 30
0.0
  0
SPLINE
  5
1321
330
1F
100
AcDbEntity
  8
CALQUE_1
 62
     1
100
AcDbSpline
210
0.0
220
0.0
230
1.0
 70
     8
 71
     3
 72
     8
 73
     4
 74
     0
 42
0.000000001
 43
0.0000000001
 40
0.0
 40
0.0
 40
0.0
 40
0.0
 40
1.0
 40
1.0
 40
1.0
 40
1.0
 10
44.44648664572885
 20
209.460447
 30
0.0
 10
44.01785864572885
 20
209.712815
 30
0.0
 10
42.93168364572884
 20
210.132577
 30
0.0
 10
42.03273664572885
 20
210.393249
 30
0.0
  0
SPLINE
  5
1322
330
1F
100
AcDbEntity
  8
CALQUE_1
 62
     1
100
AcDbSpline
210
0.0
220
0.0
230
1.0
 70
     8
 71
     3
 72
     8
 73
     4
 74
     0
 42
0.000000001
 43
0.0000000001
 40
0.0
 40
0.0
 40
0.0
 40
0.0
 40
1.0
 40
1.0
 40
1.0
 40
1.0
 10
42.03273664572885
 20
210.393249
 30
0.0
 10
39.17585564572885
 20
211.221676
 30
0.0
 10
37.84115464572885
 20
212.997812
 30
0.0
 10
38.44153364572885
 20
215.172207
 30
0.0
  0
SPLINE
  5
1323
330
1F
100
AcDbEntity
  8
CALQUE_1
 62
     1
100
AcDbSpline
210
0.0
220
0.0
230
1.0
 70
     8
 71
     3
 72
     8
 73
     4
 74
     0
 42
0.000000001
 43
0.0000000001
 40
0.0
 40
0.0
 40
0.0
 40
0.0
 40
1.0
 40
1.0
 40
1.0
 40
1.0
 10
38.44153364572885
 20
215.172207
 30
0.0
 10
39.49219264572885
 20
218.977356
 30
0.0
 10
45.27120064572885
 20
218.841278
 30
0.0
 10
53.47909564572884
 20
214.818118
 30
0.0
  0
SPLINE
  5
1324
330
1F
100
AcDbEntity
  8
CALQUE_1
 62
     1
100
AcDbSpline
210
0.0
220
0.0
230
1.0
 70
     8
 71
     3
 72
     8
 73
     4
 74
     0
 42
0.000000001
 43
0.0000000001
 40
0.0
 40
0.0
 40
0.0
 40
0.0
 40
1.0
 40
1.0
 40
1.0
 40
1.0
 10
53.47909564572884
 20
214.818118
 30
0.0
 10
56.68916864572885
 20
213.244681
 30
0.0
 10
64.23395764572885
 20
208.547158
 30
0.0
 10
64.23395764572885
 20
208.121945
 30
0.0
  0
SPLINE
  5
1325
330
1F
100
AcDbEntity
  8
CALQUE_1
 62
     1
100
AcDbSpline
210
0.0
220
0.0
230
1.0
 70
     8
 71
     3
 72
     8
 73
     4
 74
     0
 42
0.000000001
 43
0.0000000001
 40
0.0
 40
0.0
 40
0.0
 40
0.0
 40
1.0
 40
1.0
 40
1.0
 40
1.0
 10
64.23395764572885
 20
208.121945
 30
0.0
 10
64.23395764572885
 20
207.199021
 30
0.0
 10
61.92149164572884
 20
207.19168
 30
0.0
 10
59.75744764572884
 20
208.107738
 30
0.0
  0
SPLINE
  5
1326
330
1F
100
AcDbEntity
  8
CALQUE_1
 62
     1
100
AcDbSpline
210
0.0
220
0.0
230
1.0
 70
     8
 71
     3
 72
     8
 73
     4
 74
     0
 42
0.000000001
 43
0.0000000001
 40
0.0
 40
0.0
 40
0.0
 40
0.0
 40
1.0
 40
1.0
 40
1.0
 40
1.0
 10
59.75744764572884
 20
208.107738
 30
0.0
 10
58.86501464572885
 20
208.485511
 30
0.0
 10
56.25384564572884
 20
209.807306
 30
0.0
 10
53.95483764572885
 20
211.045059
 30
0.0
  0
SPLINE
  5
1327
330
1F
100
AcDbEntity
  8
CALQUE_1
 62
     1
100
AcDbSpline
210
0.0
220
0.0
230
1.0
 70
     8
 71
     3
 72
     8
 73
     4
 74
     0
 42
0.000000001
 43
0.0000000001
 40
0.0
 40
0.0
 40
0.0
 40
0.0
 40
1.0
 40
1.0
 40
1.0
 40
1.0
 10
53.95483764572885
 20
211.045059
 30
0.0
 10
49.39951064572885
 20
213.497594
 30
0.0
 10
46.81158064572885
 20
214.485634
 30
0.0
 10
44.33076864572885
 20
214.719423
 30
0.0
  0
SPLINE
  5
1328
330
1F
100
AcDbEntity
  8
CALQUE_1
 62
     1
100
AcDbSpline
210
0.0
220
0.0
230
1.0
 70
     8
 71
     3
 72
     8
 73
     4
 74
     0
 42
0.000000001
 43
0.0000000001
 40
0.0
 40
0.0
 40
0.0
 40
0.0
 40
1.0
 40
1.0
 40
1.0
 40
1.0
 10
44.33076864572885
 20
214.719423
 30
0.0
 10
41.22365964572884
 20
215.012234
 30
0.0
 10
40.20288964572884
 20
214.1340299999999
 30
0.0
 10
42.60338664572884
 20
213.233291
 30
0.0
  0
SPLINE
  5
1329
330
1F
100
AcDbEntity
  8
CALQUE_1
 62
     1
100
AcDbSpline
210
0.0
220
0.0
230
1.0
 70
     8
 71
     3
 72
     8
 73
     4
 74
     0
 42
0.000000001
 43
0.0000000001
 40
0.0
 40
0.0
 40
0.0
 40
0.0
 40
1.0
 40
1.0
 40
1.0
 40
1.0
 10
42.60338664572884
 20
213.233291
 30
0.0
 10
46.55785764572884
 20
211.749442
 30
0.0
 10
49.48261764572885
 20
209.675898
 30
0.0
 10
49.48261764572885
 20
208.356182
 30
0.0
  0
SPLINE
  5
132A
330
1F
100
AcDbEntity
  8
CALQUE_1
 62
     1
100
AcDbSpline
210
0.0
220
0.0
230
1.0
 70
     8
 71
     3
 72
     8
 73
     4
 74
     0
 42
0.000000001
 43
0.0000000001
 40
0.0
 40
0.0
 40
0.0
 40
0.0
 40
1.0
 40
1.0
 40
1.0
 40
1.0
 10
49.48261764572885
 20
208.356182
 30
0.0
 10
49.48261764572885
 20
207.799351
 30
0.0
 10
49.33671564572885
 20
207.704557
 30
0.0
 10
48.47975264572885
 20
207.704557
 30
0.0
  0
SPLINE
  5
132B
330
1F
100
AcDbEntity
  8
CALQUE_1
 62
     1
100
AcDbSpline
210
0.0
220
0.0
230
1.0
 70
     8
 71
     3
 72
     8
 73
     4
 74
     0
 42
0.000000001
 43
0.0000000001
 40
0.0
 40
0.0
 40
0.0
 40
0.0
 40
1.0
 40
1.0
 40
1.0
 40
1.0
 10
48.47975264572885
 20
207.704557
 30
0.0
 10
47.92818864572884
 20
207.704557
 30
0.0
 10
47.13032364572884
 20
207.922945
 30
0.0
 10
46.70675564572884
 20
208.18986
 30
0.0
  0
SPLINE
  5
132C
330
1F
100
AcDbEntity
  8
CALQUE_1
 62
     1
100
AcDbSpline
210
0.0
220
0.0
230
1.0
 70
     8
 71
     3
 72
     8
 73
     4
 74
     0
 42
0.000000001
 43
0.0000000001
 40
0.0
 40
0.0
 40
0.0
 40
0.0
 40
1.0
 40
1.0
 40
1.0
 40
1.0
 10
46.70675564572884
 20
208.18986
 30
0.0
 10
45.94106964572884
 20
208.672363
 30
0.0
 10
45.93948164572885
 20
208.671825
 30
0.0
 10
46.43306164572885
 20
208.096604
 30
0.0
  0
SPLINE
  5
132D
330
1F
100
AcDbEntity
  8
CALQUE_1
 62
     1
100
AcDbSpline
210
0.0
220
0.0
230
1.0
 70
     8
 71
     3
 72
     8
 73
     4
 74
     0
 42
0.000000001
 43
0.0000000001
 40
0.0
 40
0.0
 40
0.0
 40
0.0
 40
1.0
 40
1.0
 40
1.0
 40
1.0
 10
46.43306164572885
 20
208.096604
 30
0.0
 10
46.70609764572884
 20
207.778395
 30
0.0
 10
46.92950064572885
 20
207.390462
 30
0.0
 10
46.92950064572885
 20
207.234536
 30
0.0
  0
SPLINE
  5
132E
330
1F
100
AcDbEntity
  8
CALQUE_1
 62
     1
100
AcDbSpline
210
0.0
220
0.0
230
1.0
 70
     8
 71
     3
 72
     8
 73
     4
 74
     0
 42
0.000000001
 43
0.0000000001
 40
0.0
 40
0.0
 40
0.0
 40
0.0
 40
1.0
 40
1.0
 40
1.0
 40
1.0
 10
46.92950064572885
 20
207.234536
 30
0.0
 10
46.92950064572885
 20
207.078607
 30
0.0
 10
45.87634564572884
 20
206.546458
 30
0.0
 10
44.58914364572885
 20
206.051982
 30
0.0
  0
SPLINE
  5
132F
330
1F
100
AcDbEntity
  8
CALQUE_1
 62
     1
100
AcDbSpline
210
0.0
220
0.0
230
1.0
 70
     8
 71
     3
 72
     8
 73
     4
 74
     0
 42
0.000000001
 43
0.0000000001
 40
0.0
 40
0.0
 40
0.0
 40
0.0
 40
1.0
 40
1.0
 40
1.0
 40
1.0
 10
44.58914364572885
 20
206.051982
 30
0.0
 10
41.90017864572885
 20
205.019018
 30
0.0
 10
40.07521064572885
 20
204.032269
 30
0.0
 10
39.90684164572885
 20
203.520282
 30
0.0
  0
SPLINE
  5
1330
330
1F
100
AcDbEntity
  8
CALQUE_1
 62
     1
100
AcDbSpline
210
0.0
220
0.0
230
1.0
 70
     8
 71
     3
 72
     8
 73
     4
 74
     0
 42
0.000000001
 43
0.0000000001
 40
0.0
 40
0.0
 40
0.0
 40
0.0
 40
1.0
 40
1.0
 40
1.0
 40
1.0
 10
39.90684164572885
 20
203.520282
 30
0.0
 10
39.72033864572884
 20
202.953191
 30
0.0
 10
42.63438664572885
 20
203.083261
 30
0.0
 10
45.65355564572885
 20
203.77679
 30
0.0
  0
SPLINE
  5
1331
330
1F
100
AcDbEntity
  8
CALQUE_1
 62
     1
100
AcDbSpline
210
0.0
220
0.0
230
1.0
 70
     8
 71
     3
 72
     8
 73
     4
 74
     0
 42
0.000000001
 43
0.0000000001
 40
0.0
 40
0.0
 40
0.0
 40
0.0
 40
1.0
 40
1.0
 40
1.0
 40
1.0
 10
45.65355564572885
 20
203.77679
 30
0.0
 10
48.16425564572885
 20
204.353517
 30
0.0
 10
48.35479764572885
 20
204.361131
 30
0.0
 10
49.04012264572885
 20
203.912091
 30
0.0
  0
SPLINE
  5
1332
330
1F
100
AcDbEntity
  8
CALQUE_1
 62
     1
100
AcDbSpline
210
0.0
220
0.0
230
1.0
 70
     8
 71
     3
 72
     8
 73
     4
 74
     0
 42
0.000000001
 43
0.0000000001
 40
0.0
 40
0.0
 40
0.0
 40
0.0
 40
1.0
 40
1.0
 40
1.0
 40
1.0
 10
49.04012264572885
 20
203.912091
 30
0.0
 10
49.48220864572885
 20
203.622425
 30
0.0
 10
49.76629664572885
 20
203.172416
 30
0.0
 10
49.76629664572885
 20
202.761805
 30
0.0
  0
SPLINE
  5
1333
330
1F
100
AcDbEntity
  8
CALQUE_1
 62
     1
100
AcDbSpline
210
0.0
220
0.0
230
1.0
 70
     8
 71
     3
 72
     8
 73
     4
 74
     0
 42
0.000000001
 43
0.0000000001
 40
0.0
 40
0.0
 40
0.0
 40
0.0
 40
1.0
 40
1.0
 40
1.0
 40
1.0
 10
49.76629664572885
 20
202.761805
 30
0.0
 10
49.76629664572885
 20
202.221756
 30
0.0
 10
49.55426364572884
 20
202.031012
 30
0.0
 10
48.70249864572885
 20
201.804783
 30
0.0
  0
SPLINE
  5
1334
330
1F
100
AcDbEntity
  8
CALQUE_1
 62
     1
100
AcDbSpline
210
0.0
220
0.0
230
1.0
 70
     8
 71
     3
 72
     8
 73
     4
 74
     0
 42
0.000000001
 43
0.0000000001
 40
0.0
 40
0.0
 40
0.0
 40
0.0
 40
1.0
 40
1.0
 40
1.0
 40
1.0
 10
48.70249864572885
 20
201.804783
 30
0.0
 10
47.98542464572885
 20
201.61433
 30
0.0
 10
47.84673864572885
 20
201.512686
 30
0.0
 10
48.27697864572884
 20
201.492922
 30
0.0
  0
SPLINE
  5
1335
330
1F
100
AcDbEntity
  8
CALQUE_1
 62
     1
100
AcDbSpline
210
0.0
220
0.0
230
1.0
 70
     8
 71
     3
 72
     8
 73
     4
 74
     0
 42
0.000000001
 43
0.0000000001
 40
0.0
 40
0.0
 40
0.0
 40
0.0
 40
1.0
 40
1.0
 40
1.0
 40
1.0
 10
48.27697864572884
 20
201.492922
 30
0.0
 10
49.36973564572885
 20
201.442728
 30
0.0
 10
48.99105764572884
 20
200.670836
 30
0.0
 10
47.18601564572884
 20
199.269098
 30
0.0
  0
SPLINE
  5
1336
330
1F
100
AcDbEntity
  8
CALQUE_1
 62
     1
100
AcDbSpline
210
0.0
220
0.0
230
1.0
 70
     8
 71
     3
 72
     8
 73
     4
 74
     0
 42
0.000000001
 43
0.0000000001
 40
0.0
 40
0.0
 40
0.0
 40
0.0
 40
1.0
 40
1.0
 40
1.0
 40
1.0
 10
47.18601564572884
 20
199.269098
 30
0.0
 10
46.23493964572885
 20
198.530517
 30
0.0
 10
45.27546664572884
 20
197.57561
 30
0.0
 10
45.05387864572885
 20
197.14709
 30
0.0
  0
SPLINE
  5
1337
330
1F
100
AcDbEntity
  8
CALQUE_1
 62
     1
100
AcDbSpline
210
0.0
220
0.0
230
1.0
 70
     8
 71
     3
 72
     8
 73
     4
 74
     0
 42
0.000000001
 43
0.0000000001
 40
0.0
 40
0.0
 40
0.0
 40
0.0
 40
1.0
 40
1.0
 40
1.0
 40
1.0
 10
45.05387864572885
 20
197.14709
 30
0.0
 10
44.65445864572884
 20
196.374713
 30
0.0
 10
44.65734064572885
 20
196.370378
 30
0.0
 10
45.38553464572884
 20
196.647242
 30
0.0
  0
SPLINE
  5
1338
330
1F
100
AcDbEntity
  8
CALQUE_1
 62
     1
100
AcDbSpline
210
0.0
220
0.0
230
1.0
 70
     8
 71
     3
 72
     8
 73
     4
 74
     0
 42
0.000000001
 43
0.0000000001
 40
0.0
 40
0.0
 40
0.0
 40
0.0
 40
1.0
 40
1.0
 40
1.0
 40
1.0
 10
45.38553464572884
 20
196.647242
 30
0.0
 10
45.78956264572885
 20
196.800849
 30
0.0
 10
47.30817864572885
 20
197.500573
 30
0.0
 10
48.76025564572884
 20
198.2021879999999
 30
0.0
  0
SPLINE
  5
1339
330
1F
100
AcDbEntity
  8
CALQUE_1
 62
     1
100
AcDbSpline
210
0.0
220
0.0
230
1.0
 70
     8
 71
     3
 72
     8
 73
     4
 74
     0
 42
0.000000001
 43
0.0000000001
 40
0.0
 40
0.0
 40
0.0
 40
0.0
 40
1.0
 40
1.0
 40
1.0
 40
1.0
 10
48.76025564572884
 20
198.2021879999999
 30
0.0
 10
50.21233164572885
 20
198.9038
 30
0.0
 10
51.58332164572885
 20
199.477848
 30
0.0
 10
51.80688364572884
 20
199.477848
 30
0.0
  0
SPLINE
  5
133A
330
1F
100
AcDbEntity
  8
CALQUE_1
 62
     1
100
AcDbSpline
210
0.0
220
0.0
230
1.0
 70
     8
 71
     3
 72
     8
 73
     4
 74
     0
 42
0.000000001
 43
0.0000000001
 40
0.0
 40
0.0
 40
0.0
 40
0.0
 40
1.0
 40
1.0
 40
1.0
 40
1.0
 10
51.80688364572884
 20
199.477848
 30
0.0
 10
52.03046864572885
 20
199.477848
 30
0.0
 10
53.09440364572885
 20
198.946486
 30
0.0
 10
54.17118364572885
 20
198.297048
 30
0.0
  0
SPLINE
  5
133B
330
1F
100
AcDbEntity
  8
CALQUE_1
 62
     1
100
AcDbSpline
210
0.0
220
0.0
230
1.0
 70
     8
 71
     3
 72
     8
 73
     4
 74
     0
 42
0.000000001
 43
0.0000000001
 40
0.0
 40
0.0
 40
0.0
 40
0.0
 40
1.0
 40
1.0
 40
1.0
 40
1.0
 10
54.17118364572885
 20
198.297048
 30
0.0
 10
55.24796264572885
 20
197.647608
 30
0.0
 10
56.65197264572885
 20
196.958852
 30
0.0
 10
57.29118264572885
 20
196.766474
 30
0.0
  0
SPLINE
  5
133D
330
1F
100
AcDbEntity
  8
CALQUE_1
 62
     1
100
AcDbSpline
210
0.0
220
0.0
230
1.0
 70
     8
 71
     3
 72
     8
 73
     4
 74
     0
 42
0.000000001
 43
0.0000000001
 40
0.0
 40
0.0
 40
0.0
 40
0.0
 40
1.0
 40
1.0
 40
1.0
 40
1.0
 10
58.33283164572884
 20
197.238074
 30
0.0
 10
58.22689364572884
 20
197.959873
 30
0.0
 10
58.29949364572884
 20
198.059452
 30
0.0
 10
58.93164464572884
 20
198.059452
 30
0.0
  0
SPLINE
  5
133E
330
1F
100
AcDbEntity
  8
CALQUE_1
 62
     1
100
AcDbSpline
210
0.0
220
0.0
230
1.0
 70
     8
 71
     3
 72
     8
 73
     4
 74
     0
 42
0.000000001
 43
0.0000000001
 40
0.0
 40
0.0
 40
0.0
 40
0.0
 40
1.0
 40
1.0
 40
1.0
 40
1.0
 10
58.93164464572884
 20
198.059452
 30
0.0
 10
59.46248864572885
 20
198.059452
 30
0.0
 10
60.08422364572885
 20
197.567835
 30
0.0
 10
61.30420564572884
 20
196.1833969999999
 30
0.0
  0
SPLINE
  5
133F
330
1F
100
AcDbEntity
  8
CALQUE_1
 62
     1
100
AcDbSpline
210
0.0
220
0.0
230
1.0
 70
     8
 71
     3
 72
     8
 73
     4
 74
     0
 42
0.000000001
 43
0.0000000001
 40
0.0
 40
0.0
 40
0.0
 40
0.0
 40
1.0
 40
1.0
 40
1.0
 40
1.0
 10
61.30420564572884
 20
196.1833969999999
 30
0.0
 10
64.62121464572885
 20
192.419225
 30
0.0
 10
65.24644464572884
 20
191.818616
 30
0.0
 10
66.29063464572886
 20
191.393228
 30
0.0
  0
SPLINE
  5
1340
330
1F
100
AcDbEntity
  8
CALQUE_1
 62
     1
100
AcDbSpline
210
0.0
220
0.0
230
1.0
 70
     8
 71
     3
 72
     8
 73
     4
 74
     0
 42
0.000000001
 43
0.0000000001
 40
0.0
 40
0.0
 40
0.0
 40
0.0
 40
1.0
 40
1.0
 40
1.0
 40
1.0
 10
66.29063464572886
 20
191.393228
 30
0.0
 10
67.30032964572885
 20
190.981881
 30
0.0
 10
67.35443364572884
 20
190.987455
 30
0.0
 10
67.35443364572884
 20
191.502844
 30
0.0
  0
SPLINE
  5
1341
330
1F
100
AcDbEntity
  8
CALQUE_1
 62
     1
100
AcDbSpline
210
0.0
220
0.0
230
1.0
 70
     8
 71
     3
 72
     8
 73
     4
 74
     0
 42
0.000000001
 43
0.0000000001
 40
0.0
 40
0.0
 40
0.0
 40
0.0
 40
1.0
 40
1.0
 40
1.0
 40
1.0
 10
67.35443364572884
 20
191.502844
 30
0.0
 10
67.35443364572884
 20
191.801493
 30
0.0
 10
67.03653064572884
 20
192.728712
 30
0.0
 10
66.64800264572885
 20
193.563327
 30
0.0
  0
SPLINE
  5
1342
330
1F
100
AcDbEntity
  8
CALQUE_1
 62
     1
100
AcDbSpline
210
0.0
220
0.0
230
1.0
 70
     8
 71
     3
 72
     8
 73
     4
 74
     0
 42
0.000000001
 43
0.0000000001
 40
0.0
 40
0.0
 40
0.0
 40
0.0
 40
1.0
 40
1.0
 40
1.0
 40
1.0
 10
66.64800264572885
 20
193.563327
 30
0.0
 10
65.87219564572885
 20
195.229859
 30
0.0
 10
65.70323664572885
 20
197.521804
 30
0.0
 10
66.26523964572886
 20
198.755304
 30
0.0
  0
SPLINE
  5
1343
330
1F
100
AcDbEntity
  8
CALQUE_1
 62
     1
100
AcDbSpline
210
0.0
220
0.0
230
1.0
 70
     8
 71
     3
 72
     8
 73
     4
 74
     0
 42
0.000000001
 43
0.0000000001
 40
0.0
 40
0.0
 40
0.0
 40
0.0
 40
1.0
 40
1.0
 40
1.0
 40
1.0
 10
66.26523964572886
 20
198.755304
 30
0.0
 10
66.70607764572885
 20
199.722829
 30
0.0
 10
67.52407364572885
 20
199.691499
 30
0.0
 10
67.76837864572886
 20
198.697731
 30
0.0
  0
SPLINE
  5
1344
330
1F
100
AcDbEntity
  8
CALQUE_1
 62
     1
100
AcDbSpline
210
0.0
220
0.0
230
1.0
 70
     8
 71
     3
 72
     8
 73
     4
 74
     0
 42
0.000000001
 43
0.0000000001
 40
0.0
 40
0.0
 40
0.0
 40
0.0
 40
1.0
 40
1.0
 40
1.0
 40
1.0
 10
67.76837864572886
 20
198.697731
 30
0.0
 10
67.87386264572885
 20
198.268664
 30
0.0
 10
68.47834964572886
 20
196.704882
 30
0.0
 10
69.11165864572885
 20
195.222656
 30
0.0
  0
SPLINE
  5
1345
330
1F
100
AcDbEntity
  8
CALQUE_1
 62
     1
100
AcDbSpline
210
0.0
220
0.0
230
1.0
 70
     8
 71
     3
 72
     8
 73
     4
 74
     0
 42
0.000000001
 43
0.0000000001
 40
0.0
 40
0.0
 40
0.0
 40
0.0
 40
1.0
 40
1.0
 40
1.0
 40
1.0
 10
69.11165864572885
 20
195.222656
 30
0.0
 10
70.65149464572884
 20
191.618849
 30
0.0
 10
70.77994464572885
 20
191.113397
 30
0.0
 10
70.41899064572885
 20
190.077967
 30
0.0
  0
SPLINE
  5
1346
330
1F
100
AcDbEntity
  8
CALQUE_1
 62
     1
100
AcDbSpline
210
0.0
220
0.0
230
1.0
 70
     8
 71
     3
 72
     8
 73
     4
 74
     0
 42
0.000000001
 43
0.0000000001
 40
0.0
 40
0.0
 40
0.0
 40
0.0
 40
1.0
 40
1.0
 40
1.0
 40
1.0
 10
70.41899064572885
 20
190.077967
 30
0.0
 10
69.97152564572885
 20
188.794332
 30
0.0
 10
68.28444864572884
 20
188.181879
 30
0.0
 10
66.36155464572884
 20
188.605002
 30
0.0
  0
SPLINE
  5
1377
330
1F
100
AcDbEntity
  8
CALQUE_1
 62
     1
100
AcDbSpline
210
0.0
220
0.0
230
1.0
 70
     8
 71
     3
 72
     8
 73
     4
 74
     0
 42
0.000000001
 43
0.0000000001
 40
0.0
 40
0.0
 40
0.0
 40
0.0
 40
1.0
 40
1.0
 40
1.0
 40
1.0
 10
69.18387164572884
 20
196.773786
 30
0.0
 10
68.60611864572884
 20
198.156525
 30
0.0
 10
68.62903964572885
 20
198.211141
 30
0.0
 10
70.00747364572885
 20
198.737575
 30
0.0
  0
SPLINE
  5
1378
330
1F
100
AcDbEntity
  8
CALQUE_1
 62
     1
100
AcDbSpline
210
0.0
220
0.0
230
1.0
 70
     8
 71
     3
 72
     8
 73
     4
 74
     0
 42
0.000000001
 43
0.0000000001
 40
0.0
 40
0.0
 40
0.0
 40
0.0
 40
1.0
 40
1.0
 40
1.0
 40
1.0
 10
70.00747364572885
 20
198.737575
 30
0.0
 10
70.68653464572886
 20
198.996909
 30
0.0
 10
72.76095864572885
 20
200.457012
 30
0.0
 10
74.61726764572884
 20
201.982248
 30
0.0
  0
SPLINE
  5
1379
330
1F
100
AcDbEntity
  8
CALQUE_1
 62
     1
100
AcDbSpline
210
0.0
220
0.0
230
1.0
 70
     8
 71
     3
 72
     8
 73
     4
 74
     0
 42
0.000000001
 43
0.0000000001
 40
0.0
 40
0.0
 40
0.0
 40
0.0
 40
1.0
 40
1.0
 40
1.0
 40
1.0
 10
74.61726764572884
 20
201.982248
 30
0.0
 10
76.47359864572885
 20
203.507485
 30
0.0
 10
78.43927164572885
 20
205.026721
 30
0.0
 10
78.98543364572884
 20
205.358336
 30
0.0
  0
SPLINE
  5
137A
330
1F
100
AcDbEntity
  8
CALQUE_1
 62
     1
100
AcDbSpline
210
0.0
220
0.0
230
1.0
 70
     8
 71
     3
 72
     8
 73
     4
 74
     0
 42
0.000000001
 43
0.0000000001
 40
0.0
 40
0.0
 40
0.0
 40
0.0
 40
1.0
 40
1.0
 40
1.0
 40
1.0
 10
78.98543364572884
 20
205.358336
 30
0.0
 10
80.12509964572885
 20
206.05031
 30
0.0
 10
83.82693764572884
 20
207.137204
 30
0.0
 10
85.04403664572885
 20
207.137204
 30
0.0
  0
SPLINE
  5
137B
330
1F
100
AcDbEntity
  8
CALQUE_1
 62
     1
100
AcDbSpline
210
0.0
220
0.0
230
1.0
 70
     8
 71
     3
 72
     8
 73
     4
 74
     0
 42
0.000000001
 43
0.0000000001
 40
0.0
 40
0.0
 40
0.0
 40
0.0
 40
1.0
 40
1.0
 40
1.0
 40
1.0
 10
85.04403664572885
 20
207.137204
 30
0.0
 10
85.83405064572884
 20
207.137204
 30
0.0
 10
85.85971764572885
 20
207.095719
 30
0.0
 10
85.70196864572883
 20
206.073406
 30
0.0
  0
SPLINE
  5
137C
330
1F
100
AcDbEntity
  8
CALQUE_1
 62
     1
100
AcDbSpline
210
0.0
220
0.0
230
1.0
 70
     8
 71
     3
 72
     8
 73
     4
 74
     0
 42
0.000000001
 43
0.0000000001
 40
0.0
 40
0.0
 40
0.0
 40
0.0
 40
1.0
 40
1.0
 40
1.0
 40
1.0
 10
85.70196864572883
 20
206.073406
 30
0.0
 10
85.59253664572885
 20
205.364152
 30
0.0
 10
85.67498564572884
 20
204.826084
 30
0.0
 10
85.94938264572885
 20
204.458949
 30
0.0
  0
SPLINE
  5
137D
330
1F
100
AcDbEntity
  8
CALQUE_1
 62
     1
100
AcDbSpline
210
0.0
220
0.0
230
1.0
 70
     8
 71
     3
 72
     8
 73
     4
 74
     0
 42
0.000000001
 43
0.0000000001
 40
0.0
 40
0.0
 40
0.0
 40
0.0
 40
1.0
 40
1.0
 40
1.0
 40
1.0
 10
85.94938264572885
 20
204.458949
 30
0.0
 10
86.62399564572885
 20
203.556371
 30
0.0
 10
86.42750764572886
 20
202.933767
 30
0.0
 10
85.18367464572886
 20
202.03275
 30
0.0
  0
SPLINE
  5
137E
330
1F
100
AcDbEntity
  8
CALQUE_1
 62
     1
100
AcDbSpline
210
0.0
220
0.0
230
1.0
 70
     8
 71
     3
 72
     8
 73
     4
 74
     0
 42
0.000000001
 43
0.0000000001
 40
0.0
 40
0.0
 40
0.0
 40
0.0
 40
1.0
 40
1.0
 40
1.0
 40
1.0
 10
85.18367464572886
 20
202.03275
 30
0.0
 10
83.70804164572884
 20
200.963807
 30
0.0
 10
83.22367564572884
 20
200.963811
 30
0.0
 10
82.61539864572885
 20
202.032764
 30
0.0
  0
SPLINE
  5
137F
330
1F
100
AcDbEntity
  8
CALQUE_1
 62
     1
100
AcDbSpline
210
0.0
220
0.0
230
1.0
 70
     8
 71
     3
 72
     8
 73
     4
 74
     0
 42
0.000000001
 43
0.0000000001
 40
0.0
 40
0.0
 40
0.0
 40
0.0
 40
1.0
 40
1.0
 40
1.0
 40
1.0
 10
82.61539864572885
 20
202.032764
 30
0.0
 10
82.34962464572886
 20
202.49985
 30
0.0
 10
81.96665764572884
 20
202.880762
 30
0.0
 10
81.76435964572885
 20
202.879239
 30
0.0
  0
SPLINE
  5
1380
330
1F
100
AcDbEntity
  8
CALQUE_1
 62
     1
100
AcDbSpline
210
0.0
220
0.0
230
1.0
 70
     8
 71
     3
 72
     8
 73
     4
 74
     0
 42
0.000000001
 43
0.0000000001
 40
0.0
 40
0.0
 40
0.0
 40
0.0
 40
1.0
 40
1.0
 40
1.0
 40
1.0
 10
81.76435964572885
 20
202.879239
 30
0.0
 10
80.88116264572885
 20
202.872567
 30
0.0
 10
78.37810964572884
 20
201.369523
 30
0.0
 10
76.17366964572885
 20
199.522063
 30
0.0
  0
SPLINE
  5
1381
330
1F
100
AcDbEntity
  8
CALQUE_1
 62
     1
100
AcDbSpline
210
0.0
220
0.0
230
1.0
 70
     8
 71
     3
 72
     8
 73
     4
 74
     0
 42
0.000000001
 43
0.0000000001
 40
0.0
 40
0.0
 40
0.0
 40
0.0
 40
1.0
 40
1.0
 40
1.0
 40
1.0
 10
76.17366964572885
 20
199.522063
 30
0.0
 10
73.78665364572885
 20
197.521627
 30
0.0
 10
70.95285264572885
 20
195.790019
 30
0.0
 10
70.06611564572885
 20
195.790019
 30
0.0
  0
SPLINE
  5
1382
330
1F
100
AcDbEntity
  8
CALQUE_1
 62
     1
100
AcDbSpline
210
0.0
220
0.0
230
1.0
 70
     8
 71
     3
 72
     8
 73
     4
 74
     0
 42
0.000000001
 43
0.0000000001
 40
0.0
 40
0.0
 40
0.0
 40
0.0
 40
1.0
 40
1.0
 40
1.0
 40
1.0
 10
70.06611564572885
 20
195.790019
 30
0.0
 10
69.79657464572885
 20
195.790019
 30
0.0
 10
69.41900864572885
 20
196.211029
 30
0.0
 10
69.18387164572884
 20
196.773786
 30
0.0
  0
SPLINE
  5
1390
330
1F
100
AcDbEntity
  8
CALQUE_1
 62
     1
100
AcDbSpline
210
0.0
220
0.0
230
1.0
 70
     8
 71
     3
 72
     8
 73
     4
 74
     0
 42
0.000000001
 43
0.0000000001
 40
0.0
 40
0.0
 40
0.0
 40
0.0
 40
1.0
 40
1.0
 40
1.0
 40
1.0
 10
129.2898416457288
 20
200.45875
 30
0.0
 10
128.7950596457288
 20
200.673982
 30
0.0
 10
128.2525046457288
 20
201.10739
 30
0.0
 10
128.0842036457288
 20
201.421877
 30
0.0
  0
SPLINE
  5
1391
330
1F
100
AcDbEntity
  8
CALQUE_1
 62
     1
100
AcDbSpline
210
0.0
220
0.0
230
1.0
 70
     8
 71
     3
 72
     8
 73
     4
 74
     0
 42
0.000000001
 43
0.0000000001
 40
0.0
 40
0.0
 40
0.0
 40
0.0
 40
1.0
 40
1.0
 40
1.0
 40
1.0
 10
128.0842036457288
 20
201.421877
 30
0.0
 10
127.3802016457288
 20
202.737311
 30
0.0
 10
127.9344436457288
 20
205.206208
 30
0.0
 10
129.4564866457288
 20
207.53481
 30
0.0
  0
SPLINE
  5
1392
330
1F
100
AcDbEntity
  8
CALQUE_1
 62
     1
100
AcDbSpline
210
0.0
220
0.0
230
1.0
 70
     8
 71
     3
 72
     8
 73
     4
 74
     0
 42
0.000000001
 43
0.0000000001
 40
0.0
 40
0.0
 40
0.0
 40
0.0
 40
1.0
 40
1.0
 40
1.0
 40
1.0
 10
129.4564866457288
 20
207.53481
 30
0.0
 10
130.1453746457288
 20
208.588738
 30
0.0
 10
130.1549736457288
 20
208.656501
 30
0.0
 10
129.6575366457288
 20
208.953208
 30
0.0
  0
SPLINE
  5
1393
330
1F
100
AcDbEntity
  8
CALQUE_1
 62
     1
100
AcDbSpline
210
0.0
220
0.0
230
1.0
 70
     8
 71
     3
 72
     8
 73
     4
 74
     0
 42
0.000000001
 43
0.0000000001
 40
0.0
 40
0.0
 40
0.0
 40
0.0
 40
1.0
 40
1.0
 40
1.0
 40
1.0
 10
129.6575366457288
 20
208.953208
 30
0.0
 10
127.6458846457288
 20
210.153059
 30
0.0
 10
127.2899456457288
 20
211.007243
 30
0.0
 10
128.4774066457289
 20
211.785292
 30
0.0
  0
SPLINE
  5
1394
330
1F
100
AcDbEntity
  8
CALQUE_1
 62
     1
100
AcDbSpline
210
0.0
220
0.0
230
1.0
 70
     8
 71
     3
 72
     8
 73
     4
 74
     0
 42
0.000000001
 43
0.0000000001
 40
0.0
 40
0.0
 40
0.0
 40
0.0
 40
1.0
 40
1.0
 40
1.0
 40
1.0
 10
128.4774066457289
 20
211.785292
 30
0.0
 10
129.3454206457288
 20
212.354041
 30
0.0
 10
130.3987346457288
 20
212.369834
 30
0.0
 10
131.4431296457288
 20
211.829753
 30
0.0
  0
SPLINE
  5
1395
330
1F
100
AcDbEntity
  8
CALQUE_1
 62
     1
100
AcDbSpline
210
0.0
220
0.0
230
1.0
 70
     8
 71
     3
 72
     8
 73
     4
 74
     0
 42
0.000000001
 43
0.0000000001
 40
0.0
 40
0.0
 40
0.0
 40
0.0
 40
1.0
 40
1.0
 40
1.0
 40
1.0
 10
131.4431296457288
 20
211.829753
 30
0.0
 10
131.9617636457288
 20
211.56156
 30
0.0
 10
132.6205356457288
 20
211.477314
 30
0.0
 10
133.3162316457288
 20
211.590214
 30
0.0
  0
SPLINE
  5
1397
330
1F
100
AcDbEntity
  8
CALQUE_1
 62
     1
100
AcDbSpline
210
0.0
220
0.0
230
1.0
 70
     8
 71
     3
 72
     8
 73
     4
 74
     0
 42
0.000000001
 43
0.0000000001
 40
0.0
 40
0.0
 40
0.0
 40
0.0
 40
1.0
 40
1.0
 40
1.0
 40
1.0
 10
134.2370556457288
 20
210.65642
 30
0.0
 10
134.1532906457288
 20
210.047054
 30
0.0
 10
133.3678836457288
 20
208.310605
 30
0.0
 10
132.4917226457288
 20
206.797642
 30
0.0
  0
SPLINE
  5
1398
330
1F
100
AcDbEntity
  8
CALQUE_1
 62
     1
100
AcDbSpline
210
0.0
220
0.0
230
1.0
 70
     8
 71
     3
 72
     8
 73
     4
 74
     0
 42
0.000000001
 43
0.0000000001
 40
0.0
 40
0.0
 40
0.0
 40
0.0
 40
1.0
 40
1.0
 40
1.0
 40
1.0
 10
132.4917226457288
 20
206.797642
 30
0.0
 10
130.8230056457288
 20
203.91617
 30
0.0
 10
130.6205716457288
 20
203.254601
 30
0.0
 10
131.3248236457288
 20
202.984352
 30
0.0
  0
SPLINE
  5
1399
330
1F
100
AcDbEntity
  8
CALQUE_1
 62
     1
100
AcDbSpline
210
0.0
220
0.0
230
1.0
 70
     8
 71
     3
 72
     8
 73
     4
 74
     0
 42
0.000000001
 43
0.0000000001
 40
0.0
 40
0.0
 40
0.0
 40
0.0
 40
1.0
 40
1.0
 40
1.0
 40
1.0
 10
131.3248236457288
 20
202.984352
 30
0.0
 10
132.0537666457288
 20
202.704628
 30
0.0
 10
132.9562536457288
 20
203.096224
 30
0.0
 10
134.9592816457288
 20
204.56138
 30
0.0
  0
SPLINE
  5
139A
330
1F
100
AcDbEntity
  8
CALQUE_1
 62
     1
100
AcDbSpline
210
0.0
220
0.0
230
1.0
 70
     8
 71
     3
 72
     8
 73
     4
 74
     0
 42
0.000000001
 43
0.0000000001
 40
0.0
 40
0.0
 40
0.0
 40
0.0
 40
1.0
 40
1.0
 40
1.0
 40
1.0
 10
134.9592816457288
 20
204.56138
 30
0.0
 10
137.0227896457288
 20
206.070773
 30
0.0
 10
139.4603916457288
 20
207.137204
 30
0.0
 10
140.8469956457288
 20
207.137204
 30
0.0
  0
SPLINE
  5
139B
330
1F
100
AcDbEntity
  8
CALQUE_1
 62
     1
100
AcDbSpline
210
0.0
220
0.0
230
1.0
 70
     8
 71
     3
 72
     8
 73
     4
 74
     0
 42
0.000000001
 43
0.0000000001
 40
0.0
 40
0.0
 40
0.0
 40
0.0
 40
1.0
 40
1.0
 40
1.0
 40
1.0
 10
140.8469956457288
 20
207.137204
 30
0.0
 10
141.7664576457288
 20
207.137204
 30
0.0
 10
142.2196866457288
 20
206.512746
 30
0.0
 10
141.7291706457288
 20
205.921725
 30
0.0
  0
SPLINE
  5
139C
330
1F
100
AcDbEntity
  8
CALQUE_1
 62
     1
100
AcDbSpline
210
0.0
220
0.0
230
1.0
 70
     8
 71
     3
 72
     8
 73
     4
 74
     0
 42
0.000000001
 43
0.0000000001
 40
0.0
 40
0.0
 40
0.0
 40
0.0
 40
1.0
 40
1.0
 40
1.0
 40
1.0
 10
141.7291706457288
 20
205.921725
 30
0.0
 10
141.5661346457288
 20
205.725256
 30
0.0
 10
142.9105036457288
 20
206.057778
 30
0.0
 10
144.7166576457288
 20
206.660663
 30
0.0
  0
SPLINE
  5
139D
330
1F
100
AcDbEntity
  8
CALQUE_1
 62
     1
100
AcDbSpline
210
0.0
220
0.0
230
1.0
 70
     8
 71
     3
 72
     8
 73
     4
 74
     0
 42
0.000000001
 43
0.0000000001
 40
0.0
 40
0.0
 40
0.0
 40
0.0
 40
1.0
 40
1.0
 40
1.0
 40
1.0
 10
144.7166576457288
 20
206.660663
 30
0.0
 10
148.8550896457288
 20
208.042031
 30
0.0
 10
149.7756636457288
 20
207.970528
 30
0.0
 10
152.0866316457288
 20
206.08822
 30
0.0
  0
SPLINE
  5
139E
330
1F
100
AcDbEntity
  8
CALQUE_1
 62
     1
100
AcDbSpline
210
0.0
220
0.0
230
1.0
 70
     8
 71
     3
 72
     8
 73
     4
 74
     0
 42
0.000000001
 43
0.0000000001
 40
0.0
 40
0.0
 40
0.0
 40
0.0
 40
1.0
 40
1.0
 40
1.0
 40
1.0
 10
152.0866316457288
 20
206.08822
 30
0.0
 10
154.8923586457288
 20
203.802918
 30
0.0
 10
158.0200746457288
 20
202.473718
 30
0.0
 10
159.1300786457288
 20
203.094915
 30
0.0
  0
SPLINE
  5
139F
330
1F
100
AcDbEntity
  8
CALQUE_1
 62
     1
100
AcDbSpline
210
0.0
220
0.0
230
1.0
 70
     8
 71
     3
 72
     8
 73
     4
 74
     0
 42
0.000000001
 43
0.0000000001
 40
0.0
 40
0.0
 40
0.0
 40
0.0
 40
1.0
 40
1.0
 40
1.0
 40
1.0
 10
159.1300786457288
 20
203.094915
 30
0.0
 10
159.5295446457288
 20
203.318463
 30
0.0
 10
159.1852036457288
 20
203.720621
 30
0.0
 10
157.0252666457288
 20
205.553135
 30
0.0
  0
SPLINE
  5
13A0
330
1F
100
AcDbEntity
  8
CALQUE_1
 62
     1
100
AcDbSpline
210
0.0
220
0.0
230
1.0
 70
     8
 71
     3
 72
     8
 73
     4
 74
     0
 42
0.000000001
 43
0.0000000001
 40
0.0
 40
0.0
 40
0.0
 40
0.0
 40
1.0
 40
1.0
 40
1.0
 40
1.0
 10
157.0252666457288
 20
205.553135
 30
0.0
 10
154.2675606457288
 20
207.892836
 30
0.0
 10
153.7479276457288
 20
208.553998
 30
0.0
 10
154.0122716457288
 20
209.386849
 30
0.0
  0
SPLINE
  5
13A1
330
1F
100
AcDbEntity
  8
CALQUE_1
 62
     1
100
AcDbSpline
210
0.0
220
0.0
230
1.0
 70
     8
 71
     3
 72
     8
 73
     4
 74
     0
 42
0.000000001
 43
0.0000000001
 40
0.0
 40
0.0
 40
0.0
 40
0.0
 40
1.0
 40
1.0
 40
1.0
 40
1.0
 10
154.0122716457288
 20
209.386849
 30
0.0
 10
154.3387526457288
 20
210.415497
 30
0.0
 10
155.5698086457288
 20
210.619771
 30
0.0
 10
160.1156726457288
 20
210.399617
 30
0.0
  0
SPLINE
  5
13A2
330
1F
100
AcDbEntity
  8
CALQUE_1
 62
     1
100
AcDbSpline
210
0.0
220
0.0
230
1.0
 70
     8
 71
     3
 72
     8
 73
     4
 74
     0
 42
0.000000001
 43
0.0000000001
 40
0.0
 40
0.0
 40
0.0
 40
0.0
 40
1.0
 40
1.0
 40
1.0
 40
1.0
 10
160.1156726457288
 20
210.399617
 30
0.0
 10
164.7260106457288
 20
210.176339
 30
0.0
 10
165.5026346457288
 20
210.341493
 30
0.0
 10
164.9242686457288
 20
211.422187
 30
0.0
  0
SPLINE
  5
13A3
330
1F
100
AcDbEntity
  8
CALQUE_1
 62
     1
100
AcDbSpline
210
0.0
220
0.0
230
1.0
 70
     8
 71
     3
 72
     8
 73
     4
 74
     0
 42
0.000000001
 43
0.0000000001
 40
0.0
 40
0.0
 40
0.0
 40
0.0
 40
1.0
 40
1.0
 40
1.0
 40
1.0
 10
164.9242686457288
 20
211.422187
 30
0.0
 10
164.4600326457288
 20
212.289616
 30
0.0
 10
163.3211386457288
 20
212.88119
 30
0.0
 10
160.8630886457288
 20
213.531636
 30
0.0
  0
SPLINE
  5
13A5
330
1F
100
AcDbEntity
  8
CALQUE_1
 62
     1
100
AcDbSpline
210
0.0
220
0.0
230
1.0
 70
     8
 71
     3
 72
     8
 73
     4
 74
     0
 42
0.000000001
 43
0.0000000001
 40
0.0
 40
0.0
 40
0.0
 40
0.0
 40
1.0
 40
1.0
 40
1.0
 40
1.0
 10
158.5574316457288
 20
215.532957
 30
0.0
 10
158.5574316457288
 20
216.897585
 30
0.0
 10
158.5730906457288
 20
216.922476
 30
0.0
 10
159.3759496457288
 20
216.836474
 30
0.0
  0
SPLINE
  5
13A6
330
1F
100
AcDbEntity
  8
CALQUE_1
 62
     1
100
AcDbSpline
210
0.0
220
0.0
230
1.0
 70
     8
 71
     3
 72
     8
 73
     4
 74
     0
 42
0.000000001
 43
0.0000000001
 40
0.0
 40
0.0
 40
0.0
 40
0.0
 40
1.0
 40
1.0
 40
1.0
 40
1.0
 10
159.3759496457288
 20
216.836474
 30
0.0
 10
160.9862056457288
 20
216.663992
 30
0.0
 10
164.5867806457288
 20
215.352775
 30
0.0
 10
165.7358196457288
 20
214.520425
 30
0.0
  0
SPLINE
  5
13A7
330
1F
100
AcDbEntity
  8
CALQUE_1
 62
     1
100
AcDbSpline
210
0.0
220
0.0
230
1.0
 70
     8
 71
     3
 72
     8
 73
     4
 74
     0
 42
0.000000001
 43
0.0000000001
 40
0.0
 40
0.0
 40
0.0
 40
0.0
 40
1.0
 40
1.0
 40
1.0
 40
1.0
 10
165.7358196457288
 20
214.520425
 30
0.0
 10
167.1881236457288
 20
213.468386
 30
0.0
 10
167.8703836457288
 20
212.191717
 30
0.0
 10
167.8458966457288
 20
210.572024
 30
0.0
  0
SPLINE
  5
13A8
330
1F
100
AcDbEntity
  8
CALQUE_1
 62
     1
100
AcDbSpline
210
0.0
220
0.0
230
1.0
 70
     8
 71
     3
 72
     8
 73
     4
 74
     0
 42
0.000000001
 43
0.0000000001
 40
0.0
 40
0.0
 40
0.0
 40
0.0
 40
1.0
 40
1.0
 40
1.0
 40
1.0
 10
167.8458966457288
 20
210.572024
 30
0.0
 10
167.8306916457288
 20
209.568034
 30
0.0
 10
167.6549916457288
 20
209.154382
 30
0.0
 10
166.9419796457288
 20
208.444239
 30
0.0
  0
SPLINE
  5
13AA
330
1F
100
AcDbEntity
  8
CALQUE_1
 62
     1
100
AcDbSpline
210
0.0
220
0.0
230
1.0
 70
     8
 71
     3
 72
     8
 73
     4
 74
     0
 42
0.000000001
 43
0.0000000001
 40
0.0
 40
0.0
 40
0.0
 40
0.0
 40
1.0
 40
1.0
 40
1.0
 40
1.0
 10
159.9162796457288
 20
206.713006
 30
0.0
 10
161.5529066457288
 20
205.463345
 30
0.0
 10
162.1034266457288
 20
204.567496
 30
0.0
 10
162.1034266457288
 20
203.153848
 30
0.0
  0
SPLINE
  5
13AB
330
1F
100
AcDbEntity
  8
CALQUE_1
 62
     1
100
AcDbSpline
210
0.0
220
0.0
230
1.0
 70
     8
 71
     3
 72
     8
 73
     4
 74
     0
 42
0.000000001
 43
0.0000000001
 40
0.0
 40
0.0
 40
0.0
 40
0.0
 40
1.0
 40
1.0
 40
1.0
 40
1.0
 10
162.1034266457288
 20
203.153848
 30
0.0
 10
162.1034266457288
 20
202.231598
 30
0.0
 10
161.9221666457288
 20
201.806074
 30
0.0
 10
161.2378406457288
 20
201.121737
 30
0.0
  0
SPLINE
  5
13AC
330
1F
100
AcDbEntity
  8
CALQUE_1
 62
     1
100
AcDbSpline
210
0.0
220
0.0
230
1.0
 70
     8
 71
     3
 72
     8
 73
     4
 74
     0
 42
0.000000001
 43
0.0000000001
 40
0.0
 40
0.0
 40
0.0
 40
0.0
 40
1.0
 40
1.0
 40
1.0
 40
1.0
 10
161.2378406457288
 20
201.121737
 30
0.0
 10
160.3978086457289
 20
200.281714
 30
0.0
 10
160.3119336457288
 20
200.260383
 30
0.0
 10
158.3301246457288
 20
200.399588
 30
0.0
  0
SPLINE
  5
13AD
330
1F
100
AcDbEntity
  8
CALQUE_1
 62
     1
100
AcDbSpline
210
0.0
220
0.0
230
1.0
 70
     8
 71
     3
 72
     8
 73
     4
 74
     0
 42
0.000000001
 43
0.0000000001
 40
0.0
 40
0.0
 40
0.0
 40
0.0
 40
1.0
 40
1.0
 40
1.0
 40
1.0
 10
158.3301246457288
 20
200.399588
 30
0.0
 10
156.0649546457288
 20
200.558696
 30
0.0
 10
154.1359556457289
 20
201.323086
 30
0.0
 10
150.3781316457289
 20
203.550665
 30
0.0
  0
SPLINE
  5
13AF
330
1F
100
AcDbEntity
  8
CALQUE_1
 62
     1
100
AcDbSpline
210
0.0
220
0.0
230
1.0
 70
     8
 71
     3
 72
     8
 73
     4
 74
     0
 42
0.000000001
 43
0.0000000001
 40
0.0
 40
0.0
 40
0.0
 40
0.0
 40
1.0
 40
1.0
 40
1.0
 40
1.0
 10
145.9338246457288
 20
204.300447
 30
0.0
 10
143.5395686457288
 20
203.689135
 30
0.0
 10
140.6906306457288
 20
203.549612
 30
0.0
 10
140.3942426457288
 20
204.029154
 30
0.0
  0
SPLINE
  5
13B0
330
1F
100
AcDbEntity
  8
CALQUE_1
 62
     1
100
AcDbSpline
210
0.0
220
0.0
230
1.0
 70
     8
 71
     3
 72
     8
 73
     4
 74
     0
 42
0.000000001
 43
0.0000000001
 40
0.0
 40
0.0
 40
0.0
 40
0.0
 40
1.0
 40
1.0
 40
1.0
 40
1.0
 10
140.3942426457288
 20
204.029154
 30
0.0
 10
140.2935926457288
 20
204.192013
 30
0.0
 10
140.3817606457288
 20
204.540619
 30
0.0
 10
140.5902766457288
 20
204.803837
 30
0.0
  0
SPLINE
  5
13B1
330
1F
100
AcDbEntity
  8
CALQUE_1
 62
     1
100
AcDbSpline
210
0.0
220
0.0
230
1.0
 70
     8
 71
     3
 72
     8
 73
     4
 74
     0
 42
0.000000001
 43
0.0000000001
 40
0.0
 40
0.0
 40
0.0
 40
0.0
 40
1.0
 40
1.0
 40
1.0
 40
1.0
 10
140.5902766457288
 20
204.803837
 30
0.0
 10
140.7987246457288
 20
205.067056
 30
0.0
 10
140.4586716457288
 20
204.886483
 30
0.0
 10
139.8345766457288
 20
204.402569
 30
0.0
  0
SPLINE
  5
13B2
330
1F
100
AcDbEntity
  8
CALQUE_1
 62
     1
100
AcDbSpline
210
0.0
220
0.0
230
1.0
 70
     8
 71
     3
 72
     8
 73
     4
 74
     0
 42
0.000000001
 43
0.0000000001
 40
0.0
 40
0.0
 40
0.0
 40
0.0
 40
1.0
 40
1.0
 40
1.0
 40
1.0
 10
139.8345766457288
 20
204.402569
 30
0.0
 10
138.2916776457288
 20
203.206233
 30
0.0
 10
134.9970906457288
 20
201.214307
 30
0.0
 10
133.4991706457288
 20
200.572152
 30
0.0
  0
SPLINE
  5
13B3
330
1F
100
AcDbEntity
  8
CALQUE_1
 62
     1
100
AcDbSpline
210
0.0
220
0.0
230
1.0
 70
     8
 71
     3
 72
     8
 73
     4
 74
     0
 42
0.000000001
 43
0.0000000001
 40
0.0
 40
0.0
 40
0.0
 40
0.0
 40
1.0
 40
1.0
 40
1.0
 40
1.0
 10
133.4991706457288
 20
200.572152
 30
0.0
 10
132.0556726457288
 20
199.953322
 30
0.0
 10
130.5453176457288
 20
199.912633
 30
0.0
 10
129.2898416457288
 20
200.45875
 30
0.0
  0
SPLINE
  5
142C
330
1F
100
AcDbEntity
  8
CALQUE_1
 62
     1
100
AcDbSpline
210
0.0
220
0.0
230
1.0
 70
     8
 71
     3
 72
     8
 73
     4
 74
     0
 42
0.000000001
 43
0.0000000001
 40
0.0
 40
0.0
 40
0.0
 40
0.0
 40
1.0
 40
1.0
 40
1.0
 40
1.0
 10
62.46095964572885
 20
209.852576
 30
0.0
 10
61.51201764572885
 20
210.367387
 30
0.0
 10
61.46143164572884
 20
210.91768
 30
0.0
 10
62.32681364572886
 20
211.311972
 30
0.0
  0
SPLINE
  5
142D
330
1F
100
AcDbEntity
  8
CALQUE_1
 62
     1
100
AcDbSpline
210
0.0
220
0.0
230
1.0
 70
     8
 71
     3
 72
     8
 73
     4
 74
     0
 42
0.000000001
 43
0.0000000001
 40
0.0
 40
0.0
 40
0.0
 40
0.0
 40
1.0
 40
1.0
 40
1.0
 40
1.0
 10
62.32681364572886
 20
211.311972
 30
0.0
 10
63.67288464572885
 20
211.925287
 30
0.0
 10
64.95280164572886
 20
213.326615
 30
0.0
 10
68.46377964572885
 20
218.031126
 30
0.0
  0
SPLINE
  5
142E
330
1F
100
AcDbEntity
  8
CALQUE_1
 62
     1
100
AcDbSpline
210
0.0
220
0.0
230
1.0
 70
     8
 71
     3
 72
     8
 73
     4
 74
     0
 42
0.000000001
 43
0.0000000001
 40
0.0
 40
0.0
 40
0.0
 40
0.0
 40
1.0
 40
1.0
 40
1.0
 40
1.0
 10
68.46377964572885
 20
218.031126
 30
0.0
 10
73.51216464572885
 20
224.795646
 30
0.0
 10
75.09970364572885
 20
226.124295
 30
0.0
 10
77.67290564572885
 20
225.73842
 30
0.0
  0
SPLINE
  5
142F
330
1F
100
AcDbEntity
  8
CALQUE_1
 62
     1
100
AcDbSpline
210
0.0
220
0.0
230
1.0
 70
     8
 71
     3
 72
     8
 73
     4
 74
     0
 42
0.000000001
 43
0.0000000001
 40
0.0
 40
0.0
 40
0.0
 40
0.0
 40
1.0
 40
1.0
 40
1.0
 40
1.0
 10
77.67290564572885
 20
225.73842
 30
0.0
 10
78.39100064572885
 20
225.630735
 30
0.0
 10
79.18843564572885
 20
225.33271
 30
0.0
 10
79.44501764572883
 20
225.076139
 30
0.0
  0
SPLINE
  5
1430
330
1F
100
AcDbEntity
  8
CALQUE_1
 62
     1
100
AcDbSpline
210
0.0
220
0.0
230
1.0
 70
     8
 71
     3
 72
     8
 73
     4
 74
     0
 42
0.000000001
 43
0.0000000001
 40
0.0
 40
0.0
 40
0.0
 40
0.0
 40
1.0
 40
1.0
 40
1.0
 40
1.0
 10
79.44501764572883
 20
225.076139
 30
0.0
 10
79.87789064572885
 20
224.643267
 30
0.0
 10
79.82641964572884
 20
224.573506
 30
0.0
 10
78.73089364572884
 20
224.10824
 30
0.0
  0
SPLINE
  5
1431
330
1F
100
AcDbEntity
  8
CALQUE_1
 62
     1
100
AcDbSpline
210
0.0
220
0.0
230
1.0
 70
     8
 71
     3
 72
     8
 73
     4
 74
     0
 42
0.000000001
 43
0.0000000001
 40
0.0
 40
0.0
 40
0.0
 40
0.0
 40
1.0
 40
1.0
 40
1.0
 40
1.0
 10
78.73089364572884
 20
224.10824
 30
0.0
 10
76.75677864572886
 20
223.269826
 30
0.0
 10
75.65013364572884
 20
222.221081
 30
0.0
 10
72.96854364572884
 20
218.647267
 30
0.0
  0
SPLINE
  5
1432
330
1F
100
AcDbEntity
  8
CALQUE_1
 62
     1
100
AcDbSpline
210
0.0
220
0.0
230
1.0
 70
     8
 71
     3
 72
     8
 73
     4
 74
     0
 42
0.000000001
 43
0.0000000001
 40
0.0
 40
0.0
 40
0.0
 40
0.0
 40
1.0
 40
1.0
 40
1.0
 40
1.0
 10
72.96854364572884
 20
218.647267
 30
0.0
 10
68.98611364572885
 20
213.339827
 30
0.0
 10
67.60958664572886
 20
211.706518
 30
0.0
 10
66.11173464572885
 20
210.511374
 30
0.0
  0
SPLINE
  5
1433
330
1F
100
AcDbEntity
  8
CALQUE_1
 62
     1
100
AcDbSpline
210
0.0
220
0.0
230
1.0
 70
     8
 71
     3
 72
     8
 73
     4
 74
     0
 42
0.000000001
 43
0.0000000001
 40
0.0
 40
0.0
 40
0.0
 40
0.0
 40
1.0
 40
1.0
 40
1.0
 40
1.0
 10
66.11173464572885
 20
210.511374
 30
0.0
 10
64.61481464572885
 20
209.316962
 30
0.0
 10
63.73942464572885
 20
209.158998
 30
0.0
 10
62.46095964572885
 20
209.852576
 30
0.0
  0
SPLINE
  5
143D
330
1F
100
AcDbEntity
  8
CALQUE_1
 62
     1
100
AcDbSpline
210
0.0
220
0.0
230
1.0
 70
     8
 71
     3
 72
     8
 73
     4
 74
     0
 42
0.000000001
 43
0.0000000001
 40
0.0
 40
0.0
 40
0.0
 40
0.0
 40
1.0
 40
1.0
 40
1.0
 40
1.0
 10
59.27893664572884
 20
212.795639
 30
0.0
 10
59.07711564572885
 20
213.122177
 30
0.0
 10
59.85022264572885
 20
218.542541
 30
0.0
 10
60.43421664572885
 20
220.895666
 30
0.0
  0
SPLINE
  5
143E
330
1F
100
AcDbEntity
  8
CALQUE_1
 62
     1
100
AcDbSpline
210
0.0
220
0.0
230
1.0
 70
     8
 71
     3
 72
     8
 73
     4
 74
     0
 42
0.000000001
 43
0.0000000001
 40
0.0
 40
0.0
 40
0.0
 40
0.0
 40
1.0
 40
1.0
 40
1.0
 40
1.0
 10
60.43421664572885
 20
220.895666
 30
0.0
 10
62.85348164572885
 20
230.643581
 30
0.0
 10
67.85886164572885
 20
239.069338
 30
0.0
 10
74.79112864572886
 20
245.063187
 30
0.0
  0
SPLINE
  5
143F
330
1F
100
AcDbEntity
  8
CALQUE_1
 62
     1
100
AcDbSpline
210
0.0
220
0.0
230
1.0
 70
     8
 71
     3
 72
     8
 73
     4
 74
     0
 42
0.000000001
 43
0.0000000001
 40
0.0
 40
0.0
 40
0.0
 40
0.0
 40
1.0
 40
1.0
 40
1.0
 40
1.0
 10
74.79112864572886
 20
245.063187
 30
0.0
 10
76.54991964572885
 20
246.583891
 30
0.0
 10
77.85057964572884
 20
247.279412
 30
0.0
 10
77.85057964572884
 20
246.69921
 30
0.0
  0
SPLINE
  5
1440
330
1F
100
AcDbEntity
  8
CALQUE_1
 62
     1
100
AcDbSpline
210
0.0
220
0.0
230
1.0
 70
     8
 71
     3
 72
     8
 73
     4
 74
     0
 42
0.000000001
 43
0.0000000001
 40
0.0
 40
0.0
 40
0.0
 40
0.0
 40
1.0
 40
1.0
 40
1.0
 40
1.0
 10
77.85057964572884
 20
246.69921
 30
0.0
 10
77.85057964572884
 20
246.272127
 30
0.0
 10
76.44974664572885
 20
243.876913
 30
0.0
 10
74.86570264572886
 20
241.595455
 30
0.0
  0
SPLINE
  5
1441
330
1F
100
AcDbEntity
  8
CALQUE_1
 62
     1
100
AcDbSpline
210
0.0
220
0.0
230
1.0
 70
     8
 71
     3
 72
     8
 73
     4
 74
     0
 42
0.000000001
 43
0.0000000001
 40
0.0
 40
0.0
 40
0.0
 40
0.0
 40
1.0
 40
1.0
 40
1.0
 40
1.0
 10
74.86570264572886
 20
241.595455
 30
0.0
 10
71.73626264572885
 20
237.088279
 30
0.0
 10
71.37201764572885
 20
233.676373
 30
0.0
 10
73.51096164572886
 20
228.905199
 30
0.0
  0
SPLINE
  5
1443
330
1F
100
AcDbEntity
  8
CALQUE_1
 62
     1
100
AcDbSpline
210
0.0
220
0.0
230
1.0
 70
     8
 71
     3
 72
     8
 73
     4
 74
     0
 42
0.000000001
 43
0.0000000001
 40
0.0
 40
0.0
 40
0.0
 40
0.0
 40
1.0
 40
1.0
 40
1.0
 40
1.0
 10
72.56174764572884
 20
225.501043
 30
0.0
 10
71.63640664572884
 20
224.5283220000001
 30
0.0
 10
69.80980564572885
 20
222.216993
 30
0.0
 10
68.50263264572885
 20
220.364756
 30
0.0
  0
SPLINE
  5
1444
330
1F
100
AcDbEntity
  8
CALQUE_1
 62
     1
100
AcDbSpline
210
0.0
220
0.0
230
1.0
 70
     8
 71
     3
 72
     8
 73
     4
 74
     0
 42
0.000000001
 43
0.0000000001
 40
0.0
 40
0.0
 40
0.0
 40
0.0
 40
1.0
 40
1.0
 40
1.0
 40
1.0
 10
68.50263264572885
 20
220.364756
 30
0.0
 10
65.55592764572884
 20
216.189355
 30
0.0
 10
63.43763464572885
 20
213.876261
 30
0.0
 10
61.86203264572885
 20
213.1135299999999
 30
0.0
  0
SPLINE
  5
1445
330
1F
100
AcDbEntity
  8
CALQUE_1
 62
     1
100
AcDbSpline
210
0.0
220
0.0
230
1.0
 70
     8
 71
     3
 72
     8
 73
     4
 74
     0
 42
0.000000001
 43
0.0000000001
 40
0.0
 40
0.0
 40
0.0
 40
0.0
 40
1.0
 40
1.0
 40
1.0
 40
1.0
 10
61.86203264572885
 20
213.1135299999999
 30
0.0
 10
60.56507264572885
 20
212.485682
 30
0.0
 10
59.54786564572885
 20
212.360499
 30
0.0
 10
59.27893664572884
 20
212.795639
 30
0.0
  0
SPLINE
  5
1450
330
1F
100
AcDbEntity
  8
CALQUE_1
 62
     1
100
AcDbSpline
210
0.0
220
0.0
230
1.0
 70
     8
 71
     3
 72
     8
 73
     4
 74
     0
 42
0.000000001
 43
0.0000000001
 40
0.0
 40
0.0
 40
0.0
 40
0.0
 40
1.0
 40
1.0
 40
1.0
 40
1.0
 10
152.7519846457288
 20
214.777904
 30
0.0
 10
151.7800076457288
 20
216.59405
 30
0.0
 10
153.0307396457288
 20
218.641877
 30
0.0
 10
157.2395246457288
 20
222.125353
 30
0.0
  0
SPLINE
  5
1451
330
1F
100
AcDbEntity
  8
CALQUE_1
 62
     1
100
AcDbSpline
210
0.0
220
0.0
230
1.0
 70
     8
 71
     3
 72
     8
 73
     4
 74
     0
 42
0.000000001
 43
0.0000000001
 40
0.0
 40
0.0
 40
0.0
 40
0.0
 40
1.0
 40
1.0
 40
1.0
 40
1.0
 10
157.2395246457288
 20
222.125353
 30
0.0
 10
158.9785256457289
 20
223.564673
 30
0.0
 10
160.4013496457288
 20
224.852484
 30
0.0
 10
160.4013496457288
 20
224.987147
 30
0.0
  0
SPLINE
  5
1452
330
1F
100
AcDbEntity
  8
CALQUE_1
 62
     1
100
AcDbSpline
210
0.0
220
0.0
230
1.0
 70
     8
 71
     3
 72
     8
 73
     4
 74
     0
 42
0.000000001
 43
0.0000000001
 40
0.0
 40
0.0
 40
0.0
 40
0.0
 40
1.0
 40
1.0
 40
1.0
 40
1.0
 10
160.4013496457288
 20
224.987147
 30
0.0
 10
160.4013496457288
 20
225.288719
 30
0.0
 10
159.6920366457288
 20
225.57638
 30
0.0
 10
158.9484326457288
 20
225.57638
 30
0.0
  0
SPLINE
  5
1453
330
1F
100
AcDbEntity
  8
CALQUE_1
 62
     1
100
AcDbSpline
210
0.0
220
0.0
230
1.0
 70
     8
 71
     3
 72
     8
 73
     4
 74
     0
 42
0.000000001
 43
0.0000000001
 40
0.0
 40
0.0
 40
0.0
 40
0.0
 40
1.0
 40
1.0
 40
1.0
 40
1.0
 10
158.9484326457288
 20
225.57638
 30
0.0
 10
158.0332146457288
 20
225.57638
 30
0.0
 10
156.1623136457288
 20
224.497501
 30
0.0
 10
153.2827606457288
 20
222.309187
 30
0.0
  0
SPLINE
  5
1454
330
1F
100
AcDbEntity
  8
CALQUE_1
 62
     1
100
AcDbSpline
210
0.0
220
0.0
230
1.0
 70
     8
 71
     3
 72
     8
 73
     4
 74
     0
 42
0.000000001
 43
0.0000000001
 40
0.0
 40
0.0
 40
0.0
 40
0.0
 40
1.0
 40
1.0
 40
1.0
 40
1.0
 10
153.2827606457288
 20
222.309187
 30
0.0
 10
150.1356646457288
 20
219.91755
 30
0.0
 10
148.4222166457288
 20
218.987396
 30
0.0
 10
146.0143216457288
 20
218.363444
 30
0.0
  0
SPLINE
  5
1455
330
1F
100
AcDbEntity
  8
CALQUE_1
 62
     1
100
AcDbSpline
210
0.0
220
0.0
230
1.0
 70
     8
 71
     3
 72
     8
 73
     4
 74
     0
 42
0.000000001
 43
0.0000000001
 40
0.0
 40
0.0
 40
0.0
 40
0.0
 40
1.0
 40
1.0
 40
1.0
 40
1.0
 10
146.0143216457288
 20
218.363444
 30
0.0
 10
144.0274066457288
 20
217.848586
 30
0.0
 10
142.5986376457288
 20
217.796945
 30
0.0
 10
141.5344756457288
 20
218.201535
 30
0.0
  0
SPLINE
  5
1456
330
1F
100
AcDbEntity
  8
CALQUE_1
 62
     1
100
AcDbSpline
210
0.0
220
0.0
230
1.0
 70
     8
 71
     3
 72
     8
 73
     4
 74
     0
 42
0.000000001
 43
0.0000000001
 40
0.0
 40
0.0
 40
0.0
 40
0.0
 40
1.0
 40
1.0
 40
1.0
 40
1.0
 10
141.5344756457288
 20
218.201535
 30
0.0
 10
140.2892806457288
 20
218.674954
 30
0.0
 10
140.7925516457288
 20
219.309407
 30
0.0
 10
143.0023926457288
 20
220.052084
 30
0.0
  0
SPLINE
  5
1457
330
1F
100
AcDbEntity
  8
CALQUE_1
 62
     1
100
AcDbSpline
210
0.0
220
0.0
230
1.0
 70
     8
 71
     3
 72
     8
 73
     4
 74
     0
 42
0.000000001
 43
0.0000000001
 40
0.0
 40
0.0
 40
0.0
 40
0.0
 40
1.0
 40
1.0
 40
1.0
 40
1.0
 10
143.0023926457288
 20
220.052084
 30
0.0
 10
146.1746116457288
 20
221.118198
 30
0.0
 10
148.1043596457288
 20
222.16259
 30
0.0
 10
151.3236016457288
 20
224.555566
 30
0.0
  0
SPLINE
  5
1458
330
1F
100
AcDbEntity
  8
CALQUE_1
 62
     1
100
AcDbSpline
210
0.0
220
0.0
230
1.0
 70
     8
 71
     3
 72
     8
 73
     4
 74
     0
 42
0.000000001
 43
0.0000000001
 40
0.0
 40
0.0
 40
0.0
 40
0.0
 40
1.0
 40
1.0
 40
1.0
 40
1.0
 10
151.3236016457288
 20
224.555566
 30
0.0
 10
152.9618396457288
 20
225.773335
 30
0.0
 10
154.7637956457288
 20
227.005663
 30
0.0
 10
155.3279096457288
 20
227.294072
 30
0.0
  0
SPLINE
  5
1459
330
1F
100
AcDbEntity
  8
CALQUE_1
 62
     1
100
AcDbSpline
210
0.0
220
0.0
230
1.0
 70
     8
 71
     3
 72
     8
 73
     4
 74
     0
 42
0.000000001
 43
0.0000000001
 40
0.0
 40
0.0
 40
0.0
 40
0.0
 40
1.0
 40
1.0
 40
1.0
 40
1.0
 10
155.3279096457288
 20
227.294072
 30
0.0
 10
159.1624636457288
 20
229.254493
 30
0.0
 10
162.9544656457288
 20
228.39323
 30
0.0
 10
162.9544656457288
 20
225.561878
 30
0.0
  0
SPLINE
  5
145A
330
1F
100
AcDbEntity
  8
CALQUE_1
 62
     1
100
AcDbSpline
210
0.0
220
0.0
230
1.0
 70
     8
 71
     3
 72
     8
 73
     4
 74
     0
 42
0.000000001
 43
0.0000000001
 40
0.0
 40
0.0
 40
0.0
 40
0.0
 40
1.0
 40
1.0
 40
1.0
 40
1.0
 10
162.9544656457288
 20
225.561878
 30
0.0
 10
162.9544656457288
 20
223.747497
 30
0.0
 10
162.2317186457288
 20
222.611864
 30
0.0
 10
159.7705136457288
 20
220.559052
 30
0.0
  0
SPLINE
  5
145B
330
1F
100
AcDbEntity
  8
CALQUE_1
 62
     1
100
AcDbSpline
210
0.0
220
0.0
230
1.0
 70
     8
 71
     3
 72
     8
 73
     4
 74
     0
 42
0.000000001
 43
0.0000000001
 40
0.0
 40
0.0
 40
0.0
 40
0.0
 40
1.0
 40
1.0
 40
1.0
 40
1.0
 10
159.7705136457288
 20
220.559052
 30
0.0
 10
157.5643936457288
 20
218.718974
 30
0.0
 10
157.5106766457288
 20
218.644316
 30
0.0
 10
157.6816556457288
 20
217.655443
 30
0.0
  0
SPLINE
  5
145C
330
1F
100
AcDbEntity
  8
CALQUE_1
 62
     1
100
AcDbSpline
210
0.0
220
0.0
230
1.0
 70
     8
 71
     3
 72
     8
 73
     4
 74
     0
 42
0.000000001
 43
0.0000000001
 40
0.0
 40
0.0
 40
0.0
 40
0.0
 40
1.0
 40
1.0
 40
1.0
 40
1.0
 10
157.6816556457288
 20
217.655443
 30
0.0
 10
158.2627906457288
 20
214.294239
 30
0.0
 10
158.2599086457288
 20
214.228686
 30
0.0
 10
157.5321906457288
 20
214.235962
 30
0.0
  0
SPLINE
  5
145D
330
1F
100
AcDbEntity
  8
CALQUE_1
 62
     1
100
AcDbSpline
210
0.0
220
0.0
230
1.0
 70
     8
 71
     3
 72
     8
 73
     4
 74
     0
 42
0.000000001
 43
0.0000000001
 40
0.0
 40
0.0
 40
0.0
 40
0.0
 40
1.0
 40
1.0
 40
1.0
 40
1.0
 10
157.5321906457288
 20
214.235962
 30
0.0
 10
157.1599346457288
 20
214.239684
 30
0.0
 10
156.3448436457288
 20
214.361069
 30
0.0
 10
155.7208846457288
 20
214.505705
 30
0.0
  0
SPLINE
  5
145E
330
1F
100
AcDbEntity
  8
CALQUE_1
 62
     1
100
AcDbSpline
210
0.0
220
0.0
230
1.0
 70
     8
 71
     3
 72
     8
 73
     4
 74
     0
 42
0.000000001
 43
0.0000000001
 40
0.0
 40
0.0
 40
0.0
 40
0.0
 40
1.0
 40
1.0
 40
1.0
 40
1.0
 10
155.7208846457288
 20
214.505705
 30
0.0
 10
155.0113456457288
 20
214.67018
 30
0.0
 10
154.4853806457289
 20
214.667648
 30
0.0
 10
154.3166706457288
 20
214.49892
 30
0.0
  0
SPLINE
  5
145F
330
1F
100
AcDbEntity
  8
CALQUE_1
 62
     1
100
AcDbSpline
210
0.0
220
0.0
230
1.0
 70
     8
 71
     3
 72
     8
 73
     4
 74
     0
 42
0.000000001
 43
0.0000000001
 40
0.0
 40
0.0
 40
0.0
 40
0.0
 40
1.0
 40
1.0
 40
1.0
 40
1.0
 10
154.3166706457288
 20
214.49892
 30
0.0
 10
153.8689796457288
 20
214.051228
 30
0.0
 10
153.0640776457288
 20
214.194731
 30
0.0
 10
152.7519846457288
 20
214.777883
 30
0.0
  0
SPLINE
  5
1490
330
1F
100
AcDbEntity
  8
CALQUE_1
 62
     1
100
AcDbSpline
210
0.0
220
0.0
230
1.0
 70
     8
 71
     3
 72
     8
 73
     4
 74
     0
 42
0.000000001
 43
0.0000000001
 40
0.0
 40
0.0
 40
0.0
 40
0.0
 40
1.0
 40
1.0
 40
1.0
 40
1.0
 10
92.71568664572885
 20
222.712756
 30
0.0
 10
91.50428364572885
 20
223.262909
 30
0.0
 10
90.33248264572884
 20
224.604116
 30
0.0
 10
90.33248264572884
 20
225.440483
 30
0.0
  0
SPLINE
  5
1491
330
1F
100
AcDbEntity
  8
CALQUE_1
 62
     1
100
AcDbSpline
210
0.0
220
0.0
230
1.0
 70
     8
 71
     3
 72
     8
 73
     4
 74
     0
 42
0.000000001
 43
0.0000000001
 40
0.0
 40
0.0
 40
0.0
 40
0.0
 40
1.0
 40
1.0
 40
1.0
 40
1.0
 10
90.33248264572884
 20
225.440483
 30
0.0
 10
90.33248264572884
 20
225.964765
 30
0.0
 10
90.52293364572884
 20
225.953173
 30
0.0
 10
92.90234764572884
 20
225.284031
 30
0.0
  0
SPLINE
  5
1492
330
1F
100
AcDbEntity
  8
CALQUE_1
 62
     1
100
AcDbSpline
210
0.0
220
0.0
230
1.0
 70
     8
 71
     3
 72
     8
 73
     4
 74
     0
 42
0.000000001
 43
0.0000000001
 40
0.0
 40
0.0
 40
0.0
 40
0.0
 40
1.0
 40
1.0
 40
1.0
 40
1.0
 10
92.90234764572884
 20
225.284031
 30
0.0
 10
94.46015764572884
 20
224.845936
 30
0.0
 10
95.21472264572885
 20
225.00673
 30
0.0
 10
96.87272764572886
 20
226.1301
 30
0.0
  0
SPLINE
  5
1493
330
1F
100
AcDbEntity
  8
CALQUE_1
 62
     1
100
AcDbSpline
210
0.0
220
0.0
230
1.0
 70
     8
 71
     3
 72
     8
 73
     4
 74
     0
 42
0.000000001
 43
0.0000000001
 40
0.0
 40
0.0
 40
0.0
 40
0.0
 40
1.0
 40
1.0
 40
1.0
 40
1.0
 10
96.87272764572886
 20
226.1301
 30
0.0
 10
98.58901264572885
 20
227.292971
 30
0.0
 10
98.84287164572885
 20
227.244829
 30
0.0
 10
98.84287164572885
 20
225.756475
 30
0.0
  0
SPLINE
  5
1494
330
1F
100
AcDbEntity
  8
CALQUE_1
 62
     1
100
AcDbSpline
210
0.0
220
0.0
230
1.0
 70
     8
 71
     3
 72
     8
 73
     4
 74
     0
 42
0.000000001
 43
0.0000000001
 40
0.0
 40
0.0
 40
0.0
 40
0.0
 40
1.0
 40
1.0
 40
1.0
 40
1.0
 10
98.84287164572885
 20
225.756475
 30
0.0
 10
98.84287164572885
 20
222.864341
 30
0.0
 10
95.75716364572885
 20
221.331491
 30
0.0
 10
92.71568664572885
 20
222.712756
 30
0.0
  0
SPLINE
  5
149D
330
1F
100
AcDbEntity
  8
CALQUE_1
 62
     1
100
AcDbSpline
210
0.0
220
0.0
230
1.0
 70
     8
 71
     3
 72
     8
 73
     4
 74
     0
 42
0.000000001
 43
0.0000000001
 40
0.0
 40
0.0
 40
0.0
 40
0.0
 40
1.0
 40
1.0
 40
1.0
 40
1.0
 10
78.52973064572885
 20
226.128798
 30
0.0
 10
76.80273464572884
 20
227.119332
 30
0.0
 10
75.56543764572885
 20
228.897526
 30
0.0
 10
74.52853264572884
 20
231.879115
 30
0.0
  0
SPLINE
  5
149E
330
1F
100
AcDbEntity
  8
CALQUE_1
 62
     1
100
AcDbSpline
210
0.0
220
0.0
230
1.0
 70
     8
 71
     3
 72
     8
 73
     4
 74
     0
 42
0.000000001
 43
0.0000000001
 40
0.0
 40
0.0
 40
0.0
 40
0.0
 40
1.0
 40
1.0
 40
1.0
 40
1.0
 10
74.52853264572884
 20
231.879115
 30
0.0
 10
73.93836464572885
 20
233.576171
 30
0.0
 10
73.83533264572884
 20
234.307054
 30
0.0
 10
73.93750264572886
 20
236.0720220000001
 30
0.0
  0
SPLINE
  5
149F
330
1F
100
AcDbEntity
  8
CALQUE_1
 62
     1
100
AcDbSpline
210
0.0
220
0.0
230
1.0
 70
     8
 71
     3
 72
     8
 73
     4
 74
     0
 42
0.000000001
 43
0.0000000001
 40
0.0
 40
0.0
 40
0.0
 40
0.0
 40
1.0
 40
1.0
 40
1.0
 40
1.0
 10
73.93750264572886
 20
236.0720220000001
 30
0.0
 10
74.07164864572886
 20
238.389369
 30
0.0
 10
74.23507164572885
 20
238.755943
 30
0.0
 10
77.19906964572884
 20
243.388805
 30
0.0
  0
SPLINE
  5
14A0
330
1F
100
AcDbEntity
  8
CALQUE_1
 62
     1
100
AcDbSpline
210
0.0
220
0.0
230
1.0
 70
     8
 71
     3
 72
     8
 73
     4
 74
     0
 42
0.000000001
 43
0.0000000001
 40
0.0
 40
0.0
 40
0.0
 40
0.0
 40
1.0
 40
1.0
 40
1.0
 40
1.0
 10
77.19906964572884
 20
243.388805
 30
0.0
 10
79.52787464572885
 20
247.028837
 30
0.0
 10
80.00704364572884
 20
248.167186
 30
0.0
 10
80.66765464572885
 20
251.629067
 30
0.0
  0
SPLINE
  5
14A1
330
1F
100
AcDbEntity
  8
CALQUE_1
 62
     1
100
AcDbSpline
210
0.0
220
0.0
230
1.0
 70
     8
 71
     3
 72
     8
 73
     4
 74
     0
 42
0.000000001
 43
0.0000000001
 40
0.0
 40
0.0
 40
0.0
 40
0.0
 40
1.0
 40
1.0
 40
1.0
 40
1.0
 10
80.66765464572885
 20
251.629067
 30
0.0
 10
81.28410164572885
 20
254.859327
 30
0.0
 10
82.09926064572885
 20
257.447232
 30
0.0
 10
82.91600764572883
 20
258.766894
 30
0.0
  0
SPLINE
  5
14A2
330
1F
100
AcDbEntity
  8
CALQUE_1
 62
     1
100
AcDbSpline
210
0.0
220
0.0
230
1.0
 70
     8
 71
     3
 72
     8
 73
     4
 74
     0
 42
0.000000001
 43
0.0000000001
 40
0.0
 40
0.0
 40
0.0
 40
0.0
 40
1.0
 40
1.0
 40
1.0
 40
1.0
 10
82.91600764572883
 20
258.766894
 30
0.0
 10
85.54310864572885
 20
263.01161
 30
0.0
 10
89.03849564572885
 20
264.703246
 30
0.0
 10
94.52578964572884
 20
264.385593
 30
0.0
  0
SPLINE
  5
14A3
330
1F
100
AcDbEntity
  8
CALQUE_1
 62
     1
100
AcDbSpline
210
0.0
220
0.0
230
1.0
 70
     8
 71
     3
 72
     8
 73
     4
 74
     0
 42
0.000000001
 43
0.0000000001
 40
0.0
 40
0.0
 40
0.0
 40
0.0
 40
1.0
 40
1.0
 40
1.0
 40
1.0
 10
94.52578964572884
 20
264.385593
 30
0.0
 10
96.84989764572884
 20
264.251052
 30
0.0
 10
98.42906264572885
 20
263.626627
 30
0.0
 10
98.19919064572886
 20
262.93309
 30
0.0
  0
SPLINE
  5
14A4
330
1F
100
AcDbEntity
  8
CALQUE_1
 62
     1
100
AcDbSpline
210
0.0
220
0.0
230
1.0
 70
     8
 71
     3
 72
     8
 73
     4
 74
     0
 42
0.000000001
 43
0.0000000001
 40
0.0
 40
0.0
 40
0.0
 40
0.0
 40
1.0
 40
1.0
 40
1.0
 40
1.0
 10
98.19919064572886
 20
262.93309
 30
0.0
 10
98.13244664572884
 20
262.731741
 30
0.0
 10
96.84347464572885
 20
262.4549149999999
 30
0.0
 10
94.99018464572884
 20
262.243905
 30
0.0
  0
SPLINE
  5
14A5
330
1F
100
AcDbEntity
  8
CALQUE_1
 62
     1
100
AcDbSpline
210
0.0
220
0.0
230
1.0
 70
     8
 71
     3
 72
     8
 73
     4
 74
     0
 42
0.000000001
 43
0.0000000001
 40
0.0
 40
0.0
 40
0.0
 40
0.0
 40
1.0
 40
1.0
 40
1.0
 40
1.0
 10
94.99018464572884
 20
262.243905
 30
0.0
 10
91.17698564572885
 20
261.80975
 30
0.0
 10
88.94528964572884
 20
260.990985
 30
0.0
 10
87.33446564572885
 20
259.435179
 30
0.0
  0
SPLINE
  5
14A6
330
1F
100
AcDbEntity
  8
CALQUE_1
 62
     1
100
AcDbSpline
210
0.0
220
0.0
230
1.0
 70
     8
 71
     3
 72
     8
 73
     4
 74
     0
 42
0.000000001
 43
0.0000000001
 40
0.0
 40
0.0
 40
0.0
 40
0.0
 40
1.0
 40
1.0
 40
1.0
 40
1.0
 10
87.33446564572885
 20
259.435179
 30
0.0
 10
85.57122664572885
 20
257.732171
 30
0.0
 10
84.79158464572885
 20
255.948625
 30
0.0
 10
83.38916264572885
 20
250.409719
 30
0.0
  0
SPLINE
  5
14A7
330
1F
100
AcDbEntity
  8
CALQUE_1
 62
     1
100
AcDbSpline
210
0.0
220
0.0
230
1.0
 70
     8
 71
     3
 72
     8
 73
     4
 74
     0
 42
0.000000001
 43
0.0000000001
 40
0.0
 40
0.0
 40
0.0
 40
0.0
 40
1.0
 40
1.0
 40
1.0
 40
1.0
 10
83.38916264572885
 20
250.409719
 30
0.0
 10
82.02725164572886
 20
245.030881
 30
0.0
 10
81.61090064572885
 20
244.035529
 30
0.0
 10
79.52054464572885
 20
241.161555
 30
0.0
  0
SPLINE
  5
14A8
330
1F
100
AcDbEntity
  8
CALQUE_1
 62
     1
100
AcDbSpline
210
0.0
220
0.0
230
1.0
 70
     8
 71
     3
 72
     8
 73
     4
 74
     0
 42
0.000000001
 43
0.0000000001
 40
0.0
 40
0.0
 40
0.0
 40
0.0
 40
1.0
 40
1.0
 40
1.0
 40
1.0
 10
79.52054464572885
 20
241.161555
 30
0.0
 10
77.49514064572885
 20
238.376872
 30
0.0
 10
76.91191764572884
 20
236.908482
 30
0.0
 10
77.05355364572885
 20
234.950321
 30
0.0
  0
SPLINE
  5
14A9
330
1F
100
AcDbEntity
  8
CALQUE_1
 62
     1
100
AcDbSpline
210
0.0
220
0.0
230
1.0
 70
     8
 71
     3
 72
     8
 73
     4
 74
     0
 42
0.000000001
 43
0.0000000001
 40
0.0
 40
0.0
 40
0.0
 40
0.0
 40
1.0
 40
1.0
 40
1.0
 40
1.0
 10
77.05355364572885
 20
234.950321
 30
0.0
 10
77.17476364572885
 20
233.274524
 30
0.0
 10
78.49223964572885
 20
230.108119
 30
0.0
 10
80.13796764572886
 20
227.537301
 30
0.0
  0
SPLINE
  5
14AA
330
1F
100
AcDbEntity
  8
CALQUE_1
 62
     1
100
AcDbSpline
210
0.0
220
0.0
230
1.0
 70
     8
 71
     3
 72
     8
 73
     4
 74
     0
 42
0.000000001
 43
0.0000000001
 40
0.0
 40
0.0
 40
0.0
 40
0.0
 40
1.0
 40
1.0
 40
1.0
 40
1.0
 10
80.13796764572886
 20
227.537301
 30
0.0
 10
81.63979064572885
 20
225.191265
 30
0.0
 10
81.05588664572884
 20
224.679886
 30
0.0
 10
78.52973064572885
 20
226.128798
 30
0.0
  0
SPLINE
  5
14BD
330
1F
100
AcDbEntity
  8
CALQUE_1
 62
     1
100
AcDbSpline
210
0.0
220
0.0
230
1.0
 70
     8
 71
     3
 72
     8
 73
     4
 74
     0
 42
0.000000001
 43
0.0000000001
 40
0.0
 40
0.0
 40
0.0
 40
0.0
 40
1.0
 40
1.0
 40
1.0
 40
1.0
 10
108.2042986457288
 20
227.28107
 30
0.0
 10
108.2042986457288
 20
227.594556
 30
0.0
 10
108.7410206457288
 20
229.094511
 30
0.0
 10
109.3970246457288
 20
230.614306
 30
0.0
  0
SPLINE
  5
14BE
330
1F
100
AcDbEntity
  8
CALQUE_1
 62
     1
100
AcDbSpline
210
0.0
220
0.0
230
1.0
 70
     8
 71
     3
 72
     8
 73
     4
 74
     0
 42
0.000000001
 43
0.0000000001
 40
0.0
 40
0.0
 40
0.0
 40
0.0
 40
1.0
 40
1.0
 40
1.0
 40
1.0
 10
109.3970246457288
 20
230.614306
 30
0.0
 10
110.5053266457288
 20
233.181947
 30
0.0
 10
110.5906576457288
 20
233.562479
 30
0.0
 10
110.6026626457288
 20
235.989465
 30
0.0
  0
SPLINE
  5
14C0
330
1F
100
AcDbEntity
  8
CALQUE_1
 62
     1
100
AcDbSpline
210
0.0
220
0.0
230
1.0
 70
     8
 71
     3
 72
     8
 73
     4
 74
     0
 42
0.000000001
 43
0.0000000001
 40
0.0
 40
0.0
 40
0.0
 40
0.0
 40
1.0
 40
1.0
 40
1.0
 40
1.0
 10
108.5586036457288
 20
242.655936
 30
0.0
 10
107.4272436457288
 20
244.885953
 30
0.0
 10
106.3711836457288
 20
247.157307
 30
0.0
 10
106.2118016457288
 20
247.703391
 30
0.0
  0
SPLINE
  5
14C1
330
1F
100
AcDbEntity
  8
CALQUE_1
 62
     1
100
AcDbSpline
210
0.0
220
0.0
230
1.0
 70
     8
 71
     3
 72
     8
 73
     4
 74
     0
 42
0.000000001
 43
0.0000000001
 40
0.0
 40
0.0
 40
0.0
 40
0.0
 40
1.0
 40
1.0
 40
1.0
 40
1.0
 10
106.2118016457288
 20
247.703391
 30
0.0
 10
106.0524186457288
 20
248.249474
 30
0.0
 10
105.7996716457288
 20
250.266599
 30
0.0
 10
105.6501606457288
 20
252.185892
 30
0.0
  0
SPLINE
  5
14C2
330
1F
100
AcDbEntity
  8
CALQUE_1
 62
     1
100
AcDbSpline
210
0.0
220
0.0
230
1.0
 70
     8
 71
     3
 72
     8
 73
     4
 74
     0
 42
0.000000001
 43
0.0000000001
 40
0.0
 40
0.0
 40
0.0
 40
0.0
 40
1.0
 40
1.0
 40
1.0
 40
1.0
 10
105.6501606457288
 20
252.185892
 30
0.0
 10
105.4400796457288
 20
254.882929
 30
0.0
 10
105.2096636457288
 20
256.074906
 30
0.0
 10
104.6357906457288
 20
257.433963
 30
0.0
  0
SPLINE
  5
14C3
330
1F
100
AcDbEntity
  8
CALQUE_1
 62
     1
100
AcDbSpline
210
0.0
220
0.0
230
1.0
 70
     8
 71
     3
 72
     8
 73
     4
 74
     0
 42
0.000000001
 43
0.0000000001
 40
0.0
 40
0.0
 40
0.0
 40
0.0
 40
1.0
 40
1.0
 40
1.0
 40
1.0
 10
104.6357906457288
 20
257.433963
 30
0.0
 10
103.7343706457288
 20
259.568613
 30
0.0
 10
103.6510136457288
 20
260.27771
 30
0.0
 10
104.2862976457288
 20
260.4066410000001
 30
0.0
  0
SPLINE
  5
14C4
330
1F
100
AcDbEntity
  8
CALQUE_1
 62
     1
100
AcDbSpline
210
0.0
220
0.0
230
1.0
 70
     8
 71
     3
 72
     8
 73
     4
 74
     0
 42
0.000000001
 43
0.0000000001
 40
0.0
 40
0.0
 40
0.0
 40
0.0
 40
1.0
 40
1.0
 40
1.0
 40
1.0
 10
104.2862976457288
 20
260.4066410000001
 30
0.0
 10
104.9031076457288
 20
260.531823
 30
0.0
 10
106.9941216457288
 20
258.449506
 30
0.0
 10
107.5232186457288
 20
257.183165
 30
0.0
  0
SPLINE
  5
14C5
330
1F
100
AcDbEntity
  8
CALQUE_1
 62
     1
100
AcDbSpline
210
0.0
220
0.0
230
1.0
 70
     8
 71
     3
 72
     8
 73
     4
 74
     0
 42
0.000000001
 43
0.0000000001
 40
0.0
 40
0.0
 40
0.0
 40
0.0
 40
1.0
 40
1.0
 40
1.0
 40
1.0
 10
107.5232186457288
 20
257.183165
 30
0.0
 10
107.7453506457288
 20
256.651511
 30
0.0
 10
108.0588956457288
 20
254.593469
 30
0.0
 10
108.2199806457288
 20
252.609736
 30
0.0
  0
SPLINE
  5
14C6
330
1F
100
AcDbEntity
  8
CALQUE_1
 62
     1
100
AcDbSpline
210
0.0
220
0.0
230
1.0
 70
     8
 71
     3
 72
     8
 73
     4
 74
     0
 42
0.000000001
 43
0.0000000001
 40
0.0
 40
0.0
 40
0.0
 40
0.0
 40
1.0
 40
1.0
 40
1.0
 40
1.0
 10
108.2199806457288
 20
252.609736
 30
0.0
 10
108.5356136457288
 20
248.722847
 30
0.0
 10
108.4035556457288
 20
249.108935
 30
0.0
 10
111.4146896457288
 20
243.269696
 30
0.0
  0
SPLINE
  5
14C7
330
1F
100
AcDbEntity
  8
CALQUE_1
 62
     1
100
AcDbSpline
210
0.0
220
0.0
230
1.0
 70
     8
 71
     3
 72
     8
 73
     4
 74
     0
 42
0.000000001
 43
0.0000000001
 40
0.0
 40
0.0
 40
0.0
 40
0.0
 40
1.0
 40
1.0
 40
1.0
 40
1.0
 10
111.4146896457288
 20
243.269696
 30
0.0
 10
113.1196266457288
 20
239.963469
 30
0.0
 10
113.8779136457288
 20
237.747884
 30
0.0
 10
113.8779136457288
 20
236.072526
 30
0.0
  0
SPLINE
  5
14C8
330
1F
100
AcDbEntity
  8
CALQUE_1
 62
     1
100
AcDbSpline
210
0.0
220
0.0
230
1.0
 70
     8
 71
     3
 72
     8
 73
     4
 74
     0
 42
0.000000001
 43
0.0000000001
 40
0.0
 40
0.0
 40
0.0
 40
0.0
 40
1.0
 40
1.0
 40
1.0
 40
1.0
 10
113.8779136457288
 20
236.072526
 30
0.0
 10
113.8779136457288
 20
233.740219
 30
0.0
 10
112.1432926457288
 20
229.605105
 30
0.0
 10
110.3811426457288
 20
227.73668
 30
0.0
  0
SPLINE
  5
14C9
330
1F
100
AcDbEntity
  8
CALQUE_1
 62
     1
100
AcDbSpline
210
0.0
220
0.0
230
1.0
 70
     8
 71
     3
 72
     8
 73
     4
 74
     0
 42
0.000000001
 43
0.0000000001
 40
0.0
 40
0.0
 40
0.0
 40
0.0
 40
1.0
 40
1.0
 40
1.0
 40
1.0
 10
110.3811426457288
 20
227.73668
 30
0.0
 10
109.2998246457288
 20
226.590165
 30
0.0
 10
108.2043216457288
 20
226.360872
 30
0.0
 10
108.2043216457288
 20
227.28107
 30
0.0
  0
SPLINE
  5
14D9
330
1F
100
AcDbEntity
  8
CALQUE_1
 62
     1
100
AcDbSpline
210
0.0
220
0.0
230
1.0
 70
     8
 71
     3
 72
     8
 73
     4
 74
     0
 42
0.000000001
 43
0.0000000001
 40
0.0
 40
0.0
 40
0.0
 40
0.0
 40
1.0
 40
1.0
 40
1.0
 40
1.0
 10
92.35119264572885
 20
227.760659
 30
0.0
 10
89.97620364572886
 20
228.939527
 30
0.0
 10
89.60453864572885
 20
234.083353
 30
0.0
 10
91.78403764572884
 20
235.609933
 30
0.0
  0
SPLINE
  5
14DA
330
1F
100
AcDbEntity
  8
CALQUE_1
 62
     1
100
AcDbSpline
210
0.0
220
0.0
230
1.0
 70
     8
 71
     3
 72
     8
 73
     4
 74
     0
 42
0.000000001
 43
0.0000000001
 40
0.0
 40
0.0
 40
0.0
 40
0.0
 40
1.0
 40
1.0
 40
1.0
 40
1.0
 10
91.78403764572884
 20
235.609933
 30
0.0
 10
92.73068764572885
 20
236.272992
 30
0.0
 10
94.45307664572885
 20
236.207124
 30
0.0
 10
95.18013664572885
 20
235.480053
 30
0.0
  0
SPLINE
  5
14DB
330
1F
100
AcDbEntity
  8
CALQUE_1
 62
     1
100
AcDbSpline
210
0.0
220
0.0
230
1.0
 70
     8
 71
     3
 72
     8
 73
     4
 74
     0
 42
0.000000001
 43
0.0000000001
 40
0.0
 40
0.0
 40
0.0
 40
0.0
 40
1.0
 40
1.0
 40
1.0
 40
1.0
 10
95.18013664572885
 20
235.480053
 30
0.0
 10
98.54101364572885
 20
232.119185
 30
0.0
 10
96.23689964572886
 20
225.831917
 30
0.0
 10
92.35119264572885
 20
227.760659
 30
0.0
  0
SPLINE
  5
14E2
330
1F
100
AcDbEntity
  8
CALQUE_1
 62
     1
100
AcDbSpline
210
0.0
220
0.0
230
1.0
 70
     8
 71
     3
 72
     8
 73
     4
 74
     0
 42
0.000000001
 43
0.0000000001
 40
0.0
 40
0.0
 40
0.0
 40
0.0
 40
1.0
 40
1.0
 40
1.0
 40
1.0
 10
123.6248056457288
 20
232.393998
 30
0.0
 10
121.3946976457288
 20
234.244958
 30
0.0
 10
119.4747766457288
 20
235.027058
 30
0.0
 10
117.5893736457288
 20
234.852615
 30
0.0
  0
SPLINE
  5
14E3
330
1F
100
AcDbEntity
  8
CALQUE_1
 62
     1
100
AcDbSpline
210
0.0
220
0.0
230
1.0
 70
     8
 71
     3
 72
     8
 73
     4
 74
     0
 42
0.000000001
 43
0.0000000001
 40
0.0
 40
0.0
 40
0.0
 40
0.0
 40
1.0
 40
1.0
 40
1.0
 40
1.0
 10
117.5893736457288
 20
234.852615
 30
0.0
 10
116.7182276457288
 20
234.772016
 30
0.0
 10
115.7182686457288
 20
234.61567
 30
0.0
 10
115.3672096457288
 20
234.505174
 30
0.0
  0
SPLINE
  5
14E4
330
1F
100
AcDbEntity
  8
CALQUE_1
 62
     1
100
AcDbSpline
210
0.0
220
0.0
230
1.0
 70
     8
 71
     3
 72
     8
 73
     4
 74
     0
 42
0.000000001
 43
0.0000000001
 40
0.0
 40
0.0
 40
0.0
 40
0.0
 40
1.0
 40
1.0
 40
1.0
 40
1.0
 10
115.3672096457288
 20
234.505174
 30
0.0
 10
114.7682366457288
 20
234.316651
 30
0.0
 10
114.7289306457288
 20
234.385211
 30
0.0
 10
114.7289306457288
 20
235.618092
 30
0.0
  0
SPLINE
  5
14E5
330
1F
100
AcDbEntity
  8
CALQUE_1
 62
     1
100
AcDbSpline
210
0.0
220
0.0
230
1.0
 70
     8
 71
     3
 72
     8
 73
     4
 74
     0
 42
0.000000001
 43
0.0000000001
 40
0.0
 40
0.0
 40
0.0
 40
0.0
 40
1.0
 40
1.0
 40
1.0
 40
1.0
 10
114.7289306457288
 20
235.618092
 30
0.0
 10
114.7289306457288
 20
236.795914
 30
0.0
 10
114.8243596457288
 20
236.990091
 30
0.0
 10
115.6508886457288
 20
237.494033
 30
0.0
  0
SPLINE
  5
14E6
330
1F
100
AcDbEntity
  8
CALQUE_1
 62
     1
100
AcDbSpline
210
0.0
220
0.0
230
1.0
 70
     8
 71
     3
 72
     8
 73
     4
 74
     0
 42
0.000000001
 43
0.0000000001
 40
0.0
 40
0.0
 40
0.0
 40
0.0
 40
1.0
 40
1.0
 40
1.0
 40
1.0
 10
115.6508886457288
 20
237.494033
 30
0.0
 10
116.9231356457288
 20
238.269738
 30
0.0
 10
119.2422276457288
 20
238.231069
 30
0.0
 10
121.2535616457288
 20
237.400614
 30
0.0
  0
SPLINE
  5
14E7
330
1F
100
AcDbEntity
  8
CALQUE_1
 62
     1
100
AcDbSpline
210
0.0
220
0.0
230
1.0
 70
     8
 71
     3
 72
     8
 73
     4
 74
     0
 42
0.000000001
 43
0.0000000001
 40
0.0
 40
0.0
 40
0.0
 40
0.0
 40
1.0
 40
1.0
 40
1.0
 40
1.0
 10
121.2535616457288
 20
237.400614
 30
0.0
 10
123.6626596457288
 20
236.405927
 30
0.0
 10
127.4945136457288
 20
233.840841
 30
0.0
 10
127.4945136457288
 20
233.222851
 30
0.0
  0
SPLINE
  5
14E8
330
1F
100
AcDbEntity
  8
CALQUE_1
 62
     1
100
AcDbSpline
210
0.0
220
0.0
230
1.0
 70
     8
 71
     3
 72
     8
 73
     4
 74
     0
 42
0.000000001
 43
0.0000000001
 40
0.0
 40
0.0
 40
0.0
 40
0.0
 40
1.0
 40
1.0
 40
1.0
 40
1.0
 10
127.4945136457288
 20
233.222851
 30
0.0
 10
127.4945136457288
 20
232.704294
 30
0.0
 10
125.8768816457288
 20
231.249973
 30
0.0
 10
125.3001036457288
 20
231.249973
 30
0.0
  0
SPLINE
  5
14E9
330
1F
100
AcDbEntity
  8
CALQUE_1
 62
     1
100
AcDbSpline
210
0.0
220
0.0
230
1.0
 70
     8
 71
     3
 72
     8
 73
     4
 74
     0
 42
0.000000001
 43
0.0000000001
 40
0.0
 40
0.0
 40
0.0
 40
0.0
 40
1.0
 40
1.0
 40
1.0
 40
1.0
 10
125.3001036457288
 20
231.249973
 30
0.0
 10
125.1367946457288
 20
231.249973
 30
0.0
 10
124.3829106457288
 20
231.764783
 30
0.0
 10
123.6248056457288
 20
232.393998
 30
0.0
  0
SPLINE
  5
1512
330
1F
100
AcDbEntity
  8
CALQUE_1
 62
     1
100
AcDbSpline
210
0.0
220
0.0
230
1.0
 70
     8
 71
     3
 72
     8
 73
     4
 74
     0
 42
0.000000001
 43
0.0000000001
 40
0.0
 40
0.0
 40
0.0
 40
0.0
 40
1.0
 40
1.0
 40
1.0
 40
1.0
 10
128.9129116457288
 20
236.369952
 30
0.0
 10
125.3149456457288
 20
239.124172
 30
0.0
 10
119.4911166457288
 20
241.650269
 30
0.0
 10
115.0092286457288
 20
242.400686
 30
0.0
  0
SPLINE
  5
1514
330
1F
100
AcDbEntity
  8
CALQUE_1
 62
     1
100
AcDbSpline
210
0.0
220
0.0
230
1.0
 70
     8
 71
     3
 72
     8
 73
     4
 74
     0
 42
0.000000001
 43
0.0000000001
 40
0.0
 40
0.0
 40
0.0
 40
0.0
 40
1.0
 40
1.0
 40
1.0
 40
1.0
 10
111.4194556457288
 20
245.719426
 30
0.0
 10
109.9324976457288
 20
248.579225
 30
0.0
 10
109.8509346457288
 20
248.85242
 30
0.0
 10
109.3448956457288
 20
252.667784
 30
0.0
  0
SPLINE
  5
1515
330
1F
100
AcDbEntity
  8
CALQUE_1
 62
     1
100
AcDbSpline
210
0.0
220
0.0
230
1.0
 70
     8
 71
     3
 72
     8
 73
     4
 74
     0
 42
0.000000001
 43
0.0000000001
 40
0.0
 40
0.0
 40
0.0
 40
0.0
 40
1.0
 40
1.0
 40
1.0
 40
1.0
 10
109.3448956457288
 20
252.667784
 30
0.0
 10
109.0551786457288
 20
254.852117
 30
0.0
 10
108.7252256457288
 20
257.009451
 30
0.0
 10
108.6116626457288
 20
257.461861
 30
0.0
  0
SPLINE
  5
1517
330
1F
100
AcDbEntity
  8
CALQUE_1
 62
     1
100
AcDbSpline
210
0.0
220
0.0
230
1.0
 70
     8
 71
     3
 72
     8
 73
     4
 74
     0
 42
0.000000001
 43
0.0000000001
 40
0.0
 40
0.0
 40
0.0
 40
0.0
 40
1.0
 40
1.0
 40
1.0
 40
1.0
 10
112.0634766457288
 20
258.127316
 30
0.0
 10
122.6530326457288
 20
257.672553
 30
0.0
 10
133.0561316457288
 20
253.30637
 30
0.0
 10
142.2458536457288
 20
245.459764
 30
0.0
  0
SPLINE
  5
1518
330
1F
100
AcDbEntity
  8
CALQUE_1
 62
     1
100
AcDbSpline
210
0.0
220
0.0
230
1.0
 70
     8
 71
     3
 72
     8
 73
     4
 74
     0
 42
0.000000001
 43
0.0000000001
 40
0.0
 40
0.0
 40
0.0
 40
0.0
 40
1.0
 40
1.0
 40
1.0
 40
1.0
 10
142.2458536457288
 20
245.459764
 30
0.0
 10
143.0746066457288
 20
244.752122
 30
0.0
 10
143.1869206457288
 20
244.527538
 30
0.0
 10
142.9253006457288
 20
244.101018
 30
0.0
  0
SPLINE
  5
1519
330
1F
100
AcDbEntity
  8
CALQUE_1
 62
     1
100
AcDbSpline
210
0.0
220
0.0
230
1.0
 70
     8
 71
     3
 72
     8
 73
     4
 74
     0
 42
0.000000001
 43
0.0000000001
 40
0.0
 40
0.0
 40
0.0
 40
0.0
 40
1.0
 40
1.0
 40
1.0
 40
1.0
 10
142.9253006457288
 20
244.101018
 30
0.0
 10
142.5950966457288
 20
243.562692
 30
0.0
 10
131.3107076457288
 20
234.930373
 30
0.0
 10
130.9604196457288
 20
234.948125
 30
0.0
  0
SPLINE
  5
151A
330
1F
100
AcDbEntity
  8
CALQUE_1
 62
     1
100
AcDbSpline
210
0.0
220
0.0
230
1.0
 70
     8
 71
     3
 72
     8
 73
     4
 74
     0
 42
0.000000001
 43
0.0000000001
 40
0.0
 40
0.0
 40
0.0
 40
0.0
 40
1.0
 40
1.0
 40
1.0
 40
1.0
 10
130.9604196457288
 20
234.948125
 30
0.0
 10
130.8484456457288
 20
234.953798
 30
0.0
 10
129.9270546457288
 20
235.593623
 30
0.0
 10
128.9129116457288
 20
236.369952
 30
0.0
  0
SPLINE
  5
1525
330
1F
100
AcDbEntity
  8
CALQUE_1
 62
     1
100
AcDbSpline
210
0.0
220
0.0
230
1.0
 70
     8
 71
     3
 72
     8
 73
     4
 74
     0
 42
0.000000001
 43
0.0000000001
 40
0.0
 40
0.0
 40
0.0
 40
0.0
 40
1.0
 40
1.0
 40
1.0
 40
1.0
 10
90.87800964572885
 20
238.036463
 30
0.0
 10
89.95913764572884
 20
238.955331
 30
0.0
 10
89.76630364572885
 20
240.466848
 30
0.0
 10
90.40757864572887
 20
241.723717
 30
0.0
  0
SPLINE
  5
1526
330
1F
100
AcDbEntity
  8
CALQUE_1
 62
     1
100
AcDbSpline
210
0.0
220
0.0
230
1.0
 70
     8
 71
     3
 72
     8
 73
     4
 74
     0
 42
0.000000001
 43
0.0000000001
 40
0.0
 40
0.0
 40
0.0
 40
0.0
 40
1.0
 40
1.0
 40
1.0
 40
1.0
 10
90.40757864572887
 20
241.723717
 30
0.0
 10
90.96808364572884
 20
242.82229
 30
0.0
 10
91.40721964572884
 20
242.738707
 30
0.0
 10
91.74929264572885
 20
241.468333
 30
0.0
  0
SPLINE
  5
1527
330
1F
100
AcDbEntity
  8
CALQUE_1
 62
     1
100
AcDbSpline
210
0.0
220
0.0
230
1.0
 70
     8
 71
     3
 72
     8
 73
     4
 74
     0
 42
0.000000001
 43
0.0000000001
 40
0.0
 40
0.0
 40
0.0
 40
0.0
 40
1.0
 40
1.0
 40
1.0
 40
1.0
 10
91.74929264572885
 20
241.468333
 30
0.0
 10
91.97709864572884
 20
240.622309
 30
0.0
 10
92.26792664572885
 20
240.224951
 30
0.0
 10
92.81020864572885
 20
240.018775
 30
0.0
  0
SPLINE
  5
1528
330
1F
100
AcDbEntity
  8
CALQUE_1
 62
     1
100
AcDbSpline
210
0.0
220
0.0
230
1.0
 70
     8
 71
     3
 72
     8
 73
     4
 74
     0
 42
0.000000001
 43
0.0000000001
 40
0.0
 40
0.0
 40
0.0
 40
0.0
 40
1.0
 40
1.0
 40
1.0
 40
1.0
 10
92.81020864572885
 20
240.018775
 30
0.0
 10
93.62291664572884
 20
239.709785
 30
0.0
 10
94.87140164572885
 20
240.069665
 30
0.0
 10
95.46404264572883
 20
240.783762
 30
0.0
  0
SPLINE
  5
1529
330
1F
100
AcDbEntity
  8
CALQUE_1
 62
     1
100
AcDbSpline
210
0.0
220
0.0
230
1.0
 70
     8
 71
     3
 72
     8
 73
     4
 74
     0
 42
0.000000001
 43
0.0000000001
 40
0.0
 40
0.0
 40
0.0
 40
0.0
 40
1.0
 40
1.0
 40
1.0
 40
1.0
 10
95.46404264572883
 20
240.783762
 30
0.0
 10
95.64434964572885
 20
241.001008
 30
0.0
 10
95.98442464572885
 20
241.178759
 30
0.0
 10
96.21976564572886
 20
241.178759
 30
0.0
  0
SPLINE
  5
152A
330
1F
100
AcDbEntity
  8
CALQUE_1
 62
     1
100
AcDbSpline
210
0.0
220
0.0
230
1.0
 70
     8
 71
     3
 72
     8
 73
     4
 74
     0
 42
0.000000001
 43
0.0000000001
 40
0.0
 40
0.0
 40
0.0
 40
0.0
 40
1.0
 40
1.0
 40
1.0
 40
1.0
 10
96.21976564572886
 20
241.178759
 30
0.0
 10
97.02888764572886
 20
241.178759
 30
0.0
 10
96.42719164572884
 20
239.159893
 30
0.0
 10
95.31087864572885
 20
238.129203
 30
0.0
  0
SPLINE
  5
152B
330
1F
100
AcDbEntity
  8
CALQUE_1
 62
     1
100
AcDbSpline
210
0.0
220
0.0
230
1.0
 70
     8
 71
     3
 72
     8
 73
     4
 74
     0
 42
0.000000001
 43
0.0000000001
 40
0.0
 40
0.0
 40
0.0
 40
0.0
 40
1.0
 40
1.0
 40
1.0
 40
1.0
 10
95.31087864572885
 20
238.129203
 30
0.0
 10
94.48630164572886
 20
237.367887
 30
0.0
 10
94.08535964572884
 20
237.207245
 30
0.0
 10
93.00978264572885
 20
237.207245
 30
0.0
  0
SPLINE
  5
152C
330
1F
100
AcDbEntity
  8
CALQUE_1
 62
     1
100
AcDbSpline
210
0.0
220
0.0
230
1.0
 70
     8
 71
     3
 72
     8
 73
     4
 74
     0
 42
0.000000001
 43
0.0000000001
 40
0.0
 40
0.0
 40
0.0
 40
0.0
 40
1.0
 40
1.0
 40
1.0
 40
1.0
 10
93.00978264572885
 20
237.207245
 30
0.0
 10
91.94836764572885
 20
237.207245
 30
0.0
 10
91.55373464572885
 20
237.360749
 30
0.0
 10
90.87800964572885
 20
238.036463
 30
0.0
  0
SPLINE
  5
1533
330
1F
100
AcDbEntity
  8
CALQUE_1
 62
     1
100
AcDbSpline
210
0.0
220
0.0
230
1.0
 70
     8
 71
     3
 72
     8
 73
     4
 74
     0
 42
0.000000001
 43
0.0000000001
 40
0.0
 40
0.0
 40
0.0
 40
0.0
 40
1.0
 40
1.0
 40
1.0
 40
1.0
 10
88.77319764572884
 20
246.072233
 30
0.0
 10
87.63666364572884
 20
247.05273
 30
0.0
 10
87.10668264572886
 20
250.227104
 30
0.0
 10
87.81867264572886
 20
251.789728
 30
0.0
  0
SPLINE
  5
1534
330
1F
100
AcDbEntity
  8
CALQUE_1
 62
     1
100
AcDbSpline
210
0.0
220
0.0
230
1.0
 70
     8
 71
     3
 72
     8
 73
     4
 74
     0
 42
0.000000001
 43
0.0000000001
 40
0.0
 40
0.0
 40
0.0
 40
0.0
 40
1.0
 40
1.0
 40
1.0
 40
1.0
 10
87.81867264572886
 20
251.789728
 30
0.0
 10
88.44955364572886
 20
253.174361
 30
0.0
 10
90.79642364572885
 20
253.719457
 30
0.0
 10
91.96205164572885
 20
252.752082
 30
0.0
  0
SPLINE
  5
1535
330
1F
100
AcDbEntity
  8
CALQUE_1
 62
     1
100
AcDbSpline
210
0.0
220
0.0
230
1.0
 70
     8
 71
     3
 72
     8
 73
     4
 74
     0
 42
0.000000001
 43
0.0000000001
 40
0.0
 40
0.0
 40
0.0
 40
0.0
 40
1.0
 40
1.0
 40
1.0
 40
1.0
 10
91.96205164572885
 20
252.752082
 30
0.0
 10
92.46800064572886
 20
252.332171
 30
0.0
 10
92.41637064572884
 20
251.107546
 30
0.0
 10
91.89272064572884
 20
251.107546
 30
0.0
  0
SPLINE
  5
1536
330
1F
100
AcDbEntity
  8
CALQUE_1
 62
     1
100
AcDbSpline
210
0.0
220
0.0
230
1.0
 70
     8
 71
     3
 72
     8
 73
     4
 74
     0
 42
0.000000001
 43
0.0000000001
 40
0.0
 40
0.0
 40
0.0
 40
0.0
 40
1.0
 40
1.0
 40
1.0
 40
1.0
 10
91.89272064572884
 20
251.107546
 30
0.0
 10
91.38861064572884
 20
251.107546
 30
0.0
 10
91.32674564572885
 20
250.226748
 30
0.0
 10
91.79776764572883
 20
249.755731
 30
0.0
  0
SPLINE
  5
1537
330
1F
100
AcDbEntity
  8
CALQUE_1
 62
     1
100
AcDbSpline
210
0.0
220
0.0
230
1.0
 70
     8
 71
     3
 72
     8
 73
     4
 74
     0
 42
0.000000001
 43
0.0000000001
 40
0.0
 40
0.0
 40
0.0
 40
0.0
 40
1.0
 40
1.0
 40
1.0
 40
1.0
 10
91.79776764572883
 20
249.755731
 30
0.0
 10
92.21411864572884
 20
249.339369
 30
0.0
 10
92.14982564572885
 20
247.312914
 30
0.0
 10
91.69725364572885
 20
246.588239
 30
0.0
  0
SPLINE
  5
1538
330
1F
100
AcDbEntity
  8
CALQUE_1
 62
     1
100
AcDbSpline
210
0.0
220
0.0
230
1.0
 70
     8
 71
     3
 72
     8
 73
     4
 74
     0
 42
0.000000001
 43
0.0000000001
 40
0.0
 40
0.0
 40
0.0
 40
0.0
 40
1.0
 40
1.0
 40
1.0
 40
1.0
 10
91.69725364572885
 20
246.588239
 30
0.0
 10
91.37231564572886
 20
246.067919
 30
0.0
 10
90.31248864572885
 20
245.433954
 30
0.0
 10
89.76759764572886
 20
245.433954
 30
0.0
  0
SPLINE
  5
1539
330
1F
100
AcDbEntity
  8
CALQUE_1
 62
     1
100
AcDbSpline
210
0.0
220
0.0
230
1.0
 70
     8
 71
     3
 72
     8
 73
     4
 74
     0
 42
0.000000001
 43
0.0000000001
 40
0.0
 40
0.0
 40
0.0
 40
0.0
 40
1.0
 40
1.0
 40
1.0
 40
1.0
 10
89.76759764572886
 20
245.433954
 30
0.0
 10
89.62761864572884
 20
245.433954
 30
0.0
 10
89.18013064572884
 20
245.721178
 30
0.0
 10
88.77319764572884
 20
246.072233
 30
0.0
  0
SPLINE
  5
1542
330
1F
100
AcDbEntity
  8
CALQUE_1
 62
     1
100
AcDbSpline
210
0.0
220
0.0
230
1.0
 70
     8
 71
     3
 72
     8
 73
     4
 74
     0
 42
0.000000001
 43
0.0000000001
 40
0.0
 40
0.0
 40
0.0
 40
0.0
 40
1.0
 40
1.0
 40
1.0
 40
1.0
 10
96.29683564572886
 20
246.622828
 30
0.0
 10
95.64695964572884
 20
247.688753
 30
0.0
 10
95.51912164572884
 20
250.156105
 30
0.0
 10
96.03682564572885
 20
251.641193
 30
0.0
  0
SPLINE
  5
1543
330
1F
100
AcDbEntity
  8
CALQUE_1
 62
     1
100
AcDbSpline
210
0.0
220
0.0
230
1.0
 70
     8
 71
     3
 72
     8
 73
     4
 74
     0
 42
0.000000001
 43
0.0000000001
 40
0.0
 40
0.0
 40
0.0
 40
0.0
 40
1.0
 40
1.0
 40
1.0
 40
1.0
 10
96.03682564572885
 20
251.641193
 30
0.0
 10
96.60343664572884
 20
253.266561
 30
0.0
 10
98.71294564572885
 20
253.865271
 30
0.0
 10
100.0811666457288
 20
252.789033
 30
0.0
  0
SPLINE
  5
1544
330
1F
100
AcDbEntity
  8
CALQUE_1
 62
     1
100
AcDbSpline
210
0.0
220
0.0
230
1.0
 70
     8
 71
     3
 72
     8
 73
     4
 74
     0
 42
0.000000001
 43
0.0000000001
 40
0.0
 40
0.0
 40
0.0
 40
0.0
 40
1.0
 40
1.0
 40
1.0
 40
1.0
 10
100.0811666457288
 20
252.789033
 30
0.0
 10
101.0009016457288
 20
252.06558
 30
0.0
 10
101.0851656457288
 20
251.107546
 30
0.0
 10
100.2290666457288
 20
251.107546
 30
0.0
  0
SPLINE
  5
1545
330
1F
100
AcDbEntity
  8
CALQUE_1
 62
     1
100
AcDbSpline
210
0.0
220
0.0
230
1.0
 70
     8
 71
     3
 72
     8
 73
     4
 74
     0
 42
0.000000001
 43
0.0000000001
 40
0.0
 40
0.0
 40
0.0
 40
0.0
 40
1.0
 40
1.0
 40
1.0
 40
1.0
 10
100.2290666457288
 20
251.107546
 30
0.0
 10
99.72445664572886
 20
251.107546
 30
0.0
 10
99.65542064572886
 20
250.984003
 30
0.0
 10
99.79312964572883
 20
250.327427
 30
0.0
  0
SPLINE
  5
1546
330
1F
100
AcDbEntity
  8
CALQUE_1
 62
     1
100
AcDbSpline
210
0.0
220
0.0
230
1.0
 70
     8
 71
     3
 72
     8
 73
     4
 74
     0
 42
0.000000001
 43
0.0000000001
 40
0.0
 40
0.0
 40
0.0
 40
0.0
 40
1.0
 40
1.0
 40
1.0
 40
1.0
 10
99.79312964572883
 20
250.327427
 30
0.0
 10
99.88313564572885
 20
249.898361
 30
0.0
 10
100.0346666457288
 20
249.164341
 30
0.0
 10
100.1298686457288
 20
248.696269
 30
0.0
  0
SPLINE
  5
1547
330
1F
100
AcDbEntity
  8
CALQUE_1
 62
     1
100
AcDbSpline
210
0.0
220
0.0
230
1.0
 70
     8
 71
     3
 72
     8
 73
     4
 74
     0
 42
0.000000001
 43
0.0000000001
 40
0.0
 40
0.0
 40
0.0
 40
0.0
 40
1.0
 40
1.0
 40
1.0
 40
1.0
 10
100.1298686457288
 20
248.696269
 30
0.0
 10
100.3994786457288
 20
247.370728
 30
0.0
 10
99.27594764572885
 20
245.885354
 30
0.0
 10
97.91780364572886
 20
245.771789
 30
0.0
  0
SPLINE
  5
1548
330
1F
100
AcDbEntity
  8
CALQUE_1
 62
     1
100
AcDbSpline
210
0.0
220
0.0
230
1.0
 70
     8
 71
     3
 72
     8
 73
     4
 74
     0
 42
0.000000001
 43
0.0000000001
 40
0.0
 40
0.0
 40
0.0
 40
0.0
 40
1.0
 40
1.0
 40
1.0
 40
1.0
 10
97.91780364572886
 20
245.771789
 30
0.0
 10
96.99348464572885
 20
245.694499
 30
0.0
 10
96.80130864572886
 20
245.795391
 30
0.0
 10
96.29683564572886
 20
246.622828
 30
0.0
  0
SPLINE
  5
1552
330
1F
100
AcDbEntity
  8
CALQUE_1
 62
     1
100
AcDbSpline
210
0.0
220
0.0
230
1.0
 70
     8
 71
     3
 72
     8
 73
     4
 74
     0
 42
0.000000001
 43
0.0000000001
 40
0.0
 40
0.0
 40
0.0
 40
0.0
 40
1.0
 40
1.0
 40
1.0
 40
1.0
 10
86.91026264572885
 20
253.82426
 30
0.0
 10
86.10833464572884
 20
254.790525
 30
0.0
 10
88.46641564572886
 20
257.443242
 30
0.0
 10
90.81680364572886
 20
258.218945
 30
0.0
  0
SPLINE
  5
1553
330
1F
100
AcDbEntity
  8
CALQUE_1
 62
     1
100
AcDbSpline
210
0.0
220
0.0
230
1.0
 70
     8
 71
     3
 72
     8
 73
     4
 74
     0
 42
0.000000001
 43
0.0000000001
 40
0.0
 40
0.0
 40
0.0
 40
0.0
 40
1.0
 40
1.0
 40
1.0
 40
1.0
 10
90.81680364572886
 20
258.218945
 30
0.0
 10
93.19201864572885
 20
259.002836
 30
0.0
 10
93.17404464572884
 20
257.662313
 30
0.0
 10
90.77672464572884
 20
255.229325
 30
0.0
  0
SPLINE
  5
1554
330
1F
100
AcDbEntity
  8
CALQUE_1
 62
     1
100
AcDbSpline
210
0.0
220
0.0
230
1.0
 70
     8
 71
     3
 72
     8
 73
     4
 74
     0
 42
0.000000001
 43
0.0000000001
 40
0.0
 40
0.0
 40
0.0
 40
0.0
 40
1.0
 40
1.0
 40
1.0
 40
1.0
 10
90.77672464572884
 20
255.229325
 30
0.0
 10
88.84636464572885
 20
253.270247
 30
0.0
 10
87.71212264572886
 20
252.858067
 30
0.0
 10
86.91026264572885
 20
253.82426
 30
0.0
  0
SPLINE
  5
155A
330
1F
100
AcDbEntity
  8
CALQUE_1
 62
     1
100
AcDbSpline
210
0.0
220
0.0
230
1.0
 70
     8
 71
     3
 72
     8
 73
     4
 74
     0
 42
0.000000001
 43
0.0000000001
 40
0.0
 40
0.0
 40
0.0
 40
0.0
 40
1.0
 40
1.0
 40
1.0
 40
1.0
 10
99.62299064572885
 20
253.572531
 30
0.0
 10
99.34995464572885
 20
253.643883
 30
0.0
 10
99.12655064572886
 20
253.810187
 30
0.0
 10
99.12655064572886
 20
253.942096
 30
0.0
  0
SPLINE
  5
155B
330
1F
100
AcDbEntity
  8
CALQUE_1
 62
     1
100
AcDbSpline
210
0.0
220
0.0
230
1.0
 70
     8
 71
     3
 72
     8
 73
     4
 74
     0
 42
0.000000001
 43
0.0000000001
 40
0.0
 40
0.0
 40
0.0
 40
0.0
 40
1.0
 40
1.0
 40
1.0
 40
1.0
 10
99.12655064572886
 20
253.942096
 30
0.0
 10
99.12655064572886
 20
254.074002
 30
0.0
 10
98.66133864572885
 20
254.607179
 30
0.0
 10
98.09277664572885
 20
255.126935
 30
0.0
  0
SPLINE
  5
155C
330
1F
100
AcDbEntity
  8
CALQUE_1
 62
     1
100
AcDbSpline
210
0.0
220
0.0
230
1.0
 70
     8
 71
     3
 72
     8
 73
     4
 74
     0
 42
0.000000001
 43
0.0000000001
 40
0.0
 40
0.0
 40
0.0
 40
0.0
 40
1.0
 40
1.0
 40
1.0
 40
1.0
 10
98.09277664572885
 20
255.126935
 30
0.0
 10
97.52419264572885
 20
255.646686
 30
0.0
 10
96.82209664572885
 20
256.295336
 30
0.0
 10
96.53253964572884
 20
256.568379
 30
0.0
  0
SPLINE
  5
155D
330
1F
100
AcDbEntity
  8
CALQUE_1
 62
     1
100
AcDbSpline
210
0.0
220
0.0
230
1.0
 70
     8
 71
     3
 72
     8
 73
     4
 74
     0
 42
0.000000001
 43
0.0000000001
 40
0.0
 40
0.0
 40
0.0
 40
0.0
 40
1.0
 40
1.0
 40
1.0
 40
1.0
 10
96.53253964572884
 20
256.568379
 30
0.0
 10
95.78475964572886
 20
257.273518
 30
0.0
 10
95.85828964572886
 20
258.151633
 30
0.0
 10
96.68243564572884
 20
258.358484
 30
0.0
  0
SPLINE
  5
155E
330
1F
100
AcDbEntity
  8
CALQUE_1
 62
     1
100
AcDbSpline
210
0.0
220
0.0
230
1.0
 70
     8
 71
     3
 72
     8
 73
     4
 74
     0
 42
0.000000001
 43
0.0000000001
 40
0.0
 40
0.0
 40
0.0
 40
0.0
 40
1.0
 40
1.0
 40
1.0
 40
1.0
 10
96.68243564572884
 20
258.358484
 30
0.0
 10
98.15273564572885
 20
258.727503
 30
0.0
 10
101.9633476457288
 20
255.949803
 30
0.0
 10
101.9633476457288
 20
254.509042
 30
0.0
  0
SPLINE
  5
155F
330
1F
100
AcDbEntity
  8
CALQUE_1
 62
     1
100
AcDbSpline
210
0.0
220
0.0
230
1.0
 70
     8
 71
     3
 72
     8
 73
     4
 74
     0
 42
0.000000001
 43
0.0000000001
 40
0.0
 40
0.0
 40
0.0
 40
0.0
 40
1.0
 40
1.0
 40
1.0
 40
1.0
 10
101.9633476457288
 20
254.509042
 30
0.0
 10
101.9633476457288
 20
253.484191
 30
0.0
 10
101.1723126457288
 20
253.167653
 30
0.0
 10
99.62299064572885
 20
253.572531
 30
0.0
  0
SPLINE
  5
1565
330
1F
100
AcDbEntity
  8
CALQUE_1
 62
     1
100
AcDbSpline
210
0.0
220
0.0
230
1.0
 70
     8
 71
     3
 72
     8
 73
     4
 74
     0
 42
0.000000001
 43
0.0000000001
 40
0.0
 40
0.0
 40
0.0
 40
0.0
 40
1.0
 40
1.0
 40
1.0
 40
1.0
 10
107.1326936457288
 20
258.924819
 30
0.0
 10
105.8605156457288
 20
259.815891
 30
0.0
 10
106.7508156457288
 20
260.86335
 30
0.0
 10
109.0553376457288
 20
261.18686
 30
0.0
  0
SPLINE
  5
1566
330
1F
100
AcDbEntity
  8
CALQUE_1
 62
     1
100
AcDbSpline
210
0.0
220
0.0
230
1.0
 70
     8
 71
     3
 72
     8
 73
     4
 74
     0
 42
0.000000001
 43
0.0000000001
 40
0.0
 40
0.0
 40
0.0
 40
0.0
 40
1.0
 40
1.0
 40
1.0
 40
1.0
 10
109.0553376457288
 20
261.18686
 30
0.0
 10
109.7574336457288
 20
261.285424
 30
0.0
 10
110.6678176457288
 20
261.492576
 30
0.0
 10
111.0783596457288
 20
261.6472
 30
0.0
  0
SPLINE
  5
1567
330
1F
100
AcDbEntity
  8
CALQUE_1
 62
     1
100
AcDbSpline
210
0.0
220
0.0
230
1.0
 70
     8
 71
     3
 72
     8
 73
     4
 74
     0
 42
0.000000001
 43
0.0000000001
 40
0.0
 40
0.0
 40
0.0
 40
0.0
 40
1.0
 40
1.0
 40
1.0
 40
1.0
 10
111.0783596457288
 20
261.6472
 30
0.0
 10
111.9535676457288
 20
261.976813
 30
0.0
 10
112.9134036457288
 20
263.587697
 30
0.0
 10
112.6474936457288
 20
264.280656
 30
0.0
  0
SPLINE
  5
1568
330
1F
100
AcDbEntity
  8
CALQUE_1
 62
     1
100
AcDbSpline
210
0.0
220
0.0
230
1.0
 70
     8
 71
     3
 72
     8
 73
     4
 74
     0
 42
0.000000001
 43
0.0000000001
 40
0.0
 40
0.0
 40
0.0
 40
0.0
 40
1.0
 40
1.0
 40
1.0
 40
1.0
 10
112.6474936457288
 20
264.280656
 30
0.0
 10
112.4791696457288
 20
264.719295
 30
0.0
 10
112.3581406457288
 20
264.703616
 30
0.0
 10
111.2908696457288
 20
264.1049339999999
 30
0.0
  0
SPLINE
  5
1569
330
1F
100
AcDbEntity
  8
CALQUE_1
 62
     1
100
AcDbSpline
210
0.0
220
0.0
230
1.0
 70
     8
 71
     3
 72
     8
 73
     4
 74
     0
 42
0.000000001
 43
0.0000000001
 40
0.0
 40
0.0
 40
0.0
 40
0.0
 40
1.0
 40
1.0
 40
1.0
 40
1.0
 10
111.2908696457288
 20
264.1049339999999
 30
0.0
 10
110.6463716457288
 20
263.743404
 30
0.0
 10
110.0575436457288
 20
263.288039
 30
0.0
 10
109.9823576457288
 20
263.093008
 30
0.0
  0
SPLINE
  5
156A
330
1F
100
AcDbEntity
  8
CALQUE_1
 62
     1
100
AcDbSpline
210
0.0
220
0.0
230
1.0
 70
     8
 71
     3
 72
     8
 73
     4
 74
     0
 42
0.000000001
 43
0.0000000001
 40
0.0
 40
0.0
 40
0.0
 40
0.0
 40
1.0
 40
1.0
 40
1.0
 40
1.0
 10
109.9823576457288
 20
263.093008
 30
0.0
 10
109.7729786457288
 20
262.549845
 30
0.0
 10
108.6503116457288
 20
262.670899
 30
0.0
 10
107.8168376457288
 20
263.326517
 30
0.0
  0
SPLINE
  5
156B
330
1F
100
AcDbEntity
  8
CALQUE_1
 62
     1
100
AcDbSpline
210
0.0
220
0.0
230
1.0
 70
     8
 71
     3
 72
     8
 73
     4
 74
     0
 42
0.000000001
 43
0.0000000001
 40
0.0
 40
0.0
 40
0.0
 40
0.0
 40
1.0
 40
1.0
 40
1.0
 40
1.0
 10
107.8168376457288
 20
263.326517
 30
0.0
 10
107.4056156457288
 20
263.649973
 30
0.0
 10
106.7393096457288
 20
264.477487
 30
0.0
 10
106.3361436457288
 20
265.16543
 30
0.0
  0
SPLINE
  5
156C
330
1F
100
AcDbEntity
  8
CALQUE_1
 62
     1
100
AcDbSpline
210
0.0
220
0.0
230
1.0
 70
     8
 71
     3
 72
     8
 73
     4
 74
     0
 42
0.000000001
 43
0.0000000001
 40
0.0
 40
0.0
 40
0.0
 40
0.0
 40
1.0
 40
1.0
 40
1.0
 40
1.0
 10
106.3361436457288
 20
265.16543
 30
0.0
 10
105.9330006457288
 20
265.853376
 30
0.0
 10
105.2064406457288
 20
266.750024
 30
0.0
 10
104.7216206457288
 20
267.157985
 30
0.0
  0
SPLINE
  5
156D
330
1F
100
AcDbEntity
  8
CALQUE_1
 62
     1
100
AcDbSpline
210
0.0
220
0.0
230
1.0
 70
     8
 71
     3
 72
     8
 73
     4
 74
     0
 42
0.000000001
 43
0.0000000001
 40
0.0
 40
0.0
 40
0.0
 40
0.0
 40
1.0
 40
1.0
 40
1.0
 40
1.0
 10
104.7216206457288
 20
267.157985
 30
0.0
 10
103.9811266457288
 20
267.781063
 30
0.0
 10
103.6625426457288
 20
267.87133
 30
0.0
 10
102.7300996457288
 20
267.722233
 30
0.0
  0
SPLINE
  5
156E
330
1F
100
AcDbEntity
  8
CALQUE_1
 62
     1
100
AcDbSpline
210
0.0
220
0.0
230
1.0
 70
     8
 71
     3
 72
     8
 73
     4
 74
     0
 42
0.000000001
 43
0.0000000001
 40
0.0
 40
0.0
 40
0.0
 40
0.0
 40
1.0
 40
1.0
 40
1.0
 40
1.0
 10
102.7300996457288
 20
267.722233
 30
0.0
 10
101.3369376457288
 20
267.499453
 30
0.0
 10
100.2282496457288
 20
266.942245
 30
0.0
 10
98.39036864572884
 20
265.541161
 30
0.0
  0
SPLINE
  5
156F
330
1F
100
AcDbEntity
  8
CALQUE_1
 62
     1
100
AcDbSpline
210
0.0
220
0.0
230
1.0
 70
     8
 71
     3
 72
     8
 73
     4
 74
     0
 42
0.000000001
 43
0.0000000001
 40
0.0
 40
0.0
 40
0.0
 40
0.0
 40
1.0
 40
1.0
 40
1.0
 40
1.0
 10
98.39036864572884
 20
265.541161
 30
0.0
 10
97.05026564572886
 20
264.519549
 30
0.0
 10
96.84880764572884
 20
264.452478
 30
0.0
 10
95.62449164572884
 20
264.620289
 30
0.0
  0
SPLINE
  5
1570
330
1F
100
AcDbEntity
  8
CALQUE_1
 62
     1
100
AcDbSpline
210
0.0
220
0.0
230
1.0
 70
     8
 71
     3
 72
     8
 73
     4
 74
     0
 42
0.000000001
 43
0.0000000001
 40
0.0
 40
0.0
 40
0.0
 40
0.0
 40
1.0
 40
1.0
 40
1.0
 40
1.0
 10
95.62449164572884
 20
264.620289
 30
0.0
 10
94.67178264572885
 20
264.750872
 30
0.0
 10
94.30456464572886
 20
264.928812
 30
0.0
 10
94.30601764572884
 20
265.259163
 30
0.0
  0
SPLINE
  5
1571
330
1F
100
AcDbEntity
  8
CALQUE_1
 62
     1
100
AcDbSpline
210
0.0
220
0.0
230
1.0
 70
     8
 71
     3
 72
     8
 73
     4
 74
     0
 42
0.000000001
 43
0.0000000001
 40
0.0
 40
0.0
 40
0.0
 40
0.0
 40
1.0
 40
1.0
 40
1.0
 40
1.0
 10
94.30601764572884
 20
265.259163
 30
0.0
 10
94.30851364572886
 20
265.838761
 30
0.0
 10
97.21861264572886
 20
268.271237
 30
0.0
 10
99.33227564572886
 20
269.460587
 30
0.0
  0
SPLINE
  5
1572
330
1F
100
AcDbEntity
  8
CALQUE_1
 62
     1
100
AcDbSpline
210
0.0
220
0.0
230
1.0
 70
     8
 71
     3
 72
     8
 73
     4
 74
     0
 42
0.000000001
 43
0.0000000001
 40
0.0
 40
0.0
 40
0.0
 40
0.0
 40
1.0
 40
1.0
 40
1.0
 40
1.0
 10
99.33227564572886
 20
269.460587
 30
0.0
 10
102.6368706457288
 20
271.320075
 30
0.0
 10
104.5808246457288
 20
271.009133
 30
0.0
 10
107.2781866457288
 20
268.189628
 30
0.0
  0
SPLINE
  5
1574
330
1F
100
AcDbEntity
  8
CALQUE_1
 62
     1
100
AcDbSpline
210
0.0
220
0.0
230
1.0
 70
     8
 71
     3
 72
     8
 73
     4
 74
     0
 42
0.000000001
 43
0.0000000001
 40
0.0
 40
0.0
 40
0.0
 40
0.0
 40
1.0
 40
1.0
 40
1.0
 40
1.0
 10
110.9892156457288
 20
266.818463
 30
0.0
 10
114.3076316457288
 20
267.67915
 30
0.0
 10
115.4920966457288
 20
266.86569
 30
0.0
 10
115.2240986457288
 20
263.910046
 30
0.0
  0
SPLINE
  5
1575
330
1F
100
AcDbEntity
  8
CALQUE_1
 62
     1
100
AcDbSpline
210
0.0
220
0.0
230
1.0
 70
     8
 71
     3
 72
     8
 73
     4
 74
     0
 42
0.000000001
 43
0.0000000001
 40
0.0
 40
0.0
 40
0.0
 40
0.0
 40
1.0
 40
1.0
 40
1.0
 40
1.0
 10
115.2240986457288
 20
263.910046
 30
0.0
 10
114.9411226457288
 20
260.789318
 30
0.0
 10
113.9048066457288
 20
259.737623
 30
0.0
 10
110.6535656457288
 20
259.271705
 30
0.0
  0
SPLINE
  5
1576
330
1F
100
AcDbEntity
  8
CALQUE_1
 62
     1
100
AcDbSpline
210
0.0
220
0.0
230
1.0
 70
     8
 71
     3
 72
     8
 73
     4
 74
     0
 42
0.000000001
 43
0.0000000001
 40
0.0
 40
0.0
 40
0.0
 40
0.0
 40
1.0
 40
1.0
 40
1.0
 40
1.0
 10
110.6535656457288
 20
259.271705
 30
0.0
 10
109.5404976457288
 20
259.1121950000001
 30
0.0
 10
108.5085396457288
 20
258.869529
 30
0.0
 10
108.3603226457288
 20
258.73245
 30
0.0
  0
SPLINE
  5
1577
330
1F
100
AcDbEntity
  8
CALQUE_1
 62
     1
100
AcDbSpline
210
0.0
220
0.0
230
1.0
 70
     8
 71
     3
 72
     8
 73
     4
 74
     0
 42
0.000000001
 43
0.0000000001
 40
0.0
 40
0.0
 40
0.0
 40
0.0
 40
1.0
 40
1.0
 40
1.0
 40
1.0
 10
108.3603226457288
 20
258.73245
 30
0.0
 10
107.9937176457288
 20
258.393401
 30
0.0
 10
107.8619086457288
 20
258.4140529999999
 30
0.0
 10
107.1326936457288
 20
258.924819
 30
0.0
  0
LINE
  5
101005B
330
1F
100
AcDbEntity
  8
CALQUE_1
 62
     1
100
AcDbLine
 10
107.1326936457288
 20
258.924819
 30
0.0
 11
107.1326936457288
 21
258.924819
 31
0.0
  0
LINE
  5
101005C
330
1F
100
AcDbEntity
  8
CALQUE_1
 62
     1
100
AcDbLine
 10
107.1326936457288
 20
258.924819
 30
0.0
 11
107.1326936457288
 21
258.924819
 31
0.0
  0
LINE
  5
101005D
330
1F
100
AcDbEntity
  8
CALQUE_1
 62
     1
100
AcDbLine
 10
107.2781866457288
 20
268.189628
 30
0.0
 11
109.0669116457288
 21
266.319882
 31
0.0
  0
LINE
  5
101005E
330
1F
100
AcDbEntity
  8
CALQUE_1
 62
     1
100
AcDbLine
 10
109.0669116457288
 20
266.319882
 30
0.0
 11
110.9892156457288
 21
266.818463
 31
0.0
  0
LINE
  5
1010062
330
1F
100
AcDbEntity
  8
CALQUE_1
 62
     1
100
AcDbLine
 10
99.62299064572885
 20
253.572531
 30
0.0
 11
99.62299064572885
 21
253.572531
 31
0.0
  0
LINE
  5
1010063
330
1F
100
AcDbEntity
  8
CALQUE_1
 62
     1
100
AcDbLine
 10
99.62299064572885
 20
253.572531
 30
0.0
 11
99.62299064572885
 21
253.572531
 31
0.0
  0
LINE
  5
1010066
330
1F
100
AcDbEntity
  8
CALQUE_1
 62
     1
100
AcDbLine
 10
86.91026264572885
 20
253.82426
 30
0.0
 11
86.91026264572885
 21
253.82426
 31
0.0
  0
LINE
  5
1010067
330
1F
100
AcDbEntity
  8
CALQUE_1
 62
     1
100
AcDbLine
 10
86.91026264572885
 20
253.82426
 30
0.0
 11
86.91026264572885
 21
253.82426
 31
0.0
  0
LINE
  5
101006A
330
1F
100
AcDbEntity
  8
CALQUE_1
 62
     1
100
AcDbLine
 10
96.29683564572886
 20
246.622828
 30
0.0
 11
96.29683564572886
 21
246.622828
 31
0.0
  0
LINE
  5
101006B
330
1F
100
AcDbEntity
  8
CALQUE_1
 62
     1
100
AcDbLine
 10
96.29683564572886
 20
246.622828
 30
0.0
 11
96.29683564572886
 21
246.622828
 31
0.0
  0
LINE
  5
101006E
330
1F
100
AcDbEntity
  8
CALQUE_1
 62
     1
100
AcDbLine
 10
88.77319764572884
 20
246.072233
 30
0.0
 11
88.77319764572884
 21
246.072233
 31
0.0
  0
LINE
  5
101006F
330
1F
100
AcDbEntity
  8
CALQUE_1
 62
     1
100
AcDbLine
 10
88.77319764572884
 20
246.072233
 30
0.0
 11
88.77319764572884
 21
246.072233
 31
0.0
  0
LINE
  5
1010075
330
1F
100
AcDbEntity
  8
CALQUE_1
 62
     1
100
AcDbLine
 10
90.87800964572885
 20
238.036463
 30
0.0
 11
90.87800964572885
 21
238.036463
 31
0.0
  0
LINE
  5
1010076
330
1F
100
AcDbEntity
  8
CALQUE_1
 62
     1
100
AcDbLine
 10
90.87800964572885
 20
238.036463
 30
0.0
 11
90.87800964572885
 21
238.036463
 31
0.0
  0
LINE
  5
101007D
330
1F
100
AcDbEntity
  8
CALQUE_1
 62
     1
100
AcDbLine
 10
128.9129116457288
 20
236.369952
 30
0.0
 11
128.9129116457288
 21
236.369952
 31
0.0
  0
LINE
  5
101007E
330
1F
100
AcDbEntity
  8
CALQUE_1
 62
     1
100
AcDbLine
 10
128.9129116457288
 20
236.369952
 30
0.0
 11
128.9129116457288
 21
236.369952
 31
0.0
  0
LINE
  5
101007F
330
1F
100
AcDbEntity
  8
CALQUE_1
 62
     1
100
AcDbLine
 10
108.6116626457288
 20
257.461861
 30
0.0
 11
108.4051666457288
 21
258.284423
 31
0.0
  0
LINE
  5
1010080
330
1F
100
AcDbEntity
  8
CALQUE_1
 62
     1
100
AcDbLine
 10
108.4051666457288
 20
258.284423
 30
0.0
 11
112.0634766457288
 21
258.127316
 31
0.0
  0
LINE
  5
1010082
330
1F
100
AcDbEntity
  8
CALQUE_1
 62
     1
100
AcDbLine
 10
115.0092286457288
 20
242.400686
 30
0.0
 11
112.9672566457288
 21
242.742581
 31
0.0
  0
LINE
  5
1010083
330
1F
100
AcDbEntity
  8
CALQUE_1
 62
     1
100
AcDbLine
 10
112.9672566457288
 20
242.742581
 30
0.0
 11
111.4194556457288
 21
245.719426
 31
0.0
  0
LINE
  5
1010087
330
1F
100
AcDbEntity
  8
CALQUE_1
 62
     1
100
AcDbLine
 10
123.6248056457288
 20
232.393998
 30
0.0
 11
123.6248056457288
 21
232.393998
 31
0.0
  0
LINE
  5
1010088
330
1F
100
AcDbEntity
  8
CALQUE_1
 62
     1
100
AcDbLine
 10
123.6248056457288
 20
232.393998
 30
0.0
 11
123.6248056457288
 21
232.393998
 31
0.0
  0
LINE
  5
101008B
330
1F
100
AcDbEntity
  8
CALQUE_1
 62
     1
100
AcDbLine
 10
92.35119264572885
 20
227.760659
 30
0.0
 11
92.35119264572885
 21
227.760659
 31
0.0
  0
LINE
  5
101008C
330
1F
100
AcDbEntity
  8
CALQUE_1
 62
     1
100
AcDbLine
 10
92.35119264572885
 20
227.760659
 30
0.0
 11
92.35119264572885
 21
227.760659
 31
0.0
  0
LINE
  5
101008F
330
1F
100
AcDbEntity
  8
CALQUE_1
 62
     1
100
AcDbLine
 10
108.2043216457288
 20
227.28107
 30
0.0
 11
108.2042986457288
 21
227.28107
 31
0.0
  0
LINE
  5
1010090
330
1F
100
AcDbEntity
  8
CALQUE_1
 62
     1
100
AcDbLine
 10
108.2042986457288
 20
227.28107
 30
0.0
 11
108.2043216457288
 21
227.28107
 31
0.0
  0
LINE
  5
1010091
330
1F
100
AcDbEntity
  8
CALQUE_1
 62
     1
100
AcDbLine
 10
110.6026626457288
 20
235.989465
 30
0.0
 11
110.6155986457288
 21
238.60136
 31
0.0
  0
LINE
  5
1010092
330
1F
100
AcDbEntity
  8
CALQUE_1
 62
     1
100
AcDbLine
 10
110.6155986457288
 20
238.60136
 30
0.0
 11
108.5586036457288
 21
242.655936
 31
0.0
  0
LINE
  5
1010096
330
1F
100
AcDbEntity
  8
CALQUE_1
 62
     1
100
AcDbLine
 10
78.52973064572885
 20
226.128798
 30
0.0
 11
78.52973064572885
 21
226.128798
 31
0.0
  0
LINE
  5
1010097
330
1F
100
AcDbEntity
  8
CALQUE_1
 62
     1
100
AcDbLine
 10
78.52973064572885
 20
226.128798
 30
0.0
 11
78.52973064572885
 21
226.128798
 31
0.0
  0
LINE
  5
101009D
330
1F
100
AcDbEntity
  8
CALQUE_1
 62
     1
100
AcDbLine
 10
92.71568664572885
 20
222.712756
 30
0.0
 11
92.71568664572885
 21
222.712756
 31
0.0
  0
LINE
  5
101009E
330
1F
100
AcDbEntity
  8
CALQUE_1
 62
     1
100
AcDbLine
 10
92.71568664572885
 20
222.712756
 30
0.0
 11
92.71568664572885
 21
222.712756
 31
0.0
  0
LINE
  5
10100A7
330
1F
100
AcDbEntity
  8
CALQUE_1
 62
     1
100
AcDbLine
 10
152.7519846457288
 20
214.777883
 30
0.0
 11
152.7519846457288
 21
214.777904
 31
0.0
  0
LINE
  5
10100A8
330
1F
100
AcDbEntity
  8
CALQUE_1
 62
     1
100
AcDbLine
 10
152.7519846457288
 20
214.777904
 30
0.0
 11
152.7519846457288
 21
214.777883
 31
0.0
  0
LINE
  5
10100B1
330
1F
100
AcDbEntity
  8
CALQUE_1
 62
     1
100
AcDbLine
 10
59.27893664572884
 20
212.795639
 30
0.0
 11
59.27893664572884
 21
212.795639
 31
0.0
  0
LINE
  5
10100B2
330
1F
100
AcDbEntity
  8
CALQUE_1
 62
     1
100
AcDbLine
 10
59.27893664572884
 20
212.795639
 30
0.0
 11
59.27893664572884
 21
212.795639
 31
0.0
  0
LINE
  5
10100B3
330
1F
100
AcDbEntity
  8
CALQUE_1
 62
     1
100
AcDbLine
 10
73.51096164572886
 20
228.905199
 30
0.0
 11
74.24419464572884
 21
227.269621
 31
0.0
  0
LINE
  5
10100B4
330
1F
100
AcDbEntity
  8
CALQUE_1
 62
     1
100
AcDbLine
 10
74.24419464572884
 20
227.269621
 30
0.0
 11
72.56174764572884
 21
225.501043
 31
0.0
  0
LINE
  5
10100B8
330
1F
100
AcDbEntity
  8
CALQUE_1
 62
     1
100
AcDbLine
 10
62.46095964572885
 20
209.852576
 30
0.0
 11
62.46095964572885
 21
209.852576
 31
0.0
  0
LINE
  5
10100B9
330
1F
100
AcDbEntity
  8
CALQUE_1
 62
     1
100
AcDbLine
 10
62.46095964572885
 20
209.852576
 30
0.0
 11
62.46095964572885
 21
209.852576
 31
0.0
  0
LINE
  5
10100C7
330
1F
100
AcDbEntity
  8
CALQUE_1
 62
     1
100
AcDbLine
 10
129.2898416457288
 20
200.45875
 30
0.0
 11
129.2898416457288
 21
200.45875
 31
0.0
  0
LINE
  5
10100C8
330
1F
100
AcDbEntity
  8
CALQUE_1
 62
     1
100
AcDbLine
 10
129.2898416457288
 20
200.45875
 30
0.0
 11
129.2898416457288
 21
200.45875
 31
0.0
  0
LINE
  5
10100C9
330
1F
100
AcDbEntity
  8
CALQUE_1
 62
     1
100
AcDbLine
 10
150.3781316457289
 20
203.550665
 30
0.0
 11
148.1561026457288
 21
204.867844
 31
0.0
  0
LINE
  5
10100CA
330
1F
100
AcDbEntity
  8
CALQUE_1
 62
     1
100
AcDbLine
 10
148.1561026457288
 20
204.867844
 30
0.0
 11
145.9338246457288
 21
204.300447
 31
0.0
  0
LINE
  5
10100CC
330
1F
100
AcDbEntity
  8
CALQUE_1
 62
     1
100
AcDbLine
 10
166.9419796457288
 20
208.444239
 30
0.0
 11
166.0568996457288
 21
207.562724
 31
0.0
  0
LINE
  5
10100CD
330
1F
100
AcDbEntity
  8
CALQUE_1
 62
     1
100
AcDbLine
 10
166.0568996457288
 20
207.562724
 30
0.0
 11
162.3667946457288
 21
207.611117
 31
0.0
  0
LINE
  5
10100CE
330
1F
100
AcDbEntity
  8
CALQUE_1
 62
     1
100
AcDbLine
 10
162.3667946457288
 20
207.611117
 30
0.0
 11
158.6766906457288
 21
207.659508
 31
0.0
  0
LINE
  5
10100CF
330
1F
100
AcDbEntity
  8
CALQUE_1
 62
     1
100
AcDbLine
 10
158.6766906457288
 20
207.659508
 30
0.0
 11
159.9162796457288
 21
206.713006
 31
0.0
  0
LINE
  5
10100D1
330
1F
100
AcDbEntity
  8
CALQUE_1
 62
     1
100
AcDbLine
 10
160.8630886457288
 20
213.531636
 30
0.0
 11
158.5574316457288
 21
214.141765
 31
0.0
  0
LINE
  5
10100D2
330
1F
100
AcDbEntity
  8
CALQUE_1
 62
     1
100
AcDbLine
 10
158.5574316457288
 20
214.141765
 30
0.0
 11
158.5574316457288
 21
215.532957
 31
0.0
  0
LINE
  5
10100D4
330
1F
100
AcDbEntity
  8
CALQUE_1
 62
     1
100
AcDbLine
 10
133.3162316457288
 20
211.590214
 30
0.0
 11
134.3893576457288
 21
211.764357
 31
0.0
  0
LINE
  5
10100D5
330
1F
100
AcDbEntity
  8
CALQUE_1
 62
     1
100
AcDbLine
 10
134.3893576457288
 20
211.764357
 30
0.0
 11
134.2370556457288
 21
210.65642
 31
0.0
  0
LINE
  5
10100DC
330
1F
100
AcDbEntity
  8
CALQUE_1
 62
     1
100
AcDbLine
 10
69.18387164572884
 20
196.773786
 30
0.0
 11
69.18387164572884
 21
196.773786
 31
0.0
  0
LINE
  5
10100DD
330
1F
100
AcDbEntity
  8
CALQUE_1
 62
     1
100
AcDbLine
 10
69.18387164572884
 20
196.773786
 30
0.0
 11
69.18387164572884
 21
196.773786
 31
0.0
  0
LINE
  5
10100E9
330
1F
100
AcDbEntity
  8
CALQUE_1
 62
     1
100
AcDbLine
 10
66.36155464572884
 20
188.605002
 30
0.0
 11
66.36155464572884
 21
188.605007
 31
0.0
  0
LINE
  5
10100EA
330
1F
100
AcDbEntity
  8
CALQUE_1
 62
     1
100
AcDbLine
 10
66.36155464572884
 20
188.605007
 30
0.0
 11
66.36155464572884
 21
188.605002
 31
0.0
  0
LINE
  5
10100EB
330
1F
100
AcDbEntity
  8
CALQUE_1
 62
     1
100
AcDbLine
 10
57.29118264572885
 20
196.766474
 30
0.0
 11
58.45338364572885
 21
196.416702
 31
0.0
  0
LINE
  5
10100EC
330
1F
100
AcDbEntity
  8
CALQUE_1
 62
     1
100
AcDbLine
 10
58.45338364572885
 20
196.416702
 30
0.0
 11
58.33283164572884
 21
197.238074
 31
0.0
  0
LINE
  5
10100EE
330
1F
100
AcDbEntity
  8
CALQUE_1
 62
     1
100
AcDbLine
 10
43.47028864572884
 20
208.643507
 30
0.0
 11
45.22576664572884
 21
209.001594
 31
0.0
  0
LINE
  5
10100EF
330
1F
100
AcDbEntity
  8
CALQUE_1
 62
     1
100
AcDbLine
 10
45.22576664572884
 20
209.001594
 30
0.0
 11
44.44648664572885
 21
209.460447
 31
0.0
  0
LINE
  5
10100F1
330
1F
100
AcDbEntity
  8
CALQUE_1
 62
     1
100
AcDbLine
 10
53.33348864572885
 20
195.386255
 30
0.0
 11
51.65258464572885
 21
196.400173
 31
0.0
  0
LINE
  5
10100F2
330
1F
100
AcDbEntity
  8
CALQUE_1
 62
     1
100
AcDbLine
 10
51.65258464572885
 20
196.400173
 30
0.0
 11
49.50381364572884
 21
195.406158
 31
0.0
  0
LINE
  5
10100F6
330
1F
100
AcDbEntity
  8
CALQUE_1
 62
     1
100
AcDbLine
 10
93.37695464572885
 20
178.353949
 30
0.0
 11
93.37695464572885
 21
178.353949
 31
0.0
  0
LINE
  5
10100F7
330
1F
100
AcDbEntity
  8
CALQUE_1
 62
     1
100
AcDbLine
 10
93.37695464572885
 20
178.353949
 30
0.0
 11
93.37695464572885
 21
178.353949
 31
0.0
  0
LINE
  5
1010100
330
1F
100
AcDbEntity
  8
CALQUE_1
 62
     1
100
AcDbLine
 10
71.32594764572885
 20
175.403813
 30
0.0
 11
71.32594764572885
 21
175.403813
 31
0.0
  0
LINE
  5
1010101
330
1F
100
AcDbEntity
  8
CALQUE_1
 62
     1
100
AcDbLine
 10
71.32594764572885
 20
175.403813
 30
0.0
 11
71.32594764572885
 21
175.403813
 31
0.0
  0
LINE
  5
1010102
330
1F
100
AcDbEntity
  8
CALQUE_1
 62
     1
100
AcDbLine
 10
76.57806064572885
 20
196.206561
 30
0.0
 11
77.14945964572885
 21
195.21026
 31
0.0
  0
LINE
  5
1010103
330
1F
100
AcDbEntity
  8
CALQUE_1
 62
     1
100
AcDbLine
 10
77.14945964572885
 20
195.21026
 30
0.0
 11
83.81189064572884
 21
199.99106
 31
0.0
  0
LINE
  5
1010105
330
1F
100
AcDbEntity
  8
CALQUE_1
 62
     1
100
AcDbLine
 10
115.3179626457288
 20
159.605881
 30
0.0
 11
115.3179626457288
 21
159.605881
 31
0.0
  0
LINE
  5
1010106
330
1F
100
AcDbEntity
  8
CALQUE_1
 62
     1
100
AcDbLine
 10
115.3179626457288
 20
159.605881
 30
0.0
 11
115.3179626457288
 21
159.605881
 31
0.0
  0
LINE
  5
101010D
330
1F
100
AcDbEntity
  8
CALQUE_1
 62
     1
100
AcDbLine
 10
103.8072646457288
 20
158.540991
 30
0.0
 11
103.8072646457288
 21
158.540991
 31
0.0
  0
LINE
  5
101010E
330
1F
100
AcDbEntity
  8
CALQUE_1
 62
     1
100
AcDbLine
 10
103.8072646457288
 20
158.540991
 30
0.0
 11
103.8072646457288
 21
158.540991
 31
0.0
  0
LINE
  5
101010F
330
1F
100
AcDbEntity
  8
CALQUE_1
 62
     1
100
AcDbLine
 10
145.5183366457288
 20
203.095482
 30
0.0
 11
148.2430906457288
 21
203.713949
 31
0.0
  0
LINE
  5
1010110
330
1F
100
AcDbEntity
  8
CALQUE_1
 62
     1
100
AcDbLine
 10
148.2430906457288
 20
203.713949
 30
0.0
 11
151.4144926457288
 21
202.042572
 31
0.0
  0
ENDSEC
  0
SECTION
  2
OBJECTS
  0
DICTIONARY
  5
C
330
0
100
AcDbDictionary
281
     1
  3
ACAD_CIP_PREVIOUS_PRODUCT_INFO
350
1010056
  3
ACAD_COLOR
350
1010035
  3
ACAD_DETAILVIEWSTYLE
350
101004E
  3
ACAD_GROUP
350
D
  3
ACAD_LAYOUT
350
1010050
  3
ACAD_MATERIAL
350
1010003
  3
ACAD_MLEADERSTYLE
350
101004A
  3
ACAD_MLINESTYLE
350
17
  3
ACAD_PLOTSETTINGS
350
1010051
  3
ACAD_PLOTSTYLENAME
350
1010001
  3
ACAD_SCALELIST
350
1010038
  3
ACAD_SECTIONVIEWSTYLE
350
101004C
  3
ACAD_TABLESTYLE
350
1010036
  3
ACAD_VISUALSTYLE
350
101001C
  3
ACDB_RECOMPOSE_DATA
350
1010135
  3
AcDbVariableDictionary
350
1010122
  0
DICTIONARY
  5
1010118
330
50
100
AcDbDictionary
280
     1
281
     1
  3
ADSK_XREC_LAYER_RECONCILED
360
1010119
  0
DICTIONARY
  5
101011A
330
51
100
AcDbDictionary
280
     1
281
     1
  3
ADSK_XREC_LAYER_RECONCILED
360
101011B
  0
DICTIONARY
  5
1010059
330
1F
100
AcDbDictionary
280
     1
281
     1
  3
ACAD_SORTENTS
360
101005A
  0
XRECORD
  5
1010056
102
{ACAD_REACTORS
330
C
102
}
330
C
100
AcDbXrecord
280
     1
300
ACD
300
2017
300
ACD_F_S
  0
DICTIONARY
  5
1010035
102
{ACAD_REACTORS
330
C
102
}
330
C
100
AcDbDictionary
281
     1
  0
DICTIONARY
  5
101004E
102
{ACAD_REACTORS
330
C
102
}
330
C
100
AcDbDictionary
281
     1
  3
Metric50
350
101004F
  0
DICTIONARY
  5
D
330
C
100
AcDbDictionary
281
     1
  0
DICTIONARY
  5
1010050
102
{ACAD_REACTORS
330
C
102
}
330
C
100
AcDbDictionary
281
     1
  3
Model
350
1010052
  3
Présentation1
350
1010053
  0
DICTIONARY
  5
1010003
102
{ACAD_REACTORS
330
C
102
}
330
C
100
AcDbDictionary
281
     1
  3
ByBlock
350
101000C
  3
ByLayer
350
1010004
  3
Global
350
1010014
  0
DICTIONARY
  5
101004A
102
{ACAD_REACTORS
330
C
102
}
330
C
100
AcDbDictionary
281
     1
  3
Standard
350
101004B
  0
DICTIONARY
  5
17
330
C
100
AcDbDictionary
281
     1
  3
Standard
350
101012D
  0
DICTIONARY
  5
1010051
102
{ACAD_REACTORS
330
C
102
}
330
C
100
AcDbDictionary
281
     1
  0
ACDBDICTIONARYWDFLT
  5
1010001
102
{ACAD_REACTORS
330
C
102
}
330
C
100
AcDbDictionary
281
     1
  3
Normal
350
1010002
100
AcDbDictionaryWithDefault
340
1010002
  0
DICTIONARY
  5
1010038
102
{ACAD_REACTORS
330
C
102
}
330
C
100
AcDbDictionary
281
     1
  3
A0
350
1010039
  3
A1
350
101003A
  3
A2
350
101003B
  3
A3
350
101003C
  3
A4
350
101003D
  3
A5
350
101003E
  3
A6
350
101003F
  3
A7
350
1010040
  3
A8
350
1010041
  3
A9
350
1010042
  3
B0
350
1010043
  3
B1
350
1010044
  3
B2
350
1010045
  3
B3
350
1010046
  3
B4
350
1010047
  3
B5
350
1010048
  3
B6
350
1010049
  0
DICTIONARY
  5
101004C
102
{ACAD_REACTORS
330
C
102
}
330
C
100
AcDbDictionary
281
     1
  3
Metric50
350
101004D
  0
DICTIONARY
  5
1010036
102
{ACAD_REACTORS
330
C
102
}
330
C
100
AcDbDictionary
281
     1
  3
Standard
350
1010037
  0
DICTIONARY
  5
101001C
102
{ACAD_REACTORS
330
C
102
}
330
C
100
AcDbDictionary
281
     1
  3
2dWireframe
350
1010022
  3
Basic
350
1010021
  3
Brighten
350
1010028
  3
ColorChange
350
101002C
  3
Conceptual
350
1010025
  3
Dim
350
1010027
  3
EdgeColorOff
350
1010034
  3
Facepattern
350
101002B
  3
Flat
350
101001D
  3
FlatWithEdges
350
101001E
  3
Gouraud
350
101001F
  3
GouraudWithEdges
350
1010020
  3
Hidden
350
1010024
  3
JitterOff
350
1010032
  3
Linepattern
350
101002A
  3
OverhangOff
350
1010033
  3
Realistic
350
1010026
  3
Shaded
350
1010031
  3
Shaded with edges
350
1010030
  3
Shades of Gray
350
101002D
  3
Sketchy
350
101002E
  3
Thicken
350
1010029
  3
Wireframe
350
1010023
  3
X-Ray
350
101002F
  0
XRECORD
  5
1010135
102
{ACAD_REACTORS
330
C
102
}
330
C
100
AcDbXrecord
280
     1
 90
        1
330
1010037
330
101004D
330
101004F
  0
DICTIONARY
  5
1010122
102
{ACAD_REACTORS
330
C
102
}
330
C
100
AcDbDictionary
281
     1
  3
CANNOSCALE
350
1010128
  3
CMLEADERSTYLE
350
1010124
  3
CTABLESTYLE
350
1010123
  3
CVIEWDETAILSTYLE
350
1010125
  3
CVIEWSECTIONSTYLE
350
1010126
  3
LAYEREVAL
350
101012A
  3
LAYERNOTIFY
350
101012B
  3
LIGHTINGUNITS
350
1010129
  3
MSLTSCALE
350
1010127
  0
XRECORD
  5
1010119
102
{ACAD_REACTORS
330
1010118
102
}
330
1010118
100
AcDbXrecord
280
     1
290
     1
  0
XRECORD
  5
101011B
102
{ACAD_REACTORS
330
101011A
102
}
330
101011A
100
AcDbXrecord
280
     1
290
     1
  0
SORTENTSTABLE
  5
101005A
102
{ACAD_REACTORS
330
1010059
102
}
330
1010059
100
AcDbSortentsTable
330
1F
331
1010075
  5
10100A2
331
1534
  5
10100AB
331
1575
  5
10100F5
331
149D
  5
1546
331
13B2
  5
1456
331
1571
  5
10100F0
331
142E
  5
14B3
331
14A5
  5
154F
331
12B5
  5
12B5
331
1538
  5
10100AF
331
14A1
  5
154B
331
12B1
  5
12B1
331
12B9
  5
12B9
331
10100A8
  5
151D
331
10100F1
  5
1340
331
1306
  5
1322
331
10100B4
  5
14D0
331
1302
  5
131D
331
1316
  5
1334
331
137D
  5
13B7
331
1379
  5
13B2
331
14E4
  5
101006A
331
1545
  5
10100BE
331
14A9
  5
1554
331
1432
  5
14B7
331
14BD
  5
156E
331
143E
  5
14C5
331
14E8
  5
101006E
331
12D5
  5
12E1
331
12D1
  5
12DD
331
1010100
  5
1301
331
10100B9
  5
14C3
331
131E
  5
133E
331
131A
  5
1339
331
1010080
  5
1010088
331
1381
  5
13BB
331
1326
  5
1349
331
1395
  5
13D6
331
1322
  5
1344
331
1391
  5
13D2
331
14C6
  5
157A
331
101005D
  5
10100F8
331
1514
  5
101007E
331
14C2
  5
1575
331
1443
  5
14CC
331
155D
  5
10100DA
331
1457
  5
14EB
331
12DE
  5
12EC
331
1453
  5
14E6
331
1518
  5
1010084
331
12DA
  5
12E8
331
1010110
  5
12BD
331
12E2
  5
12F1
331
10100CD
  5
144E
331
101008C
  5
1010067
331
1010088
  5
101007A
331
10100C9
  5
1458
331
139E
  5
1433
331
10100D5
  5
143B
331
132F
  5
1352
331
139A
  5
142F
331
10100D1
  5
1443
331
1010090
  5
101005C
331
132B
  5
134E
331
1337
  5
135B
331
13A6
  5
143F
331
1333
  5
1357
331
13A2
  5
1438
331
145F
  5
1514
331
1527
  5
1010096
331
14DA
  5
101005E
331
145B
  5
14EF
331
156C
  5
10100EB
331
12FE
  5
1318
331
152B
  5
101009A
331
1493
  5
1538
331
1568
  5
10100E7
331
12AF
  5
12AF
331
12AB
  5
12AB
331
10100DC
  5
13C5
331
10100A7
  5
151C
331
10100EC
  5
1371
331
133F
  5
1367
331
133B
  5
1361
331
13AA
  5
1447
331
1343
  5
136C
331
1537
  5
10100AE
331
149E
  5
1547
331
1574
  5
10100F4
331
1570
  5
10100EF
331
13B3
  5
1457
331
1533
  5
10100AA
331
14A6
  5
1550
331
142F
  5
14B4
331
12B6
  5
12B6
331
14A2
  5
154C
331
12B2
  5
12B2
331
12BA
  5
12BA
331
1307
  5
1323
331
1303
  5
131E
331
10100B3
  5
14CF
331
1317
  5
1335
331
137E
  5
13B8
331
137A
  5
13B3
331
14E7
  5
101006D
331
1544
  5
10100BD
331
14AA
  5
1556
331
14E3
  5
1010069
331
1433
  5
14B8
331
14BE
  5
156F
331
143F
  5
14C6
331
1548
  5
10100C1
331
12CE
  5
12DA
331
12D6
  5
12E2
331
1010103
  5
12F3
331
12D2
  5
12DE
331
101007F
  5
1010087
331
101010F
  5
12BC
331
10100B8
  5
14C2
331
1010087
  5
1010079
331
131F
  5
133F
331
131B
  5
133A
331
1010083
  5
1010081
331
1382
  5
13BD
331
1327
  5
134A
331
1323
  5
1345
331
1392
  5
13D3
331
1444
  5
14CD
331
14C7
  5
157B
331
1554
  5
10100CF
331
1517
  5
1010083
331
1440
  5
14C7
331
101005C
  5
101010F
331
14C3
  5
1576
331
1454
  5
14E7
331
155C
  5
10100D9
331
1450
  5
14E3
331
12DF
  5
12ED
331
12DB
  5
12E9
331
10100CC
  5
144D
331
101008F
  5
101005B
331
10100C8
  5
1465
331
132C
  5
134F
331
101008B
  5
1010066
331
139F
  5
1435
331
1328
  5
134B
331
10100D4
  5
143A
331
1010097
  5
156D
331
139B
  5
1430
331
1334
  5
1358
331
13A7
  5
1440
331
1330
  5
1354
331
13A3
  5
1439
331
1010067
  5
10100D6
331
1010063
  5
10100E3
331
145C
  5
14F0
331
1458
  5
14EC
331
101006F
  5
10100BA
331
1567
  5
10100E6
331
1526
  5
1010095
331
1494
  5
1539
331
101006B
  5
10100CC
331
14DB
  5
101005F
331
156F
  5
10100EE
331
1490
  5
1535
331
156B
  5
10100EA
331
152A
  5
1010099
331
12FF
  5
131A
331
12AC
  5
12AC
331
101009E
  5
153D
331
1338
  5
135C
331
10100EF
  5
1363
331
13AF
  5
1453
331
13AB
  5
1448
331
1344
  5
136D
331
10100EB
  5
1370
331
1340
  5
1368
331
1536
  5
10100AD
331
1577
  5
10100F7
331
149F
  5
1548
331
13B0
  5
1454
331
142C
  5
14B1
331
14A7
  5
1552
331
12B7
  5
12B7
331
14A3
  5
154D
331
10100F7
  5
1333
331
1304
  5
131F
331
1377
  5
13B0
331
1300
  5
131B
331
10100B2
  5
14D5
331
137F
  5
13B9
331
137B
  5
13B5
331
14E6
  5
101006C
331
1547
  5
10100C0
331
1430
  5
14B5
331
14E2
  5
1010068
331
1543
  5
10100BC
331
12CF
  5
12DB
331
1010106
  5
12E5
331
1010102
  5
12F2
331
12D3
  5
12DF
331
101007E
  5
1010093
331
131C
  5
133B
331
101010E
  5
12C6
331
1318
  5
1336
331
10100C7
  5
1463
331
1010082
  5
1010080
331
1324
  5
1346
331
1397
  5
142C
331
1393
  5
13D4
331
14C4
  5
1577
331
1445
  5
14CE
331
14C0
  5
1572
331
1441
  5
14C8
331
1553
  5
10100CE
331
1455
  5
14E8
331
101005B
  5
101010E
331
1512
  5
101007D
331
14C8
  5
157C
331
12DC
  5
12EA
331
1451
  5
14E4
331
155F
  5
10100DC
331
155B
  5
10100D8
331
151A
  5
1010086
331
12D8
  5
12E6
331
12E0
  5
12EF
331
10100CF
  5
1451
331
139C
  5
1431
331
132D
  5
1350
331
1329
  5
134C
331
1010096
  5
156C
331
1398
  5
142D
331
1335
  5
1359
331
1010092
  5
157F
331
1331
  5
1355
331
13A0
  5
1436
331
1010066
  5
10100D5
331
1010062
  5
10100E2
331
145D
  5
14F1
331
1525
  5
1010094
331
1459
  5
14ED
331
101006E
  5
10100B9
331
1566
  5
10100E5
331
101006A
  5
10100CB
331
156E
  5
10100ED
331
1529
  5
1010098
331
1491
  5
1536
331
156A
  5
10100E9
331
12AD
  5
12AD
331
12A9
  5
12A9
331
101009D
  5
153C
331
13AC
  5
144A
331
133D
  5
1365
331
1339
  5
135D
331
13A8
  5
1441
331
10100EE
  5
1362
331
1345
  5
136E
331
10100EA
  5
1380
331
1341
  5
1369
331
1010076
  5
10100A3
331
1535
  5
10100AC
331
1576
  5
10100F6
331
13B1
  5
1455
331
142D
  5
14B2
331
14A4
  5
154E
331
1572
  5
10100F1
331
12B4
  5
12B4
331
1539
  5
10100B0
331
14A0
  5
154A
331
12B0
  5
12B0
331
12B8
  5
12B8
331
10100F6
  5
1332
331
1305
  5
1321
331
10100F2
  5
1341
331
1301
  5
131C
331
10100B1
  5
14D4
331
137C
  5
13B6
331
1378
  5
13B1
331
14E5
  5
101006B
331
14A8
  5
1553
331
1546
  5
10100BF
331
1431
  5
14B6
331
1542
  5
10100BB
331
143D
  5
14C4
331
14E9
  5
101006F
331
12D4
  5
12E0
331
1010105
  5
12E4
331
1010101
  5
1302
331
12D0
  5
12DC
331
101007D
  5
1010092
331
101010D
  5
12C5
331
131D
  5
133D
331
1380
  5
13BA
331
1325
  5
1348
331
1394
  5
13D5
331
1390
  5
13D1
331
1321
  5
1343
331
14C5
  5
1579
331
1515
  5
101007F
331
14C1
  5
1574
331
101005E
  5
10100F9
331
1456
  5
14E9
331
1552
  5
10100CD
331
14C9
  5
157D
331
1519
  5
1010085
331
12DD
  5
12EB
331
155E
  5
10100DB
331
1452
  5
14E5
331
155A
  5
10100D7
331
12D9
  5
12E7
331
12E1
  5
12F0
331
10100CE
  5
1450
331
139D
  5
1432
331
132E
  5
1351
331
10100CA
  5
1459
331
132A
  5
134D
331
1399
  5
142E
331
1010091
  5
157E
331
10100D2
  5
1444
331
1336
  5
135A
331
13A5
  5
143E
331
1332
  5
1356
331
13A1
  5
1437
331
1565
  5
10100E4
331
145E
  5
1512
331
14D9
  5
101005D
331
145A
  5
14EE
331
156D
  5
10100EC
331
152C
  5
101009B
331
1569
  5
10100E8
331
1528
  5
1010097
331
1492
  5
1537
331
12FD
  5
1317
331
12AE
  5
12AE
331
12AA
  5
12AA
331
10100DD
  5
13C6
331
13AD
  5
144B
331
133E
  5
1366
331
133A
  5
135F
331
10100E9
  5
137F
331
1346
  5
136F
331
1342
  5
136B
  0
ACDBDETAILVIEWSTYLE
  5
101004F
102
{ACAD_XDICTIONARY
360
101011F
102
}
102
{ACAD_REACTORS
330
101004E
102
}
330
101004E
100
AcDbModelDocViewStyle
 70
     0
  3
Metric50
290
     0
100
AcDbDetailViewStyle
 70
     0
 71
     0
 90
        3
 71
     1
340
11
 62
   256
 40
5.0
340
0
 62
   256
 40
5.0
300

 40
0.0
280
     1
 71
     2
340
16
 90
       25
 62
   256
 71
     3
340
11
 62
   256
 40
5.0
 90
        0
 40
15.0
 90
        1
300
%<\AcVar ViewDetailId>% (%<\AcVar ViewScale \f "%sn">%)
 71
     4
340
16
 90
       25
 62
   256
340
16
 90
       25
 62
   256
280
     0
  0
LAYOUT
  5
1010052
102
{ACAD_REACTORS
330
1010050
102
}
330
1010050
100
AcDbPlotSettings
  1

  2
Microsoft Print to PDF
  4

  6

 40
0.0
 41
0.0
 42
0.0
 43
0.0
 44
0.0
 45
0.0
 46
0.0
 47
0.0
 48
0.0
 49
0.0
140
0.0
141
0.0
142
1.0
143
1.0
 70
  1712
 72
     0
 73
     0
 74
     0
  7

 75
     0
147
1.0
 76
     0
 77
     2
 78
   300
148
0.0
149
0.0
100
AcDbLayout
  1
Model
 70
     1
 71
     0
 10
0.0
 20
0.0
 11
12.0
 21
9.0
 12
0.0
 22
0.0
 32
0.0
 14
0.0
 24
0.0
 34
0.0
 15
0.0
 25
0.0
 35
0.0
146
0.0
 13
0.0
 23
0.0
 33
0.0
 16
1.0
 26
0.0
 36
0.0
 17
0.0
 27
1.0
 37
0.0
 76
     0
330
1F
331
2E
  0
LAYOUT
  5
1010053
102
{ACAD_REACTORS
330
1010050
102
}
330
1010050
100
AcDbPlotSettings
  1

  2
Microsoft Print to PDF
  4

  6

 40
0.0
 41
0.0
 42
0.0
 43
0.0
 44
0.0
 45
0.0
 46
0.0
 47
0.0
 48
0.0
 49
0.0
140
0.0
141
0.0
142
1.0
143
1.0
 70
   688
 72
     0
 73
     0
 74
     5
  7

 75
    16
147
1.0
 76
     0
 77
     2
 78
   300
148
0.0
149
0.0
100
AcDbLayout
  1
Présentation1
 70
     1
 71
     1
 10
0.0
 20
0.0
 11
12.0
 21
9.0
 12
0.0
 22
0.0
 32
0.0
 14
1.000000000000000E+20
 24
1.000000000000000E+20
 34
1.000000000000000E+20
 15
-1.000000000000000E+20
 25
-1.000000000000000E+20
 35
-1.000000000000000E+20
146
0.0
 13
0.0
 23
0.0
 33
0.0
 16
1.0
 26
0.0
 36
0.0
 17
0.0
 27
1.0
 37
0.0
 76
     0
330
1B
  0
MATERIAL
  5
101000C
102
{ACAD_XDICTIONARY
360
101000D
102
}
102
{ACAD_REACTORS
330
1010003
102
}
330
1010003
100
AcDbMaterial
  1
ByBlock
 72
     0
 43
0.0208333333333333
 43
0.0
 43
0.0
 43
0.0
 43
0.0
 43
0.0208333333333333
 43
0.0
 43
0.0
 43
0.0
 43
0.0
 43
1.0
 43
0.0
 43
0.0
 43
0.0
 43
0.0
 43
1.0
 77
     0
 47
0.0208333333333333
 47
0.0
 47
0.0
 47
0.0
 47
0.0
 47
0.0208333333333333
 47
0.0
 47
0.0
 47
0.0
 47
0.0
 47
1.0
 47
0.0
 47
0.0
 47
0.0
 47
0.0
 47
1.0
171
     0
 49
0.0208333333333333
 49
0.0
 49
0.0
 49
0.0
 49
0.0
 49
0.0208333333333333
 49
0.0
 49
0.0
 49
0.0
 49
0.0
 49
1.0
 49
0.0
 49
0.0
 49
0.0
 49
0.0
 49
1.0
175
     0
142
0.0208333333333333
142
0.0
142
0.0
142
0.0
142
0.0
142
0.0208333333333333
142
0.0
142
0.0
142
0.0
142
0.0
142
1.0
142
0.0
142
0.0
142
0.0
142
0.0
142
1.0
179
     0
144
0.0208333333333333
144
0.0
144
0.0
144
0.0
144
0.0
144
0.0208333333333333
144
0.0
144
0.0
144
0.0
144
0.0
144
1.0
144
0.0
144
0.0
144
0.0
144
0.0
144
1.0
147
0.0208333333333333
147
0.0
147
0.0
147
0.0
147
0.0
147
0.0208333333333333
147
0.0
147
0.0
147
0.0
147
0.0
147
1.0
147
0.0
147
0.0
147
0.0
147
0.0
147
1.0
  0
MATERIAL
  5
1010004
102
{ACAD_XDICTIONARY
360
1010005
102
}
102
{ACAD_REACTORS
330
1010003
102
}
330
1010003
100
AcDbMaterial
  1
ByLayer
 72
     0
 43
0.0208333333333333
 43
0.0
 43
0.0
 43
0.0
 43
0.0
 43
0.0208333333333333
 43
0.0
 43
0.0
 43
0.0
 43
0.0
 43
1.0
 43
0.0
 43
0.0
 43
0.0
 43
0.0
 43
1.0
 77
     0
 47
0.0208333333333333
 47
0.0
 47
0.0
 47
0.0
 47
0.0
 47
0.0208333333333333
 47
0.0
 47
0.0
 47
0.0
 47
0.0
 47
1.0
 47
0.0
 47
0.0
 47
0.0
 47
0.0
 47
1.0
171
     0
 49
0.0208333333333333
 49
0.0
 49
0.0
 49
0.0
 49
0.0
 49
0.0208333333333333
 49
0.0
 49
0.0
 49
0.0
 49
0.0
 49
1.0
 49
0.0
 49
0.0
 49
0.0
 49
0.0
 49
1.0
175
     0
142
0.0208333333333333
142
0.0
142
0.0
142
0.0
142
0.0
142
0.0208333333333333
142
0.0
142
0.0
142
0.0
142
0.0
142
1.0
142
0.0
142
0.0
142
0.0
142
0.0
142
1.0
179
     0
144
0.0208333333333333
144
0.0
144
0.0
144
0.0
144
0.0
144
0.0208333333333333
144
0.0
144
0.0
144
0.0
144
0.0
144
1.0
144
0.0
144
0.0
144
0.0
144
0.0
144
1.0
147
0.0208333333333333
147
0.0
147
0.0
147
0.0
147
0.0
147
0.0208333333333333
147
0.0
147
0.0
147
0.0
147
0.0
147
1.0
147
0.0
147
0.0
147
0.0
147
0.0
147
1.0
  0
MATERIAL
  5
1010014
102
{ACAD_XDICTIONARY
360
1010015
102
}
102
{ACAD_REACTORS
330
1010003
102
}
330
1010003
100
AcDbMaterial
  1
Global
 72
     0
 43
0.0208333333333333
 43
0.0
 43
0.0
 43
0.0
 43
0.0
 43
0.0208333333333333
 43
0.0
 43
0.0
 43
0.0
 43
0.0
 43
1.0
 43
0.0
 43
0.0
 43
0.0
 43
0.0
 43
1.0
 77
     0
 47
0.0208333333333333
 47
0.0
 47
0.0
 47
0.0
 47
0.0
 47
0.0208333333333333
 47
0.0
 47
0.0
 47
0.0
 47
0.0
 47
1.0
 47
0.0
 47
0.0
 47
0.0
 47
0.0
 47
1.0
171
     0
 49
0.0208333333333333
 49
0.0
 49
0.0
 49
0.0
 49
0.0
 49
0.0208333333333333
 49
0.0
 49
0.0
 49
0.0
 49
0.0
 49
1.0
 49
0.0
 49
0.0
 49
0.0
 49
0.0
 49
1.0
175
     0
142
0.0208333333333333
142
0.0
142
0.0
142
0.0
142
0.0
142
0.0208333333333333
142
0.0
142
0.0
142
0.0
142
0.0
142
1.0
142
0.0
142
0.0
142
0.0
142
0.0
142
1.0
179
     0
144
0.0208333333333333
144
0.0
144
0.0
144
0.0
144
0.0
144
0.0208333333333333
144
0.0
144
0.0
144
0.0
144
0.0
144
1.0
144
0.0
144
0.0
144
0.0
144
0.0
144
1.0
147
0.0208333333333333
147
0.0
147
0.0
147
0.0
147
0.0
147
0.0208333333333333
147
0.0
147
0.0
147
0.0
147
0.0
147
1.0
147
0.0
147
0.0
147
0.0
147
0.0
147
1.0
  0
MLEADERSTYLE
  5
101004B
102
{ACAD_REACTORS
330
101004A
102
}
330
101004A
100
AcDbMLeaderStyle
179
     2
170
     2
171
     1
172
     0
 90
        2
 40
0.0
 41
0.0
173
     1
 91
-1056964608
340
14
 92
       -2
290
     1
 42
2.0
291
     1
 43
0.36
  3
Standard
 44
4.0
300

342
11
174
     1
178
     6
175
     1
176
     0
 93
-1056964608
 45
4.0
292
     0
297
     0
 46
4.0
 94
-1056964608
 47
1.0
 49
1.0
140
1.0
293
     1
141
0.0
294
     1
177
     0
142
1.0
295
     0
296
     0
143
0.125
271
     0
272
     9
273
     9
298
     0
  0
MLINESTYLE
  5
101012D
102
{ACAD_REACTORS
330
17
102
}
330
17
100
AcDbMlineStyle
  2
STANDARD
 70
     0
  3

 62
   256
 51
90.0
 52
90.0
 71
     2
 49
0.5
 62
   256
  6
BYLAYER
 49
-0.5
 62
   256
  6
BYLAYER
  0
ACDBPLACEHOLDER
  5
1010002
102
{ACAD_REACTORS
330
1010001
102
}
330
1010001
  0
SCALE
  5
1010039
102
{ACAD_REACTORS
330
1010038
102
}
330
1010038
100
AcDbScale
 70
     0
300
1:1
140
1.0
141
1.0
290
     1
  0
SCALE
  5
101003A
102
{ACAD_REACTORS
330
1010038
102
}
330
1010038
100
AcDbScale
 70
     0
300
1:2
140
1.0
141
2.0
290
     0
  0
SCALE
  5
101003B
102
{ACAD_REACTORS
330
1010038
102
}
330
1010038
100
AcDbScale
 70
     0
300
1:4
140
1.0
141
4.0
290
     0
  0
SCALE
  5
101003C
102
{ACAD_REACTORS
330
1010038
102
}
330
1010038
100
AcDbScale
 70
     0
300
1:5
140
1.0
141
5.0
290
     0
  0
SCALE
  5
101003D
102
{ACAD_REACTORS
330
1010038
102
}
330
1010038
100
AcDbScale
 70
     0
300
1:8
140
1.0
141
8.0
290
     0
  0
SCALE
  5
101003E
102
{ACAD_REACTORS
330
1010038
102
}
330
1010038
100
AcDbScale
 70
     0
300
1:10
140
1.0
141
10.0
290
     0
  0
SCALE
  5
101003F
102
{ACAD_REACTORS
330
1010038
102
}
330
1010038
100
AcDbScale
 70
     0
300
1:16
140
1.0
141
16.0
290
     0
  0
SCALE
  5
1010040
102
{ACAD_REACTORS
330
1010038
102
}
330
1010038
100
AcDbScale
 70
     0
300
1:20
140
1.0
141
20.0
290
     0
  0
SCALE
  5
1010041
102
{ACAD_REACTORS
330
1010038
102
}
330
1010038
100
AcDbScale
 70
     0
300
1:30
140
1.0
141
30.0
290
     0
  0
SCALE
  5
1010042
102
{ACAD_REACTORS
330
1010038
102
}
330
1010038
100
AcDbScale
 70
     0
300
1:40
140
1.0
141
40.0
290
     0
  0
SCALE
  5
1010043
102
{ACAD_REACTORS
330
1010038
102
}
330
1010038
100
AcDbScale
 70
     0
300
1:50
140
1.0
141
50.0
290
     0
  0
SCALE
  5
1010044
102
{ACAD_REACTORS
330
1010038
102
}
330
1010038
100
AcDbScale
 70
     0
300
1:100
140
1.0
141
100.0
290
     0
  0
SCALE
  5
1010045
102
{ACAD_REACTORS
330
1010038
102
}
330
1010038
100
AcDbScale
 70
     0
300
2:1
140
2.0
141
1.0
290
     0
  0
SCALE
  5
1010046
102
{ACAD_REACTORS
330
1010038
102
}
330
1010038
100
AcDbScale
 70
     0
300
4:1
140
4.0
141
1.0
290
     0
  0
SCALE
  5
1010047
102
{ACAD_REACTORS
330
1010038
102
}
330
1010038
100
AcDbScale
 70
     0
300
8:1
140
8.0
141
1.0
290
     0
  0
SCALE
  5
1010048
102
{ACAD_REACTORS
330
1010038
102
}
330
1010038
100
AcDbScale
 70
     0
300
10:1
140
10.0
141
1.0
290
     0
  0
SCALE
  5
1010049
102
{ACAD_REACTORS
330
1010038
102
}
330
1010038
100
AcDbScale
 70
     0
300
100:1
140
100.0
141
1.0
290
     0
  0
ACDBSECTIONVIEWSTYLE
  5
101004D
102
{ACAD_XDICTIONARY
360
101011D
102
}
102
{ACAD_REACTORS
330
101004C
102
}
330
101004C
100
AcDbModelDocViewStyle
 70
     0
  3
Metric50
290
     0
100
AcDbSectionViewStyle
 70
     0
 71
     0
 90
      102
 71
     1
340
11
 62
   256
 40
5.0
340
0
340
0
 62
   256
 40
5.0
300
I, O, Q, S, X, Z
 40
10.0
 90
        0
 40
2.5
 90
        0
 71
     2
340
16
 90
       25
 62
   256
340
16
 90
       50
 62
   256
 40
5.0
 40
2.5
 40
5.0
 71
     3
340
11
 62
   256
 40
5.0
 90
        0
 40
15.0
 90
        1
300
%<\AcVar ViewSectionStartId>%-%<\AcVar ViewSectionEndId>% (%<\AcVar ViewScale \f "%sn">%)
 71
     4
 62
   256
 62
   257
300
ANSI31
 40
1.0
 90
        0
290
     0
290
     0
 90
        6
 40
0.0
 40
1.570796326794896
 40
0.2617993877991494
 40
1.308996938995747
 40
-0.2617993877991494
 40
1.832595714594046
  0
TABLESTYLE
  5
1010037
102
{ACAD_XDICTIONARY
360
1010131
102
}
102
{ACAD_REACTORS
330
1010036
102
}
330
1010036
100
AcDbTableStyle
280
     0
  3
Standard
 70
     0
 71
     0
 40
1.5
 41
1.5
280
     0
281
     0
  7
STANDARD
140
4.5
170
     2
 62
     0
 63
     7
283
     0
 90
      512
 91
        0
  1

274
    -2
284
     1
 64
     0
275
    -2
285
     1
 65
     0
276
    -2
286
     1
 66
     0
277
    -2
287
     1
 67
     0
278
    -2
288
     1
 68
     0
279
    -2
289
     1
 69
     0
  7
STANDARD
140
6.0
170
     5
 62
     0
 63
     7
283
     0
 90
      512
 91
        0
  1

274
    -2
284
     1
 64
     0
275
    -2
285
     1
 65
     0
276
    -2
286
     1
 66
     0
277
    -2
287
     1
 67
     0
278
    -2
288
     1
 68
     0
279
    -2
289
     1
 69
     0
  7
STANDARD
140
4.5
170
     5
 62
     0
 63
     7
283
     0
 90
      512
 91
        0
  1

274
    -2
284
     1
 64
     0
275
    -2
285
     1
 65
     0
276
    -2
286
     1
 66
     0
277
    -2
287
     1
 67
     0
278
    -2
288
     1
 68
     0
279
    -2
289
     1
 69
     0
  0
VISUALSTYLE
  5
1010022
102
{ACAD_REACTORS
330
101001C
102
}
330
101001C
100
AcDbVisualStyle
  2
2dWireframe
 70
     4
177
     3
291
     0
 70
    58
 90
        0
176
     1
 90
        2
176
     1
 90
        0
176
     1
 90
        0
176
     1
 40
0.6
176
     1
 40
30.0
176
     1
 62
     7
420
 16777215
176
     1
 90
        1
176
     1
 90
        4
176
     1
 62
     7
176
     1
 62
   257
176
     1
 90
        1
176
     1
 90
        1
176
     1
 40
1.0
176
     1
 90
        0
176
     1
 62
   257
176
     1
 40
1.0
176
     1
 90
        1
176
     1
 90
        6
176
     1
 90
        2
176
     1
 62
     7
176
     1
 90
        5
176
     1
 90
        0
176
     1
 90
        0
176
     1
290
     0
176
     1
 90
        1
176
     1
 40
0.0
176
     1
 90
        0
176
     1
290
     1
176
     1
290
     1
176
     1
290
     0
176
     1
290
     0
176
     1
290
     0
176
     1
290
     0
176
     1
290
     0
176
     1
290
     0
176
     1
290
     0
176
     1
 90
       50
176
     1
 40
0.0
176
     1
 40
1.0
176
     1
 90
        0
176
     1
 62
    18
420
        0
176
     1
 90
       50
176
     1
 90
        3
176
     1
 62
     5
420
      255
176
     1
290
     0
176
     1
 90
       50
176
     1
 90
       50
176
     1
 90
       50
176
     1
290
     0
176
     1
 90
       50
176
     1
 62
   256
176
     0
 40
1.0
176
     0
 90
        2
176
     1
  1
strokes_ogs.tif
176
     1
290
     0
176
     1
 40
1.0
176
     1
 40
1.0
176
     1
  0
VISUALSTYLE
  5
1010021
102
{ACAD_REACTORS
330
101001C
102
}
330
101001C
100
AcDbVisualStyle
  2
Basic
 70
     7
177
     3
291
     1
 70
    58
 90
        1
176
     1
 90
        0
176
     1
 90
        1
176
     1
 90
        0
176
     1
 40
0.6
176
     1
 40
30.0
176
     1
 62
     7
420
 16777215
176
     1
 90
        0
176
     1
 90
        4
176
     1
 62
     7
176
     1
 62
   257
176
     1
 90
        1
176
     1
 90
        1
176
     1
 40
1.0
176
     1
 90
        8
176
     1
 62
     7
176
     1
 40
1.0
176
     1
 90
        1
176
     1
 90
        6
176
     1
 90
        2
176
     1
 62
     7
176
     1
 90
        5
176
     1
 90
        0
176
     1
 90
        0
176
     1
290
     0
176
     1
 90
        1
176
     1
 40
0.0
176
     1
 90
        0
176
     1
290
     0
176
     1
290
     1
176
     1
290
     1
176
     1
290
     0
176
     1
290
     0
176
     1
290
     0
176
     1
290
     0
176
     1
290
     0
176
     1
290
     0
176
     1
 90
       50
176
     1
 40
0.0
176
     1
 40
1.0
176
     1
 90
        0
176
     1
 62
    18
420
        0
176
     1
 90
       50
176
     1
 90
        3
176
     1
 62
     5
420
      255
176
     1
290
     0
176
     1
 90
       50
176
     1
 90
       50
176
     1
 90
       50
176
     1
290
     0
176
     1
 90
       50
176
     1
 62
   256
176
     0
 40
1.0
176
     0
 90
        2
176
     1
  1
strokes_ogs.tif
176
     1
290
     0
176
     1
 40
1.0
176
     1
 40
1.0
176
     1
  0
VISUALSTYLE
  5
1010028
102
{ACAD_REACTORS
330
101001C
102
}
330
101001C
100
AcDbVisualStyle
  2
Brighten
 70
    12
177
     3
291
     1
 70
    58
 90
        2
176
     1
 90
        2
176
     1
 90
        0
176
     1
 90
        0
176
     1
 40
0.6
176
     1
 40
30.0
176
     1
 62
     7
420
 16777215
176
     1
 90
        1
176
     1
 90
        4
176
     1
 62
     7
176
     1
 62
   257
176
     1
 90
        1
176
     1
 90
        1
176
     1
 40
1.0
176
     1
 90
        8
176
     1
 62
     7
176
     1
 40
1.0
176
     1
 90
        1
176
     1
 90
        6
176
     1
 90
        2
176
     1
 62
     7
176
     1
 90
        5
176
     1
 90
        0
176
     1
 90
        0
176
     1
290
     0
176
     1
 90
        1
176
     1
 40
50.0
176
     1
 90
        0
176
     1
290
     0
176
     1
290
     1
176
     1
290
     1
176
     1
290
     0
176
     1
290
     0
176
     1
290
     0
176
     1
290
     0
176
     1
290
     0
176
     1
290
     0
176
     1
 90
       50
176
     1
 40
0.0
176
     1
 40
1.0
176
     1
 90
        0
176
     1
 62
    18
420
        0
176
     1
 90
       50
176
     1
 90
        3
176
     1
 62
     5
420
      255
176
     1
290
     0
176
     1
 90
       50
176
     1
 90
       50
176
     1
 90
       50
176
     1
290
     0
176
     1
 90
       50
176
     1
 62
   256
176
     0
 40
1.0
176
     0
 90
        2
176
     1
  1
strokes_ogs.tif
176
     1
290
     0
176
     1
 40
1.0
176
     1
 40
1.0
176
     1
  0
VISUALSTYLE
  5
101002C
102
{ACAD_REACTORS
330
101001C
102
}
330
101001C
100
AcDbVisualStyle
  2
ColorChange
 70
    16
177
     3
291
     1
 70
    58
 90
        2
176
     1
 90
        2
176
     1
 90
        3
176
     1
 90
        0
176
     1
 40
0.6
176
     1
 40
30.0
176
     1
 62
     8
420
  8421504
176
     1
 90
        1
176
     1
 90
        4
176
     1
 62
     7
176
     1
 62
   257
176
     1
 90
        1
176
     1
 90
        1
176
     1
 40
1.0
176
     1
 90
        8
176
     1
 62
     8
420
  8421504
176
     1
 40
1.0
176
     1
 90
        1
176
     1
 90
        6
176
     1
 90
        2
176
     1
 62
     7
176
     1
 90
        5
176
     1
 90
        0
176
     1
 90
        0
176
     1
290
     0
176
     1
 90
        1
176
     1
 40
0.0
176
     1
 90
        0
176
     1
290
     0
176
     1
290
     1
176
     1
290
     1
176
     1
290
     0
176
     1
290
     0
176
     1
290
     0
176
     1
290
     0
176
     1
290
     0
176
     1
290
     0
176
     1
 90
       50
176
     1
 40
0.0
176
     1
 40
1.0
176
     1
 90
        0
176
     1
 62
    18
420
        0
176
     1
 90
       50
176
     1
 90
        3
176
     1
 62
     5
420
      255
176
     1
290
     0
176
     1
 90
       50
176
     1
 90
       50
176
     1
 90
       50
176
     1
290
     0
176
     1
 90
       50
176
     1
 62
   256
176
     0
 40
1.0
176
     0
 90
        2
176
     1
  1
strokes_ogs.tif
176
     1
290
     0
176
     1
 40
1.0
176
     1
 40
1.0
176
     1
  0
VISUALSTYLE
  5
1010025
102
{ACAD_REACTORS
330
101001C
102
}
330
101001C
100
AcDbVisualStyle
  2
Conceptual
 70
     9
177
     3
291
     0
 70
    58
 90
        3
176
     1
 90
        2
176
     1
 90
        0
176
     1
 90
        0
176
     1
 40
0.6
176
     1
 40
30.0
176
     1
 62
     7
420
 16777215
176
     1
 90
        2
176
     1
 90
        2
176
     1
 62
     7
176
     1
 62
   257
176
     1
 90
        1
176
     1
 90
        1
176
     1
 40
179.0
176
     1
 90
        8
176
     1
 62
     7
176
     1
 40
1.0
176
     1
 90
        1
176
     1
 90
        6
176
     1
 90
        2
176
     1
 62
     7
176
     1
 90
        3
176
     1
 90
        0
176
     1
 90
        0
176
     1
290
     0
176
     1
 90
        1
176
     1
 40
0.0
176
     1
 90
        0
176
     1
290
     0
176
     1
290
     1
176
     1
290
     1
176
     1
290
     0
176
     1
290
     0
176
     1
290
     0
176
     1
290
     0
176
     1
290
     0
176
     1
290
     0
176
     1
 90
       50
176
     1
 40
0.0
176
     1
 40
1.0
176
     1
 90
        0
176
     1
 62
    18
420
        0
176
     1
 90
       50
176
     1
 90
        3
176
     1
 62
     5
420
      255
176
     1
290
     0
176
     1
 90
       50
176
     1
 90
       50
176
     1
 90
       50
176
     1
290
     0
176
     1
 90
       50
176
     1
 62
   256
176
     0
 40
1.0
176
     0
 90
        2
176
     1
  1
strokes_ogs.tif
176
     1
290
     0
176
     1
 40
1.0
176
     1
 40
1.0
176
     1
  0
VISUALSTYLE
  5
1010027
102
{ACAD_REACTORS
330
101001C
102
}
330
101001C
100
AcDbVisualStyle
  2
Dim
 70
    11
177
     3
291
     1
 70
    58
 90
        2
176
     1
 90
        2
176
     1
 90
        0
176
     1
 90
        0
176
     1
 40
0.6
176
     1
 40
30.0
176
     1
 62
     7
420
 16777215
176
     1
 90
        1
176
     1
 90
        4
176
     1
 62
     7
176
     1
 62
   257
176
     1
 90
        1
176
     1
 90
        1
176
     1
 40
1.0
176
     1
 90
        8
176
     1
 62
     7
176
     1
 40
1.0
176
     1
 90
        1
176
     1
 90
        6
176
     1
 90
        2
176
     1
 62
     7
176
     1
 90
        5
176
     1
 90
        0
176
     1
 90
        0
176
     1
290
     0
176
     1
 90
        1
176
     1
 40
-50.0
176
     1
 90
        0
176
     1
290
     0
176
     1
290
     1
176
     1
290
     1
176
     1
290
     0
176
     1
290
     0
176
     1
290
     0
176
     1
290
     0
176
     1
290
     0
176
     1
290
     0
176
     1
 90
       50
176
     1
 40
0.0
176
     1
 40
1.0
176
     1
 90
        0
176
     1
 62
    18
420
        0
176
     1
 90
       50
176
     1
 90
        3
176
     1
 62
     5
420
      255
176
     1
290
     0
176
     1
 90
       50
176
     1
 90
       50
176
     1
 90
       50
176
     1
290
     0
176
     1
 90
       50
176
     1
 62
   256
176
     0
 40
1.0
176
     0
 90
        2
176
     1
  1
strokes_ogs.tif
176
     1
290
     0
176
     1
 40
1.0
176
     1
 40
1.0
176
     1
  0
VISUALSTYLE
  5
1010034
102
{ACAD_REACTORS
330
101001C
102
}
330
101001C
100
AcDbVisualStyle
  2
EdgeColorOff
 70
    22
177
     3
291
     1
 70
    58
 90
        2
176
     0
 90
        2
176
     0
 90
        0
176
     0
 90
        0
176
     0
 40
0.6
176
     0
 40
30.0
176
     0
 62
     7
420
 16777215
176
     0
 90
        1
176
     0
 90
        4
176
     0
 62
     7
176
     0
 62
   257
176
     0
 90
        1
176
     0
 90
        1
176
     0
 40
1.0
176
     0
 90
        8
176
     2
 62
     7
176
     0
 40
1.0
176
     0
 90
        1
176
     0
 90
        6
176
     0
 90
        2
176
     0
 62
     7
176
     0
 90
        5
176
     0
 90
        0
176
     0
 90
        0
176
     0
290
     0
176
     0
 90
        1
176
     0
 40
0.0
176
     0
 90
        0
176
     0
290
     0
176
     1
290
     1
176
     1
290
     1
176
     1
290
     0
176
     1
290
     0
176
     1
290
     0
176
     1
290
     0
176
     1
290
     0
176
     1
290
     0
176
     1
 90
       50
176
     0
 40
0.0
176
     0
 40
1.0
176
     0
 90
        0
176
     0
 62
    18
420
        0
176
     0
 90
       50
176
     0
 90
        3
176
     0
 62
     5
420
      255
176
     0
290
     0
176
     1
 90
       50
176
     0
 90
       50
176
     0
 90
       50
176
     0
290
     0
176
     1
 90
       50
176
     0
 62
   256
176
     0
 40
1.0
176
     0
 90
        2
176
     0
  1
strokes_ogs.tif
176
     0
290
     0
176
     1
 40
1.0
176
     0
 40
1.0
176
     0
  0
VISUALSTYLE
  5
101002B
102
{ACAD_REACTORS
330
101001C
102
}
330
101001C
100
AcDbVisualStyle
  2
Facepattern
 70
    15
177
     3
291
     1
 70
    58
 90
        2
176
     1
 90
        2
176
     1
 90
        0
176
     1
 90
        0
176
     1
 40
0.6
176
     1
 40
30.0
176
     1
 62
     7
420
 16777215
176
     1
 90
        1
176
     1
 90
        4
176
     1
 62
     7
176
     1
 62
   257
176
     1
 90
        1
176
     1
 90
        1
176
     1
 40
1.0
176
     1
 90
        8
176
     1
 62
     7
176
     1
 40
1.0
176
     1
 90
        1
176
     1
 90
        6
176
     1
 90
        2
176
     1
 62
     7
176
     1
 90
        5
176
     1
 90
        0
176
     1
 90
        0
176
     1
290
     0
176
     1
 90
        1
176
     1
 40
0.0
176
     1
 90
        0
176
     1
290
     0
176
     1
290
     1
176
     1
290
     1
176
     1
290
     0
176
     1
290
     0
176
     1
290
     0
176
     1
290
     0
176
     1
290
     0
176
     1
290
     0
176
     1
 90
       50
176
     1
 40
0.0
176
     1
 40
1.0
176
     1
 90
        0
176
     1
 62
    18
420
        0
176
     1
 90
       50
176
     1
 90
        3
176
     1
 62
     5
420
      255
176
     1
290
     0
176
     1
 90
       50
176
     1
 90
       50
176
     1
 90
       50
176
     1
290
     0
176
     1
 90
       50
176
     1
 62
   256
176
     0
 40
1.0
176
     0
 90
        2
176
     1
  1
strokes_ogs.tif
176
     1
290
     0
176
     1
 40
1.0
176
     1
 40
1.0
176
     1
  0
VISUALSTYLE
  5
101001D
102
{ACAD_REACTORS
330
101001C
102
}
330
101001C
100
AcDbVisualStyle
  2
Flat
 70
     0
177
     3
291
     1
 70
    58
 90
        2
176
     1
 90
        1
176
     1
 90
        1
176
     1
 90
        2
176
     1
 40
0.6
176
     1
 40
30.0
176
     1
 62
     7
420
 16777215
176
     1
 90
        0
176
     1
 90
        0
176
     1
 62
     7
176
     1
 62
   257
176
     1
 90
        1
176
     1
 90
        1
176
     1
 40
1.0
176
     1
 90
        8
176
     1
 62
     7
176
     1
 40
1.0
176
     1
 90
        1
176
     1
 90
        6
176
     1
 90
        2
176
     1
 62
     7
176
     1
 90
        5
176
     1
 90
        0
176
     1
 90
        0
176
     1
290
     0
176
     1
 90
       13
176
     1
 40
0.0
176
     1
 90
        0
176
     1
290
     0
176
     1
290
     1
176
     1
290
     1
176
     1
290
     0
176
     1
290
     0
176
     1
290
     0
176
     1
290
     0
176
     1
290
     0
176
     1
290
     0
176
     1
 90
       50
176
     1
 40
0.0
176
     1
 40
1.0
176
     1
 90
        0
176
     1
 62
    18
420
        0
176
     1
 90
       50
176
     1
 90
        3
176
     1
 62
     5
420
      255
176
     1
290
     0
176
     1
 90
       50
176
     1
 90
       50
176
     1
 90
       50
176
     1
290
     0
176
     1
 90
       50
176
     1
 62
   256
176
     0
 40
1.0
176
     0
 90
        2
176
     1
  1
strokes_ogs.tif
176
     1
290
     0
176
     1
 40
1.0
176
     1
 40
1.0
176
     1
  0
VISUALSTYLE
  5
101001E
102
{ACAD_REACTORS
330
101001C
102
}
330
101001C
100
AcDbVisualStyle
  2
FlatWithEdges
 70
     1
177
     3
291
     1
 70
    58
 90
        2
176
     1
 90
        1
176
     1
 90
        1
176
     1
 90
        2
176
     1
 40
0.6
176
     1
 40
30.0
176
     1
 62
     7
420
 16777215
176
     1
 90
        1
176
     1
 90
        0
176
     1
 62
     7
176
     1
 62
   257
176
     1
 90
        1
176
     1
 90
        1
176
     1
 40
1.0
176
     1
 90
        0
176
     1
 62
   257
176
     1
 40
1.0
176
     1
 90
        1
176
     1
 90
        6
176
     1
 90
        2
176
     1
 62
     7
176
     1
 90
        5
176
     1
 90
        0
176
     1
 90
        0
176
     1
290
     0
176
     1
 90
       13
176
     1
 40
0.0
176
     1
 90
        0
176
     1
290
     0
176
     1
290
     1
176
     1
290
     1
176
     1
290
     0
176
     1
290
     0
176
     1
290
     0
176
     1
290
     0
176
     1
290
     0
176
     1
290
     0
176
     1
 90
       50
176
     1
 40
0.0
176
     1
 40
1.0
176
     1
 90
        0
176
     1
 62
    18
420
        0
176
     1
 90
       50
176
     1
 90
        3
176
     1
 62
     5
420
      255
176
     1
290
     0
176
     1
 90
       50
176
     1
 90
       50
176
     1
 90
       50
176
     1
290
     0
176
     1
 90
       50
176
     1
 62
   256
176
     0
 40
1.0
176
     0
 90
        2
176
     1
  1
strokes_ogs.tif
176
     1
290
     0
176
     1
 40
1.0
176
     1
 40
1.0
176
     1
  0
VISUALSTYLE
  5
101001F
102
{ACAD_REACTORS
330
101001C
102
}
330
101001C
100
AcDbVisualStyle
  2
Gouraud
 70
     2
177
     3
291
     1
 70
    58
 90
        2
176
     1
 90
        2
176
     1
 90
        1
176
     1
 90
        2
176
     1
 40
0.6
176
     1
 40
30.0
176
     1
 62
     7
420
 16777215
176
     1
 90
        0
176
     1
 90
        0
176
     1
 62
     7
176
     1
 62
   257
176
     1
 90
        1
176
     1
 90
        1
176
     1
 40
1.0
176
     1
 90
        0
176
     1
 62
     7
176
     1
 40
1.0
176
     1
 90
        1
176
     1
 90
        6
176
     1
 90
        2
176
     1
 62
     7
176
     1
 90
        5
176
     1
 90
        0
176
     1
 90
        0
176
     1
290
     0
176
     1
 90
       13
176
     1
 40
0.0
176
     1
 90
        0
176
     1
290
     0
176
     1
290
     1
176
     1
290
     1
176
     1
290
     0
176
     1
290
     0
176
     1
290
     0
176
     1
290
     0
176
     1
290
     0
176
     1
290
     0
176
     1
 90
       50
176
     1
 40
0.0
176
     1
 40
1.0
176
     1
 90
        0
176
     1
 62
    18
420
        0
176
     1
 90
       50
176
     1
 90
        3
176
     1
 62
     5
420
      255
176
     1
290
     0
176
     1
 90
       50
176
     1
 90
       50
176
     1
 90
       50
176
     1
290
     0
176
     1
 90
       50
176
     1
 62
   256
176
     0
 40
1.0
176
     0
 90
        2
176
     1
  1
strokes_ogs.tif
176
     1
290
     0
176
     1
 40
1.0
176
     1
 40
1.0
176
     1
  0
VISUALSTYLE
  5
1010020
102
{ACAD_REACTORS
330
101001C
102
}
330
101001C
100
AcDbVisualStyle
  2
GouraudWithEdges
 70
     3
177
     3
291
     1
 70
    58
 90
        2
176
     1
 90
        2
176
     1
 90
        1
176
     1
 90
        2
176
     1
 40
0.6
176
     1
 40
30.0
176
     1
 62
     7
420
 16777215
176
     1
 90
        1
176
     1
 90
        0
176
     1
 62
     7
176
     1
 62
   257
176
     1
 90
        1
176
     1
 90
        1
176
     1
 40
1.0
176
     1
 90
        0
176
     1
 62
   257
176
     1
 40
1.0
176
     1
 90
        1
176
     1
 90
        6
176
     1
 90
        2
176
     1
 62
     7
176
     1
 90
        5
176
     1
 90
        0
176
     1
 90
        0
176
     1
290
     0
176
     1
 90
       13
176
     1
 40
0.0
176
     1
 90
        0
176
     1
290
     0
176
     1
290
     1
176
     1
290
     1
176
     1
290
     0
176
     1
290
     0
176
     1
290
     0
176
     1
290
     0
176
     1
290
     0
176
     1
290
     0
176
     1
 90
       50
176
     1
 40
0.0
176
     1
 40
1.0
176
     1
 90
        0
176
     1
 62
    18
420
        0
176
     1
 90
       50
176
     1
 90
        3
176
     1
 62
     5
420
      255
176
     1
290
     0
176
     1
 90
       50
176
     1
 90
       50
176
     1
 90
       50
176
     1
290
     0
176
     1
 90
       50
176
     1
 62
   256
176
     0
 40
1.0
176
     0
 90
        2
176
     1
  1
strokes_ogs.tif
176
     1
290
     0
176
     1
 40
1.0
176
     1
 40
1.0
176
     1
  0
VISUALSTYLE
  5
1010024
102
{ACAD_REACTORS
330
101001C
102
}
330
101001C
100
AcDbVisualStyle
  2
Hidden
 70
     6
177
     3
291
     0
 70
    58
 90
        1
176
     1
 90
        2
176
     1
 90
        2
176
     1
 90
        0
176
     1
 40
0.6
176
     1
 40
30.0
176
     1
 62
     7
420
 16777215
176
     1
 90
        2
176
     1
 90
        2
176
     1
 62
     7
176
     1
 62
   257
176
     1
 90
        2
176
     1
 90
        1
176
     1
 40
40.0
176
     1
 90
        0
176
     1
 62
   257
176
     1
 40
1.0
176
     1
 90
        1
176
     1
 90
        6
176
     1
 90
        2
176
     1
 62
     7
176
     1
 90
        3
176
     1
 90
        0
176
     1
 90
        0
176
     1
290
     0
176
     1
 90
        1
176
     1
 40
0.0
176
     1
 90
        0
176
     1
290
     0
176
     1
290
     1
176
     1
290
     1
176
     1
290
     0
176
     1
290
     0
176
     1
290
     0
176
     1
290
     0
176
     1
290
     0
176
     1
290
     0
176
     1
 90
       50
176
     1
 40
0.0
176
     1
 40
1.0
176
     1
 90
        0
176
     1
 62
    18
420
        0
176
     1
 90
       50
176
     1
 90
        3
176
     1
 62
     5
420
      255
176
     1
290
     0
176
     1
 90
       50
176
     1
 90
       50
176
     1
 90
       50
176
     1
290
     0
176
     1
 90
       50
176
     1
 62
   256
176
     0
 40
1.0
176
     0
 90
        2
176
     1
  1
strokes_ogs.tif
176
     1
290
     0
176
     1
 40
1.0
176
     1
 40
1.0
176
     1
  0
VISUALSTYLE
  5
1010032
102
{ACAD_REACTORS
330
101001C
102
}
330
101001C
100
AcDbVisualStyle
  2
JitterOff
 70
    20
177
     3
291
     1
 70
    58
 90
        2
176
     0
 90
        2
176
     0
 90
        0
176
     0
 90
        0
176
     0
 40
0.6
176
     0
 40
30.0
176
     0
 62
     7
420
 16777215
176
     0
 90
        1
176
     0
 90
        4
176
     0
 62
     7
176
     0
 62
   257
176
     0
 90
        1
176
     0
 90
        1
176
     0
 40
1.0
176
     0
 90
       10
176
     2
 62
     7
176
     0
 40
1.0
176
     0
 90
        1
176
     0
 90
        6
176
     0
 90
        2
176
     0
 62
     7
176
     0
 90
        5
176
     0
 90
        0
176
     0
 90
        0
176
     0
290
     0
176
     0
 90
        1
176
     0
 40
0.0
176
     0
 90
        0
176
     0
290
     0
176
     1
290
     1
176
     1
290
     1
176
     1
290
     0
176
     1
290
     0
176
     1
290
     0
176
     1
290
     0
176
     1
290
     0
176
     1
290
     0
176
     1
 90
       50
176
     0
 40
0.0
176
     0
 40
1.0
176
     0
 90
        0
176
     0
 62
    18
420
        0
176
     0
 90
       50
176
     0
 90
        3
176
     0
 62
     5
420
      255
176
     0
290
     0
176
     1
 90
       50
176
     0
 90
       50
176
     0
 90
       50
176
     0
290
     0
176
     1
 90
       50
176
     0
 62
   256
176
     0
 40
1.0
176
     0
 90
        2
176
     0
  1
strokes_ogs.tif
176
     0
290
     0
176
     1
 40
1.0
176
     0
 40
1.0
176
     0
  0
VISUALSTYLE
  5
101002A
102
{ACAD_REACTORS
330
101001C
102
}
330
101001C
100
AcDbVisualStyle
  2
Linepattern
 70
    14
177
     3
291
     1
 70
    58
 90
        2
176
     1
 90
        2
176
     1
 90
        0
176
     1
 90
        0
176
     1
 40
0.6
176
     1
 40
30.0
176
     1
 62
     7
420
 16777215
176
     1
 90
        1
176
     1
 90
        4
176
     1
 62
     7
176
     1
 62
   257
176
     1
 90
        7
176
     1
 90
        7
176
     1
 40
1.0
176
     1
 90
        8
176
     1
 62
     7
176
     1
 40
1.0
176
     1
 90
        1
176
     1
 90
        6
176
     1
 90
        2
176
     1
 62
     7
176
     1
 90
        5
176
     1
 90
        0
176
     1
 90
        0
176
     1
290
     0
176
     1
 90
        1
176
     1
 40
0.0
176
     1
 90
        0
176
     1
290
     0
176
     1
290
     1
176
     1
290
     1
176
     1
290
     0
176
     1
290
     0
176
     1
290
     0
176
     1
290
     0
176
     1
290
     0
176
     1
290
     0
176
     1
 90
       50
176
     1
 40
0.0
176
     1
 40
1.0
176
     1
 90
        0
176
     1
 62
    18
420
        0
176
     1
 90
       50
176
     1
 90
        3
176
     1
 62
     5
420
      255
176
     1
290
     0
176
     1
 90
       50
176
     1
 90
       50
176
     1
 90
       50
176
     1
290
     0
176
     1
 90
       50
176
     1
 62
   256
176
     0
 40
1.0
176
     0
 90
        2
176
     1
  1
strokes_ogs.tif
176
     1
290
     0
176
     1
 40
1.0
176
     1
 40
1.0
176
     1
  0
VISUALSTYLE
  5
1010033
102
{ACAD_REACTORS
330
101001C
102
}
330
101001C
100
AcDbVisualStyle
  2
OverhangOff
 70
    21
177
     3
291
     1
 70
    58
 90
        2
176
     0
 90
        2
176
     0
 90
        0
176
     0
 90
        0
176
     0
 40
0.6
176
     0
 40
30.0
176
     0
 62
     7
420
 16777215
176
     0
 90
        1
176
     0
 90
        4
176
     0
 62
     7
176
     0
 62
   257
176
     0
 90
        1
176
     0
 90
        1
176
     0
 40
1.0
176
     0
 90
        9
176
     2
 62
     7
176
     0
 40
1.0
176
     0
 90
        1
176
     0
 90
        6
176
     0
 90
        2
176
     0
 62
     7
176
     0
 90
        5
176
     0
 90
        0
176
     0
 90
        0
176
     0
290
     0
176
     0
 90
        1
176
     0
 40
0.0
176
     0
 90
        0
176
     0
290
     0
176
     1
290
     1
176
     1
290
     1
176
     1
290
     0
176
     1
290
     0
176
     1
290
     0
176
     1
290
     0
176
     1
290
     0
176
     1
290
     0
176
     1
 90
       50
176
     0
 40
0.0
176
     0
 40
1.0
176
     0
 90
        0
176
     0
 62
    18
420
        0
176
     0
 90
       50
176
     0
 90
        3
176
     0
 62
     5
420
      255
176
     0
290
     0
176
     1
 90
       50
176
     0
 90
       50
176
     0
 90
       50
176
     0
290
     0
176
     1
 90
       50
176
     0
 62
   256
176
     0
 40
1.0
176
     0
 90
        2
176
     0
  1
strokes_ogs.tif
176
     0
290
     0
176
     1
 40
1.0
176
     0
 40
1.0
176
     0
  0
VISUALSTYLE
  5
1010026
102
{ACAD_REACTORS
330
101001C
102
}
330
101001C
100
AcDbVisualStyle
  2
Realistic
 70
     8
177
     3
291
     0
 70
    58
 90
        2
176
     1
 90
        3
176
     1
 90
        0
176
     1
 90
        2
176
     1
 40
0.6
176
     1
 40
30.0
176
     1
 62
     7
420
 16777215
176
     1
 90
        0
176
     1
 90
        0
176
     1
 62
     7
176
     1
 62
   257
176
     1
 90
        1
176
     1
 90
        1
176
     1
 40
1.0
176
     1
 90
        8
176
     1
 62
   257
176
     1
 40
1.0
176
     1
 90
        1
176
     1
 90
        6
176
     1
 90
        2
176
     1
 62
     7
176
     1
 90
        3
176
     1
 90
        0
176
     1
 90
        0
176
     1
290
     0
176
     1
 90
       13
176
     1
 40
0.0
176
     1
 90
        0
176
     1
290
     0
176
     1
290
     1
176
     1
290
     1
176
     1
290
     0
176
     1
290
     0
176
     1
290
     0
176
     1
290
     0
176
     1
290
     0
176
     1
290
     0
176
     1
 90
       50
176
     1
 40
0.0
176
     1
 40
1.0
176
     1
 90
        0
176
     1
 62
    18
420
        0
176
     1
 90
       50
176
     1
 90
        3
176
     1
 62
     5
420
      255
176
     1
290
     0
176
     1
 90
       50
176
     1
 90
       50
176
     1
 90
       50
176
     1
290
     0
176
     1
 90
       50
176
     1
 62
   256
176
     0
 40
1.0
176
     0
 90
        2
176
     1
  1
strokes_ogs.tif
176
     1
290
     0
176
     1
 40
1.0
176
     1
 40
1.0
176
     1
  0
VISUALSTYLE
  5
1010031
102
{ACAD_REACTORS
330
101001C
102
}
330
101001C
100
AcDbVisualStyle
  2
Shaded
 70
    27
177
     3
291
     0
 70
    58
 90
        2
176
     1
 90
        2
176
     1
 90
        1
176
     1
 90
        2
176
     1
 40
0.6
176
     1
 40
30.0
176
     1
 62
     7
420
 16777215
176
     1
 90
        0
176
     1
 90
        4
176
     1
 62
     7
176
     1
 62
   257
176
     1
 90
        1
176
     1
 90
        1
176
     1
 40
1.0
176
     1
 90
        8
176
     1
 62
   257
176
     1
 40
1.0
176
     1
 90
        1
176
     1
 90
        6
176
     1
 90
        2
176
     1
 62
     8
420
  7895160
176
     1
 90
        3
176
     1
 90
        0
176
     1
 90
        0
176
     1
290
     0
176
     1
 90
        5
176
     1
 40
0.0
176
     1
 90
        0
176
     1
290
     0
176
     1
290
     1
176
     1
290
     1
176
     1
290
     0
176
     1
290
     0
176
     1
290
     0
176
     1
290
     0
176
     1
290
     0
176
     1
290
     0
176
     1
 90
       50
176
     1
 40
0.0
176
     1
 40
1.0
176
     1
 90
        0
176
     1
 62
    18
420
        0
176
     1
 90
       50
176
     1
 90
        3
176
     1
 62
     5
420
      255
176
     1
290
     0
176
     1
 90
       50
176
     1
 90
       50
176
     1
 90
       50
176
     1
290
     0
176
     1
 90
       50
176
     1
 62
   256
176
     0
 40
1.0
176
     0
 90
        2
176
     1
  1
strokes_ogs.tif
176
     1
290
     0
176
     1
 40
1.0
176
     1
 40
1.0
176
     1
  0
VISUALSTYLE
  5
1010030
102
{ACAD_REACTORS
330
101001C
102
}
330
101001C
100
AcDbVisualStyle
  2
Shaded with edges
 70
    26
177
     3
291
     0
 70
    58
 90
        2
176
     1
 90
        2
176
     1
 90
        1
176
     1
 90
        2
176
     1
 40
0.6
176
     1
 40
30.0
176
     1
 62
     7
420
 16777215
176
     1
 90
        1
176
     1
 90
        2
176
     1
 62
     7
176
     1
 62
   257
176
     1
 90
        2
176
     1
 90
        1
176
     1
 40
1.0
176
     1
 90
        8
176
     1
 62
   257
176
     1
 40
1.0
176
     1
 90
        1
176
     1
 90
        6
176
     1
 90
        2
176
     1
 62
     7
176
     1
 90
        3
176
     1
 90
        0
176
     1
 90
        0
176
     1
290
     0
176
     1
 90
        5
176
     1
 40
0.0
176
     1
 90
        0
176
     1
290
     0
176
     1
290
     1
176
     1
290
     1
176
     1
290
     0
176
     1
290
     0
176
     1
290
     0
176
     1
290
     0
176
     1
290
     0
176
     1
290
     0
176
     1
 90
       50
176
     1
 40
0.0
176
     1
 40
1.0
176
     1
 90
        0
176
     1
 62
    18
420
        0
176
     1
 90
       50
176
     1
 90
        3
176
     1
 62
     5
420
      255
176
     1
290
     0
176
     1
 90
       50
176
     1
 90
       50
176
     1
 90
       50
176
     1
290
     0
176
     1
 90
       50
176
     1
 62
   256
176
     0
 40
1.0
176
     0
 90
        2
176
     1
  1
strokes_ogs.tif
176
     1
290
     0
176
     1
 40
1.0
176
     1
 40
1.0
176
     1
  0
VISUALSTYLE
  5
101002D
102
{ACAD_REACTORS
330
101001C
102
}
330
101001C
100
AcDbVisualStyle
  2
Shades of Gray
 70
    23
177
     3
291
     0
 70
    58
 90
        2
176
     1
 90
        2
176
     1
 90
        3
176
     1
 90
        0
176
     1
 40
0.6
176
     1
 40
30.0
176
     1
 62
     7
420
 16777215
176
     1
 90
        2
176
     1
 90
        2
176
     1
 62
     7
176
     1
 62
     7
176
     1
 90
        1
176
     1
 90
        1
176
     1
 40
40.0
176
     1
 90
        8
176
     1
 62
     7
176
     1
 40
1.0
176
     1
 90
        1
176
     1
 90
        6
176
     1
 90
        2
176
     1
 62
     7
176
     1
 90
        3
176
     1
 90
        0
176
     1
 90
        0
176
     1
290
     0
176
     1
 90
        1
176
     1
 40
0.0
176
     1
 90
        0
176
     1
290
     0
176
     1
290
     1
176
     1
290
     1
176
     1
290
     0
176
     1
290
     0
176
     1
290
     0
176
     1
290
     0
176
     1
290
     0
176
     1
290
     0
176
     1
 90
       50
176
     1
 40
0.0
176
     1
 40
1.0
176
     1
 90
        0
176
     1
 62
    18
420
        0
176
     1
 90
       50
176
     1
 90
        3
176
     1
 62
     5
420
      255
176
     1
290
     0
176
     1
 90
       50
176
     1
 90
       50
176
     1
 90
       50
176
     1
290
     0
176
     1
 90
       50
176
     1
 62
   256
176
     0
 40
1.0
176
     0
 90
        2
176
     1
  1
strokes_ogs.tif
176
     1
290
     0
176
     1
 40
1.0
176
     1
 40
1.0
176
     1
  0
VISUALSTYLE
  5
101002E
102
{ACAD_REACTORS
330
101001C
102
}
330
101001C
100
AcDbVisualStyle
  2
Sketchy
 70
    24
177
     3
291
     0
 70
    58
 90
        1
176
     1
 90
        2
176
     1
 90
        2
176
     1
 90
        0
176
     1
 40
0.6
176
     1
 40
30.0
176
     1
 62
     7
420
 16777215
176
     1
 90
        2
176
     1
 90
        2
176
     1
 62
     7
176
     1
 62
     7
176
     1
 90
        1
176
     1
 90
        1
176
     1
 40
40.0
176
     1
 90
       11
176
     1
 62
     7
176
     1
 40
1.0
176
     1
 90
        1
176
     1
 90
        6
176
     1
 90
        2
176
     1
 62
     7
176
     1
 90
        6
176
     1
 90
        0
176
     1
 90
        0
176
     1
290
     0
176
     1
 90
        1
176
     1
 40
0.0
176
     1
 90
        0
176
     1
290
     0
176
     1
290
     1
176
     1
290
     1
176
     1
290
     0
176
     1
290
     0
176
     1
290
     0
176
     1
290
     0
176
     1
290
     0
176
     1
290
     0
176
     1
 90
       50
176
     1
 40
0.0
176
     1
 40
1.0
176
     1
 90
        0
176
     1
 62
    18
420
        0
176
     1
 90
       50
176
     1
 90
        3
176
     1
 62
     5
420
      255
176
     1
290
     0
176
     1
 90
       50
176
     1
 90
       50
176
     1
 90
       50
176
     1
290
     0
176
     1
 90
       50
176
     1
 62
   256
176
     0
 40
1.0
176
     0
 90
        2
176
     1
  1
strokes_ogs.tif
176
     1
290
     0
176
     1
 40
1.0
176
     1
 40
1.0
176
     1
  0
VISUALSTYLE
  5
1010029
102
{ACAD_REACTORS
330
101001C
102
}
330
101001C
100
AcDbVisualStyle
  2
Thicken
 70
    13
177
     3
291
     1
 70
    58
 90
        2
176
     1
 90
        2
176
     1
 90
        0
176
     1
 90
        0
176
     1
 40
0.6
176
     1
 40
30.0
176
     1
 62
     7
420
 16777215
176
     1
 90
        1
176
     1
 90
        4
176
     1
 62
     7
176
     1
 62
   257
176
     1
 90
        1
176
     1
 90
        1
176
     1
 40
1.0
176
     1
 90
       12
176
     1
 62
     7
176
     1
 40
1.0
176
     1
 90
        1
176
     1
 90
        6
176
     1
 90
        2
176
     1
 62
     7
176
     1
 90
        5
176
     1
 90
        0
176
     1
 90
        0
176
     1
290
     0
176
     1
 90
        1
176
     1
 40
0.0
176
     1
 90
        0
176
     1
290
     0
176
     1
290
     1
176
     1
290
     1
176
     1
290
     0
176
     1
290
     0
176
     1
290
     0
176
     1
290
     0
176
     1
290
     0
176
     1
290
     0
176
     1
 90
       50
176
     1
 40
0.0
176
     1
 40
1.0
176
     1
 90
        0
176
     1
 62
    18
420
        0
176
     1
 90
       50
176
     1
 90
        3
176
     1
 62
     5
420
      255
176
     1
290
     0
176
     1
 90
       50
176
     1
 90
       50
176
     1
 90
       50
176
     1
290
     0
176
     1
 90
       50
176
     1
 62
   256
176
     0
 40
1.0
176
     0
 90
        2
176
     1
  1
strokes_ogs.tif
176
     1
290
     0
176
     1
 40
1.0
176
     1
 40
1.0
176
     1
  0
VISUALSTYLE
  5
1010023
102
{ACAD_REACTORS
330
101001C
102
}
330
101001C
100
AcDbVisualStyle
  2
Wireframe
 70
     5
177
     3
291
     0
 70
    58
 90
        0
176
     1
 90
        2
176
     1
 90
        0
176
     1
 90
        0
176
     1
 40
0.6
176
     1
 40
30.0
176
     1
 62
     7
420
 16777215
176
     1
 90
        1
176
     1
 90
        4
176
     1
 62
     7
176
     1
 62
   257
176
     1
 90
        1
176
     1
 90
        1
176
     1
 40
1.0
176
     1
 90
        0
176
     1
 62
   257
176
     1
 40
1.0
176
     1
 90
        1
176
     1
 90
        6
176
     1
 90
        2
176
     1
 62
     7
176
     1
 90
        3
176
     1
 90
        0
176
     1
 90
        0
176
     1
290
     0
176
     1
 90
        1
176
     1
 40
0.0
176
     1
 90
        0
176
     1
290
     0
176
     1
290
     1
176
     1
290
     1
176
     1
290
     0
176
     1
290
     0
176
     1
290
     0
176
     1
290
     0
176
     1
290
     0
176
     1
290
     0
176
     1
 90
       50
176
     1
 40
0.0
176
     1
 40
1.0
176
     1
 90
        0
176
     1
 62
    18
420
        0
176
     1
 90
       50
176
     1
 90
        3
176
     1
 62
     5
420
      255
176
     1
290
     0
176
     1
 90
       50
176
     1
 90
       50
176
     1
 90
       50
176
     1
290
     0
176
     1
 90
       50
176
     1
 62
   256
176
     0
 40
1.0
176
     0
 90
        2
176
     1
  1
strokes_ogs.tif
176
     1
290
     0
176
     1
 40
1.0
176
     1
 40
1.0
176
     1
  0
VISUALSTYLE
  5
101002F
102
{ACAD_REACTORS
330
101001C
102
}
330
101001C
100
AcDbVisualStyle
  2
X-Ray
 70
    25
177
     3
291
     0
 70
    58
 90
        2
176
     1
 90
        2
176
     1
 90
        1
176
     1
 90
        1
176
     1
 40
0.5
176
     1
 40
30.0
176
     1
 62
     7
420
 16777215
176
     1
 90
        1
176
     1
 90
        0
176
     1
 62
     7
176
     1
 62
   257
176
     1
 90
        1
176
     1
 90
        1
176
     1
 40
1.0
176
     1
 90
        8
176
     1
 62
     7
176
     1
 40
1.0
176
     1
 90
        1
176
     1
 90
        6
176
     1
 90
        2
176
     1
 62
     7
176
     1
 90
        3
176
     1
 90
        0
176
     1
 90
        0
176
     1
290
     0
176
     1
 90
       13
176
     1
 40
0.0
176
     1
 90
        0
176
     1
290
     0
176
     1
290
     1
176
     1
290
     1
176
     1
290
     0
176
     1
290
     0
176
     1
290
     0
176
     1
290
     0
176
     1
290
     0
176
     1
290
     0
176
     1
 90
       50
176
     1
 40
0.0
176
     1
 40
1.0
176
     1
 90
        0
176
     1
 62
    18
420
        0
176
     1
 90
       50
176
     1
 90
        3
176
     1
 62
     5
420
      255
176
     1
290
     0
176
     1
 90
       50
176
     1
 90
       50
176
     1
 90
       50
176
     1
290
     0
176
     1
 90
       50
176
     1
 62
   256
176
     0
 40
1.0
176
     0
 90
        2
176
     1
  1
strokes_ogs.tif
176
     1
290
     0
176
     1
 40
1.0
176
     1
 40
1.0
176
     1
  0
DICTIONARYVAR
  5
1010128
102
{ACAD_REACTORS
330
1010122
102
}
330
1010122
100
DictionaryVariables
280
     0
  1
1:1
  0
DICTIONARYVAR
  5
1010124
102
{ACAD_REACTORS
330
1010122
102
}
330
1010122
100
DictionaryVariables
280
     0
  1
STANDARD
  0
DICTIONARYVAR
  5
1010123
102
{ACAD_REACTORS
330
1010122
102
}
330
1010122
100
DictionaryVariables
280
     0
  1
STANDARD
  0
DICTIONARYVAR
  5
1010125
102
{ACAD_REACTORS
330
1010122
102
}
330
1010122
100
DictionaryVariables
280
     0
  1
Metric50
  0
DICTIONARYVAR
  5
1010126
102
{ACAD_REACTORS
330
1010122
102
}
330
1010122
100
DictionaryVariables
280
     0
  1
Metric50
  0
DICTIONARYVAR
  5
101012A
102
{ACAD_REACTORS
330
1010122
102
}
330
1010122
100
DictionaryVariables
280
     0
  1
1
  0
DICTIONARYVAR
  5
101012B
102
{ACAD_REACTORS
330
1010122
102
}
330
1010122
100
DictionaryVariables
280
     0
  1
15
  0
DICTIONARYVAR
  5
1010129
102
{ACAD_REACTORS
330
1010122
102
}
330
1010122
100
DictionaryVariables
280
     0
  1
0
  0
DICTIONARYVAR
  5
1010127
102
{ACAD_REACTORS
330
1010122
102
}
330
1010122
100
DictionaryVariables
280
     0
  1
0
  0
DICTIONARY
  5
101011F
330
101004F
100
AcDbDictionary
280
     1
281
     1
  3
ACAD_XREC_ROUNDTRIP
360
1010134
  0
DICTIONARY
  5
101000D
330
101000C
100
AcDbDictionary
280
     1
281
     1
  3
BUMPTILE
360
101000F
  3
DIFFUSETILE
360
101000E
  3
OPACITYTILE
360
1010012
  3
REFLECTIONTILE
360
1010011
  3
REFRACTIONTILE
360
1010013
  3
SPECULARTILE
360
1010010
  0
DICTIONARY
  5
1010005
330
1010004
100
AcDbDictionary
280
     1
281
     1
  3
BUMPTILE
360
1010007
  3
DIFFUSETILE
360
1010006
  3
OPACITYTILE
360
101000A
  3
REFLECTIONTILE
360
1010009
  3
REFRACTIONTILE
360
101000B
  3
SPECULARTILE
360
1010008
  0
DICTIONARY
  5
1010015
330
1010014
100
AcDbDictionary
280
     1
281
     1
  3
BUMPTILE
360
1010017
  3
DIFFUSETILE
360
1010016
  3
OPACITYTILE
360
101001A
  3
REFLECTIONTILE
360
1010019
  3
REFRACTIONTILE
360
101001B
  3
SPECULARTILE
360
1010018
  0
DICTIONARY
  5
101011D
330
101004D
100
AcDbDictionary
280
     1
281
     1
  3
ACAD_XREC_ROUNDTRIP
360
1010133
  0
DICTIONARY
  5
1010131
330
1010037
100
AcDbDictionary
280
     1
281
     1
  3
ACAD_ROUNDTRIP_2008_TABLESTYLE_CELLSTYLEMAP
360
1010132
  0
XRECORD
  5
1010134
102
{ACAD_REACTORS
330
101011F
102
}
330
101011F
100
AcDbXrecord
280
     1
102
DISPLAYNAME
  1
Metric50
102
FLAGS
 90
        0
  0
XRECORD
  5
101000F
102
{ACAD_REACTORS
330
101000D
102
}
330
101000D
100
AcDbXrecord
280
     1
270
     1
271
     1
  0
XRECORD
  5
101000E
102
{ACAD_REACTORS
330
101000D
102
}
330
101000D
100
AcDbXrecord
280
     1
270
     1
271
     1
  0
XRECORD
  5
1010012
102
{ACAD_REACTORS
330
101000D
102
}
330
101000D
100
AcDbXrecord
280
     1
270
     1
271
     1
  0
XRECORD
  5
1010011
102
{ACAD_REACTORS
330
101000D
102
}
330
101000D
100
AcDbXrecord
280
     1
270
     1
271
     1
  0
XRECORD
  5
1010013
102
{ACAD_REACTORS
330
101000D
102
}
330
101000D
100
AcDbXrecord
280
     1
270
     1
271
     1
  0
XRECORD
  5
1010010
102
{ACAD_REACTORS
330
101000D
102
}
330
101000D
100
AcDbXrecord
280
     1
270
     1
271
     1
  0
XRECORD
  5
1010007
102
{ACAD_REACTORS
330
1010005
102
}
330
1010005
100
AcDbXrecord
280
     1
270
     1
271
     1
  0
XRECORD
  5
1010006
102
{ACAD_REACTORS
330
1010005
102
}
330
1010005
100
AcDbXrecord
280
     1
270
     1
271
     1
  0
XRECORD
  5
101000A
102
{ACAD_REACTORS
330
1010005
102
}
330
1010005
100
AcDbXrecord
280
     1
270
     1
271
     1
  0
XRECORD
  5
1010009
102
{ACAD_REACTORS
330
1010005
102
}
330
1010005
100
AcDbXrecord
280
     1
270
     1
271
     1
  0
XRECORD
  5
101000B
102
{ACAD_REACTORS
330
1010005
102
}
330
1010005
100
AcDbXrecord
280
     1
270
     1
271
     1
  0
XRECORD
  5
1010008
102
{ACAD_REACTORS
330
1010005
102
}
330
1010005
100
AcDbXrecord
280
     1
270
     1
271
     1
  0
XRECORD
  5
1010017
102
{ACAD_REACTORS
330
1010015
102
}
330
1010015
100
AcDbXrecord
280
     1
270
     1
271
     1
  0
XRECORD
  5
1010016
102
{ACAD_REACTORS
330
1010015
102
}
330
1010015
100
AcDbXrecord
280
     1
270
     1
271
     1
  0
XRECORD
  5
101001A
102
{ACAD_REACTORS
330
1010015
102
}
330
1010015
100
AcDbXrecord
280
     1
270
     1
271
     1
  0
XRECORD
  5
1010019
102
{ACAD_REACTORS
330
1010015
102
}
330
1010015
100
AcDbXrecord
280
     1
270
     1
271
     1
  0
XRECORD
  5
101001B
102
{ACAD_REACTORS
330
1010015
102
}
330
1010015
100
AcDbXrecord
280
     1
270
     1
271
     1
  0
XRECORD
  5
1010018
102
{ACAD_REACTORS
330
1010015
102
}
330
1010015
100
AcDbXrecord
280
     1
270
     1
271
     1
  0
XRECORD
  5
1010133
102
{ACAD_REACTORS
330
101011D
102
}
330
101011D
100
AcDbXrecord
280
     1
102
DISPLAYNAME
  1
Metric50
102
FLAGS
 90
        0
  0
CELLSTYLEMAP
  5
1010132
102
{ACAD_REACTORS
330
1010131
102
}
330
1010131
100
AcDbCellStyleMap
 90
        3
300
CELLSTYLE
  1
TABLEFORMAT_BEGIN
 90
        5
170
     1
 91
        0
 92
    32768
 62
   257
 93
        1
300
CONTENTFORMAT
  1
CONTENTFORMAT_BEGIN
 90
        0
 91
        0
 92
      512
 93
        0
300

 40
0.0
140
1.0
 94
        5
 62
     0
340
11
144
6.0
309
CONTENTFORMAT_END
171
     1
301
MARGIN
  1
CELLMARGIN_BEGIN
 40
1.5
 40
1.5
 40
1.5
 40
1.5
 40
4.5
 40
4.5
309
CELLMARGIN_END
 94
        6
 95
        1
302
GRIDFORMAT
  1
GRIDFORMAT_BEGIN
 90
        0
 91
        1
 62
     0
 92
       -2
340
0
 93
        0
 40
1.125
309
GRIDFORMAT_END
 95
        2
302
GRIDFORMAT
  1
GRIDFORMAT_BEGIN
 90
        0
 91
        1
 62
     0
 92
       -2
340
0
 93
        0
 40
1.125
309
GRIDFORMAT_END
 95
        4
302
GRIDFORMAT
  1
GRIDFORMAT_BEGIN
 90
        0
 91
        1
 62
     0
 92
       -2
340
0
 93
        0
 40
1.125
309
GRIDFORMAT_END
 95
        8
302
GRIDFORMAT
  1
GRIDFORMAT_BEGIN
 90
        0
 91
        1
 62
     0
 92
       -2
340
0
 93
        0
 40
1.125
309
GRIDFORMAT_END
 95
       16
302
GRIDFORMAT
  1
GRIDFORMAT_BEGIN
 90
        0
 91
        1
 62
     0
 92
       -2
340
0
 93
        0
 40
1.125
309
GRIDFORMAT_END
 95
       32
302
GRIDFORMAT
  1
GRIDFORMAT_BEGIN
 90
        0
 91
        1
 62
     0
 92
       -2
340
0
 93
        0
 40
1.125
309
GRIDFORMAT_END
309
TABLEFORMAT_END
  1
CELLSTYLE_BEGIN
 90
        1
 91
        1
300
_TITLE
309
CELLSTYLE_END
300
CELLSTYLE
  1
TABLEFORMAT_BEGIN
 90
        5
170
     1
 91
        0
 92
        0
 62
   257
 93
        1
300
CONTENTFORMAT
  1
CONTENTFORMAT_BEGIN
 90
        0
 91
        0
 92
      512
 93
        0
300

 40
0.0
140
1.0
 94
        5
 62
     0
340
11
144
4.5
309
CONTENTFORMAT_END
171
     1
301
MARGIN
  1
CELLMARGIN_BEGIN
 40
1.5
 40
1.5
 40
1.5
 40
1.5
 40
4.5
 40
4.5
309
CELLMARGIN_END
 94
        6
 95
        1
302
GRIDFORMAT
  1
GRIDFORMAT_BEGIN
 90
        0
 91
        1
 62
     0
 92
       -2
340
0
 93
        0
 40
1.125
309
GRIDFORMAT_END
 95
        2
302
GRIDFORMAT
  1
GRIDFORMAT_BEGIN
 90
        0
 91
        1
 62
     0
 92
       -2
340
0
 93
        0
 40
1.125
309
GRIDFORMAT_END
 95
        4
302
GRIDFORMAT
  1
GRIDFORMAT_BEGIN
 90
        0
 91
        1
 62
     0
 92
       -2
340
0
 93
        0
 40
1.125
309
GRIDFORMAT_END
 95
        8
302
GRIDFORMAT
  1
GRIDFORMAT_BEGIN
 90
        0
 91
        1
 62
     0
 92
       -2
340
0
 93
        0
 40
1.125
309
GRIDFORMAT_END
 95
       16
302
GRIDFORMAT
  1
GRIDFORMAT_BEGIN
 90
        0
 91
        1
 62
     0
 92
       -2
340
0
 93
        0
 40
1.125
309
GRIDFORMAT_END
 95
       32
302
GRIDFORMAT
  1
GRIDFORMAT_BEGIN
 90
        0
 91
        1
 62
     0
 92
       -2
340
0
 93
        0
 40
1.125
309
GRIDFORMAT_END
309
TABLEFORMAT_END
  1
CELLSTYLE_BEGIN
 90
        2
 91
        1
300
_HEADER
309
CELLSTYLE_END
300
CELLSTYLE
  1
TABLEFORMAT_BEGIN
 90
        5
170
     1
 91
        0
 92
        0
 62
   257
 93
        1
300
CONTENTFORMAT
  1
CONTENTFORMAT_BEGIN
 90
        0
 91
        0
 92
      512
 93
        0
300

 40
0.0
140
1.0
 94
        2
 62
     0
340
11
144
4.5
309
CONTENTFORMAT_END
171
     1
301
MARGIN
  1
CELLMARGIN_BEGIN
 40
1.5
 40
1.5
 40
1.5
 40
1.5
 40
4.5
 40
4.5
309
CELLMARGIN_END
 94
        6
 95
        1
302
GRIDFORMAT
  1
GRIDFORMAT_BEGIN
 90
        0
 91
        1
 62
     0
 92
       -2
340
0
 93
        0
 40
1.125
309
GRIDFORMAT_END
 95
        2
302
GRIDFORMAT
  1
GRIDFORMAT_BEGIN
 90
        0
 91
        1
 62
     0
 92
       -2
340
0
 93
        0
 40
1.125
309
GRIDFORMAT_END
 95
        4
302
GRIDFORMAT
  1
GRIDFORMAT_BEGIN
 90
        0
 91
        1
 62
     0
 92
       -2
340
0
 93
        0
 40
1.125
309
GRIDFORMAT_END
 95
        8
302
GRIDFORMAT
  1
GRIDFORMAT_BEGIN
 90
        0
 91
        1
 62
     0
 92
       -2
340
0
 93
        0
 40
1.125
309
GRIDFORMAT_END
 95
       16
302
GRIDFORMAT
  1
GRIDFORMAT_BEGIN
 90
        0
 91
        1
 62
     0
 92
       -2
340
0
 93
        0
 40
1.125
309
GRIDFORMAT_END
 95
       32
302
GRIDFORMAT
  1
GRIDFORMAT_BEGIN
 90
        0
 91
        1
 62
     0
 92
       -2
340
0
 93
        0
 40
1.125
309
GRIDFORMAT_END
309
TABLEFORMAT_END
  1
CELLSTYLE_BEGIN
 90
        3
 91
        2
300
_DATA
309
CELLSTYLE_END
  0
ENDSEC
  0
EOF
