ISO-10303-21;
HEADER;
FILE_DESCRIPTION( ( '' ), ' ' );
FILE_NAME( '/vol/tmp/translate-7274882642136217916/5d1fe8b75c37d017553b0208.step', '2019-07-06T00:18:00', ( '' ), ( '' ), ' ', ' ', ' ' );
FILE_SCHEMA( ( 'AUTOMOTIVE_DESIGN { 1 0 10303 214 1 1 1 1 }' ) );
ENDSEC;
DATA;
#1 = MECHANICAL_DESIGN_GEOMETRIC_PRESENTATION_REPRESENTATION( ' ', ( #10, #11, #12, #13, #14, #15, #16, #17 ), #6 );
#2 = PRODUCT_DEFINITION_CONTEXT( '', #18, 'design' );
#3 = APPLICATION_PROTOCOL_DEFINITION( 'international standard', 'automotive_design', 2001, #18 );
#4 = PRODUCT_CATEGORY_RELATIONSHIP( 'NONE', 'NONE', #19, #20 );
#5 = SHAPE_DEFINITION_REPRESENTATION( #21, #22 );
#6 =  ( GEOMETRIC_REPRESENTATION_CONTEXT( 3 )GLOBAL_UNCERTAINTY_ASSIGNED_CONTEXT( ( #25 ) )GLOBAL_UNIT_ASSIGNED_CONTEXT( ( #27, #28, #29 ) )REPRESENTATION_CONTEXT( 'NONE', 'WORKSPACE' ) );
#10 = STYLED_ITEM( '', ( #31 ), #32 );
#11 = STYLED_ITEM( '', ( #33 ), #34 );
#12 = STYLED_ITEM( '', ( #35 ), #36 );
#13 = STYLED_ITEM( '', ( #37 ), #38 );
#14 = STYLED_ITEM( '', ( #39 ), #40 );
#15 = STYLED_ITEM( '', ( #41 ), #42 );
#16 = STYLED_ITEM( '', ( #43 ), #44 );
#17 = STYLED_ITEM( '', ( #45 ), #46 );
#18 = APPLICATION_CONTEXT( 'core data for automotive mechanical design processes' );
#19 = PRODUCT_CATEGORY( 'part', 'NONE' );
#20 = PRODUCT_RELATED_PRODUCT_CATEGORY( 'detail', ' ', ( #47 ) );
#21 = PRODUCT_DEFINITION_SHAPE( 'NONE', 'NONE', #48 );
#22 = ADVANCED_BREP_SHAPE_REPRESENTATION( 'Part 1', ( #49, #50 ), #6 );
#25 = UNCERTAINTY_MEASURE_WITH_UNIT( LENGTH_MEASURE( 1.00000000000000E-06 ), #27, '', '' );
#27 =  ( CONVERSION_BASED_UNIT( 'METRE', #53 )LENGTH_UNIT(  )NAMED_UNIT( #56 ) );
#28 =  ( NAMED_UNIT( #58 )PLANE_ANGLE_UNIT(  )SI_UNIT( $, .RADIAN. ) );
#29 =  ( NAMED_UNIT( #58 )SI_UNIT( $, .STERADIAN. )SOLID_ANGLE_UNIT(  ) );
#31 = PRESENTATION_STYLE_ASSIGNMENT( ( #64 ) );
#32 = ADVANCED_FACE( '', ( #65 ), #66, .T. );
#33 = PRESENTATION_STYLE_ASSIGNMENT( ( #67 ) );
#34 = ADVANCED_FACE( '', ( #68 ), #69, .T. );
#35 = PRESENTATION_STYLE_ASSIGNMENT( ( #70 ) );
#36 = ADVANCED_FACE( '', ( #71 ), #72, .T. );
#37 = PRESENTATION_STYLE_ASSIGNMENT( ( #73 ) );
#38 = ADVANCED_FACE( '', ( #74 ), #75, .T. );
#39 = PRESENTATION_STYLE_ASSIGNMENT( ( #76 ) );
#40 = ADVANCED_FACE( '', ( #77 ), #78, .F. );
#41 = PRESENTATION_STYLE_ASSIGNMENT( ( #79 ) );
#42 = ADVANCED_FACE( '', ( #80 ), #81, .T. );
#43 = PRESENTATION_STYLE_ASSIGNMENT( ( #82 ) );
#44 = ADVANCED_FACE( '', ( #83 ), #84, .T. );
#45 = PRESENTATION_STYLE_ASSIGNMENT( ( #85 ) );
#46 = ADVANCED_FACE( '', ( #86 ), #87, .T. );
#47 = PRODUCT( 'Part 1', 'Part 1', 'PART-Part 1-DESC', ( #88 ) );
#48 = PRODUCT_DEFINITION( 'NONE', 'NONE', #89, #2 );
#49 = MANIFOLD_SOLID_BREP( 'Part 1', #90 );
#50 = AXIS2_PLACEMENT_3D( '', #91, #92, #93 );
#53 = LENGTH_MEASURE_WITH_UNIT( LENGTH_MEASURE( 1.00000000000000 ), #94 );
#56 = DIMENSIONAL_EXPONENTS( 1.00000000000000, 0.00000000000000, 0.00000000000000, 0.00000000000000, 0.00000000000000, 0.00000000000000, 0.00000000000000 );
#58 = DIMENSIONAL_EXPONENTS( 0.00000000000000, 0.00000000000000, 0.00000000000000, 0.00000000000000, 0.00000000000000, 0.00000000000000, 0.00000000000000 );
#64 = SURFACE_STYLE_USAGE( .BOTH., #95 );
#65 = FACE_OUTER_BOUND( '', #96, .T. );
#66 = CYLINDRICAL_SURFACE( '', #97, 0.00235000000000000 );
#67 = SURFACE_STYLE_USAGE( .BOTH., #98 );
#68 = FACE_OUTER_BOUND( '', #99, .T. );
#69 = CONICAL_SURFACE( '', #100, 0.00375000000000000, 0.785398163400000 );
#70 = SURFACE_STYLE_USAGE( .BOTH., #101 );
#71 = FACE_OUTER_BOUND( '', #102, .T. );
#72 = PLANE( '', #103 );
#73 = SURFACE_STYLE_USAGE( .BOTH., #104 );
#74 = FACE_OUTER_BOUND( '', #105, .T. );
#75 = PLANE( '', #106 );
#76 = SURFACE_STYLE_USAGE( .BOTH., #107 );
#77 = FACE_OUTER_BOUND( '', #108, .T. );
#78 = PLANE( '', #109 );
#79 = SURFACE_STYLE_USAGE( .BOTH., #110 );
#80 = FACE_OUTER_BOUND( '', #111, .T. );
#81 = CYLINDRICAL_SURFACE( '', #112, 0.00375000000000000 );
#82 = SURFACE_STYLE_USAGE( .BOTH., #113 );
#83 = FACE_OUTER_BOUND( '', #114, .T. );
#84 = PLANE( '', #115 );
#85 = SURFACE_STYLE_USAGE( .BOTH., #116 );
#86 = FACE_OUTER_BOUND( '', #117, .T. );
#87 = PLANE( '', #118 );
#88 = PRODUCT_CONTEXT( '', #18, 'mechanical' );
#89 = PRODUCT_DEFINITION_FORMATION_WITH_SPECIFIED_SOURCE( ' ', 'NONE', #47, .NOT_KNOWN. );
#90 = CLOSED_SHELL( '', ( #34, #46, #32, #40, #44, #42, #38, #36 ) );
#91 = CARTESIAN_POINT( '', ( 0.00000000000000, 0.00000000000000, 0.00000000000000 ) );
#92 = DIRECTION( '', ( 0.00000000000000, 0.00000000000000, 1.00000000000000 ) );
#93 = DIRECTION( '', ( 1.00000000000000, 0.00000000000000, 0.00000000000000 ) );
#94 =  ( LENGTH_UNIT(  )NAMED_UNIT( #56 )SI_UNIT( $, .METRE. ) );
#95 = SURFACE_SIDE_STYLE( '', ( #120 ) );
#96 = EDGE_LOOP( '', ( #121, #122, #123, #124 ) );
#97 = AXIS2_PLACEMENT_3D( '', #125, #126, #127 );
#98 = SURFACE_SIDE_STYLE( '', ( #128 ) );
#99 = EDGE_LOOP( '', ( #129, #130, #131, #132 ) );
#100 = AXIS2_PLACEMENT_3D( '', #133, #134, #135 );
#101 = SURFACE_SIDE_STYLE( '', ( #136 ) );
#102 = EDGE_LOOP( '', ( #137, #138, #139, #140 ) );
#103 = AXIS2_PLACEMENT_3D( '', #141, #142, #143 );
#104 = SURFACE_SIDE_STYLE( '', ( #144 ) );
#105 = EDGE_LOOP( '', ( #145, #146, #147, #148 ) );
#106 = AXIS2_PLACEMENT_3D( '', #149, #150, #151 );
#107 = SURFACE_SIDE_STYLE( '', ( #152 ) );
#108 = EDGE_LOOP( '', ( #153, #154 ) );
#109 = AXIS2_PLACEMENT_3D( '', #155, #156, #157 );
#110 = SURFACE_SIDE_STYLE( '', ( #158 ) );
#111 = EDGE_LOOP( '', ( #159, #160, #161, #162 ) );
#112 = AXIS2_PLACEMENT_3D( '', #163, #164, #165 );
#113 = SURFACE_SIDE_STYLE( '', ( #166 ) );
#114 = EDGE_LOOP( '', ( #167, #168 ) );
#115 = AXIS2_PLACEMENT_3D( '', #169, #170, #171 );
#116 = SURFACE_SIDE_STYLE( '', ( #172 ) );
#117 = EDGE_LOOP( '', ( #173, #174, #175, #176, #177, #178, #179, #180 ) );
#118 = AXIS2_PLACEMENT_3D( '', #181, #182, #183 );
#120 = SURFACE_STYLE_FILL_AREA( #184 );
#121 = ORIENTED_EDGE( '', *, *, #185, .T. );
#122 = ORIENTED_EDGE( '', *, *, #186, .T. );
#123 = ORIENTED_EDGE( '', *, *, #187, .F. );
#124 = ORIENTED_EDGE( '', *, *, #188, .F. );
#125 = CARTESIAN_POINT( '', ( -0.0463215783238411, 0.0226525589823723, 0.120000000000000 ) );
#126 = DIRECTION( '', ( -0.00000000000000, -0.00000000000000, 1.00000000000000 ) );
#127 = DIRECTION( '', ( -1.00000000000000, 0.00000000000000, 0.00000000000000 ) );
#128 = SURFACE_STYLE_FILL_AREA( #189 );
#129 = ORIENTED_EDGE( '', *, *, #190, .F. );
#130 = ORIENTED_EDGE( '', *, *, #191, .F. );
#131 = ORIENTED_EDGE( '', *, *, #192, .F. );
#132 = ORIENTED_EDGE( '', *, *, #193, .F. );
#133 = CARTESIAN_POINT( '', ( -0.0463215783238411, 0.0226525589823723, 0.00130000000000000 ) );
#134 = DIRECTION( '', ( -0.00000000000000, -0.00000000000000, 1.00000000000000 ) );
#135 = DIRECTION( '', ( 1.00000000000000, 0.00000000000000, 0.00000000000000 ) );
#136 = SURFACE_STYLE_FILL_AREA( #194 );
#137 = ORIENTED_EDGE( '', *, *, #192, .T. );
#138 = ORIENTED_EDGE( '', *, *, #195, .F. );
#139 = ORIENTED_EDGE( '', *, *, #190, .T. );
#140 = ORIENTED_EDGE( '', *, *, #196, .F. );
#141 = CARTESIAN_POINT( '', ( -0.0453888461809516, 0.0226525589823723, 0.00000000000000 ) );
#142 = DIRECTION( '', ( 0.707106781186546, 0.00000000000000, -0.707106781186549 ) );
#143 = DIRECTION( '', ( 0.00000000000000, 1.00000000000000, 0.00000000000000 ) );
#144 = SURFACE_STYLE_FILL_AREA( #197 );
#145 = ORIENTED_EDGE( '', *, *, #186, .F. );
#146 = ORIENTED_EDGE( '', *, *, #198, .F. );
#147 = ORIENTED_EDGE( '', *, *, #199, .T. );
#148 = ORIENTED_EDGE( '', *, *, #200, .F. );
#149 = CARTESIAN_POINT( '', ( -0.0470802122523964, 0.0226525589823723, 0.100000000000000 ) );
#150 = DIRECTION( '', ( 0.00000000000000, 0.00000000000000, 1.00000000000000 ) );
#151 = DIRECTION( '', ( 1.00000000000000, 0.00000000000000, 0.00000000000000 ) );
#152 = SURFACE_STYLE_FILL_AREA( #201 );
#153 = ORIENTED_EDGE( '', *, *, #193, .T. );
#154 = ORIENTED_EDGE( '', *, *, #196, .T. );
#155 = CARTESIAN_POINT( '', ( -0.0470802122523964, 0.0226525589823723, 0.00000000000000 ) );
#156 = DIRECTION( '', ( 0.00000000000000, 0.00000000000000, 1.00000000000000 ) );
#157 = DIRECTION( '', ( 1.00000000000000, 0.00000000000000, 0.00000000000000 ) );
#158 = SURFACE_STYLE_FILL_AREA( #202 );
#159 = ORIENTED_EDGE( '', *, *, #203, .T. );
#160 = ORIENTED_EDGE( '', *, *, #191, .T. );
#161 = ORIENTED_EDGE( '', *, *, #204, .F. );
#162 = ORIENTED_EDGE( '', *, *, #199, .F. );
#163 = CARTESIAN_POINT( '', ( -0.0463215783238411, 0.0226525589823723, 0.100000000000000 ) );
#164 = DIRECTION( '', ( -0.00000000000000, -0.00000000000000, 1.00000000000000 ) );
#165 = DIRECTION( '', ( -1.00000000000000, 0.00000000000000, 0.00000000000000 ) );
#166 = SURFACE_STYLE_FILL_AREA( #205 );
#167 = ORIENTED_EDGE( '', *, *, #206, .F. );
#168 = ORIENTED_EDGE( '', *, *, #188, .T. );
#169 = CARTESIAN_POINT( '', ( -0.0470802122523964, 0.0226525589823723, 0.120000000000000 ) );
#170 = DIRECTION( '', ( 0.00000000000000, 0.00000000000000, 1.00000000000000 ) );
#171 = DIRECTION( '', ( 1.00000000000000, 0.00000000000000, 0.00000000000000 ) );
#172 = SURFACE_STYLE_FILL_AREA( #207 );
#173 = ORIENTED_EDGE( '', *, *, #204, .T. );
#174 = ORIENTED_EDGE( '', *, *, #195, .T. );
#175 = ORIENTED_EDGE( '', *, *, #203, .F. );
#176 = ORIENTED_EDGE( '', *, *, #198, .T. );
#177 = ORIENTED_EDGE( '', *, *, #185, .F. );
#178 = ORIENTED_EDGE( '', *, *, #206, .T. );
#179 = ORIENTED_EDGE( '', *, *, #187, .T. );
#180 = ORIENTED_EDGE( '', *, *, #200, .T. );
#181 = CARTESIAN_POINT( '', ( -0.0440888461809517, 0.0226525589823723, 0.120000000000000 ) );
#182 = DIRECTION( '', ( 1.00000000000000, 0.00000000000000, 0.00000000000000 ) );
#183 = DIRECTION( '', ( 0.00000000000000, 0.00000000000000, -1.00000000000000 ) );
#184 = FILL_AREA_STYLE( '', ( #208 ) );
#185 = EDGE_CURVE( '', #209, #210, #211, .T. );
#186 = EDGE_CURVE( '', #210, #212, #213, .T. );
#187 = EDGE_CURVE( '', #214, #212, #215, .T. );
#188 = EDGE_CURVE( '', #209, #214, #216, .T. );
#189 = FILL_AREA_STYLE( '', ( #217 ) );
#190 = EDGE_CURVE( '', #218, #219, #220, .F. );
#191 = EDGE_CURVE( '', #221, #218, #222, .T. );
#192 = EDGE_CURVE( '', #223, #221, #224, .F. );
#193 = EDGE_CURVE( '', #219, #223, #225, .F. );
#194 = FILL_AREA_STYLE( '', ( #226 ) );
#195 = EDGE_CURVE( '', #218, #221, #227, .T. );
#196 = EDGE_CURVE( '', #223, #219, #228, .T. );
#197 = FILL_AREA_STYLE( '', ( #229 ) );
#198 = EDGE_CURVE( '', #230, #210, #231, .T. );
#199 = EDGE_CURVE( '', #230, #232, #233, .T. );
#200 = EDGE_CURVE( '', #212, #232, #234, .T. );
#201 = FILL_AREA_STYLE( '', ( #235 ) );
#202 = FILL_AREA_STYLE( '', ( #236 ) );
#203 = EDGE_CURVE( '', #230, #221, #237, .T. );
#204 = EDGE_CURVE( '', #232, #218, #238, .T. );
#205 = FILL_AREA_STYLE( '', ( #239 ) );
#206 = EDGE_CURVE( '', #209, #214, #240, .T. );
#207 = FILL_AREA_STYLE( '', ( #241 ) );
#208 = FILL_AREA_STYLE_COLOUR( '', #242 );
#209 = VERTEX_POINT( '', #243 );
#210 = VERTEX_POINT( '', #244 );
#211 = LINE( '', #245, #246 );
#212 = VERTEX_POINT( '', #247 );
#213 = CIRCLE( '', #248, 0.00235000000000000 );
#214 = VERTEX_POINT( '', #249 );
#215 = LINE( '', #250, #251 );
#216 = CIRCLE( '', #252, 0.00235000000000000 );
#217 = FILL_AREA_STYLE_COLOUR( '', #253 );
#218 = VERTEX_POINT( '', #254 );
#219 = VERTEX_POINT( '', #255 );
#220 = B_SPLINE_CURVE_WITH_KNOTS( '', 3, ( #256, #257, #258, #259 ), .UNSPECIFIED., .F., .F., ( 4, 4 ), ( 0.00000000000000, 0.00198458068562113 ), .UNSPECIFIED. );
#221 = VERTEX_POINT( '', #260 );
#222 = CIRCLE( '', #261, 0.00375000000000000 );
#223 = VERTEX_POINT( '', #262 );
#224 = B_SPLINE_CURVE_WITH_KNOTS( '', 3, ( #263, #264, #265, #266 ), .UNSPECIFIED., .F., .F., ( 4, 4 ), ( 0.00000000000000, 0.00198458068562111 ), .UNSPECIFIED. );
#225 = CIRCLE( '', #267, 0.00245000000000000 );
#226 = FILL_AREA_STYLE_COLOUR( '', #268 );
#227 = LINE( '', #269, #270 );
#228 = LINE( '', #271, #272 );
#229 = FILL_AREA_STYLE_COLOUR( '', #273 );
#230 = VERTEX_POINT( '', #274 );
#231 = LINE( '', #275, #276 );
#232 = VERTEX_POINT( '', #277 );
#233 = CIRCLE( '', #278, 0.00375000000000000 );
#234 = LINE( '', #279, #280 );
#235 = FILL_AREA_STYLE_COLOUR( '', #281 );
#236 = FILL_AREA_STYLE_COLOUR( '', #282 );
#237 = LINE( '', #283, #284 );
#238 = LINE( '', #285, #286 );
#239 = FILL_AREA_STYLE_COLOUR( '', #287 );
#240 = LINE( '', #288, #289 );
#241 = FILL_AREA_STYLE_COLOUR( '', #290 );
#242 = COLOUR_RGB( '', 0.615686297400000, 0.811764717100000, 0.929411768900000 );
#243 = CARTESIAN_POINT( '', ( -0.0440888461809517, 0.0233856395905650, 0.120000000000000 ) );
#244 = CARTESIAN_POINT( '', ( -0.0440888461809517, 0.0233856395905650, 0.100000000000000 ) );
#245 = CARTESIAN_POINT( '', ( -0.0440888461809517, 0.0233856395905650, 0.120000000000000 ) );
#246 = VECTOR( '', #291, 1.00000000000000 );
#247 = CARTESIAN_POINT( '', ( -0.0440888461809517, 0.0219194783741796, 0.100000000000000 ) );
#248 = AXIS2_PLACEMENT_3D( '', #292, #293, #294 );
#249 = CARTESIAN_POINT( '', ( -0.0440888461809517, 0.0219194783741796, 0.120000000000000 ) );
#250 = CARTESIAN_POINT( '', ( -0.0440888461809517, 0.0219194783741796, 0.120000000000000 ) );
#251 = VECTOR( '', #295, 1.00000000000000 );
#252 = AXIS2_PLACEMENT_3D( '', #296, #297, #298 );
#253 = COLOUR_RGB( '', 0.615686297400000, 0.811764717100000, 0.929411768900000 );
#254 = CARTESIAN_POINT( '', ( -0.0440888461809517, 0.0196396854075092, 0.00130000000000000 ) );
#255 = CARTESIAN_POINT( '', ( -0.0453888461809516, 0.0203870544580729, 0.00000000000000 ) );
#256 = CARTESIAN_POINT( '', ( -0.0453888461809516, 0.0203870544580729, 0.00000000000000 ) );
#257 = CARTESIAN_POINT( '', ( -0.0449654178100147, 0.0201034733616239, 0.000423428370936865 ) );
#258 = CARTESIAN_POINT( '', ( -0.0445299381625897, 0.0198618170931373, 0.000858908018361976 ) );
#259 = CARTESIAN_POINT( '', ( -0.0440888461809517, 0.0196396854075092, 0.00130000000000000 ) );
#260 = CARTESIAN_POINT( '', ( -0.0440888461809517, 0.0256654325572354, 0.00130000000000000 ) );
#261 = AXIS2_PLACEMENT_3D( '', #299, #300, #301 );
#262 = CARTESIAN_POINT( '', ( -0.0453888461809516, 0.0249180635066716, 0.00000000000000 ) );
#263 = CARTESIAN_POINT( '', ( -0.0440888461809517, 0.0256654325572354, 0.00130000000000000 ) );
#264 = CARTESIAN_POINT( '', ( -0.0445299381625897, 0.0254433008716073, 0.000858908018361980 ) );
#265 = CARTESIAN_POINT( '', ( -0.0449654178100147, 0.0252016446031207, 0.000423428370936860 ) );
#266 = CARTESIAN_POINT( '', ( -0.0453888461809516, 0.0249180635066716, -1.91363591678279E-18 ) );
#267 = AXIS2_PLACEMENT_3D( '', #302, #303, #304 );
#268 = COLOUR_RGB( '', 0.615686297400000, 0.811764717100000, 0.929411768900000 );
#269 = CARTESIAN_POINT( '', ( -0.0440888461809517, 0.0256654325572354, 0.00130000000000000 ) );
#270 = VECTOR( '', #305, 1.00000000000000 );
#271 = CARTESIAN_POINT( '', ( -0.0453888461809516, 0.0196396854075092, 0.00000000000000 ) );
#272 = VECTOR( '', #306, 1.00000000000000 );
#273 = COLOUR_RGB( '', 0.615686297400000, 0.811764717100000, 0.929411768900000 );
#274 = CARTESIAN_POINT( '', ( -0.0440888461809517, 0.0256654325572354, 0.100000000000000 ) );
#275 = CARTESIAN_POINT( '', ( -0.0440888461809517, 0.0207795818908444, 0.100000000000000 ) );
#276 = VECTOR( '', #307, 1.00000000000000 );
#277 = CARTESIAN_POINT( '', ( -0.0440888461809517, 0.0196396854075092, 0.100000000000000 ) );
#278 = AXIS2_PLACEMENT_3D( '', #308, #309, #310 );
#279 = CARTESIAN_POINT( '', ( -0.0440888461809517, 0.0207795818908444, 0.100000000000000 ) );
#280 = VECTOR( '', #311, 1.00000000000000 );
#281 = COLOUR_RGB( '', 0.615686297400000, 0.811764717100000, 0.929411768900000 );
#282 = COLOUR_RGB( '', 0.615686297400000, 0.811764717100000, 0.929411768900000 );
#283 = CARTESIAN_POINT( '', ( -0.0440888461809517, 0.0256654325572354, 0.100000000000000 ) );
#284 = VECTOR( '', #312, 1.00000000000000 );
#285 = CARTESIAN_POINT( '', ( -0.0440888461809517, 0.0196396854075092, 0.100000000000000 ) );
#286 = VECTOR( '', #313, 1.00000000000000 );
#287 = COLOUR_RGB( '', 0.615686297400000, 0.811764717100000, 0.929411768900000 );
#288 = CARTESIAN_POINT( '', ( -0.0440888461809517, 0.0226525589823723, 0.120000000000000 ) );
#289 = VECTOR( '', #314, 1.00000000000000 );
#290 = COLOUR_RGB( '', 0.615686297400000, 0.811764717100000, 0.929411768900000 );
#291 = DIRECTION( '', ( 0.00000000000000, 0.00000000000000, -1.00000000000000 ) );
#292 = CARTESIAN_POINT( '', ( -0.0463215783238411, 0.0226525589823723, 0.100000000000000 ) );
#293 = DIRECTION( '', ( 0.00000000000000, 0.00000000000000, 1.00000000000000 ) );
#294 = DIRECTION( '', ( 1.00000000000000, 0.00000000000000, 0.00000000000000 ) );
#295 = DIRECTION( '', ( 0.00000000000000, 0.00000000000000, -1.00000000000000 ) );
#296 = CARTESIAN_POINT( '', ( -0.0463215783238411, 0.0226525589823723, 0.120000000000000 ) );
#297 = DIRECTION( '', ( 0.00000000000000, 0.00000000000000, 1.00000000000000 ) );
#298 = DIRECTION( '', ( 1.00000000000000, 0.00000000000000, 0.00000000000000 ) );
#299 = CARTESIAN_POINT( '', ( -0.0463215783238411, 0.0226525589823723, 0.00130000000000000 ) );
#300 = DIRECTION( '', ( 0.00000000000000, 0.00000000000000, 1.00000000000000 ) );
#301 = DIRECTION( '', ( 1.00000000000000, 0.00000000000000, 0.00000000000000 ) );
#302 = CARTESIAN_POINT( '', ( -0.0463215783238411, 0.0226525589823723, 0.00000000000000 ) );
#303 = DIRECTION( '', ( 0.00000000000000, 0.00000000000000, 1.00000000000000 ) );
#304 = DIRECTION( '', ( 1.00000000000000, 0.00000000000000, 0.00000000000000 ) );
#305 = DIRECTION( '', ( 0.00000000000000, 1.00000000000000, 0.00000000000000 ) );
#306 = DIRECTION( '', ( 0.00000000000000, -1.00000000000000, 0.00000000000000 ) );
#307 = DIRECTION( '', ( 0.00000000000000, -1.00000000000000, 0.00000000000000 ) );
#308 = CARTESIAN_POINT( '', ( -0.0463215783238411, 0.0226525589823723, 0.100000000000000 ) );
#309 = DIRECTION( '', ( 0.00000000000000, 0.00000000000000, 1.00000000000000 ) );
#310 = DIRECTION( '', ( 1.00000000000000, 0.00000000000000, 0.00000000000000 ) );
#311 = DIRECTION( '', ( 0.00000000000000, -1.00000000000000, 0.00000000000000 ) );
#312 = DIRECTION( '', ( 0.00000000000000, 0.00000000000000, -1.00000000000000 ) );
#313 = DIRECTION( '', ( 0.00000000000000, 0.00000000000000, -1.00000000000000 ) );
#314 = DIRECTION( '', ( 0.00000000000000, -1.00000000000000, 0.00000000000000 ) );
ENDSEC;
END-ISO-10303-21;
