  0
SECTION
  2
HEADER
  9
$ACADVER
  1
AC1021
  9
$ACADMAINTVER
 70
    50
  9
$DWGCODEPAGE
  3
ANSI_1252
  9
$LASTSAVEDBY
  1
Nour
  9
$INSBASE
 10
0.0
 20
0.0
 30
0.0
  9
$EXTMIN
 10
3025.275059244767
 20
-890.430904602319
 30
0.0
  9
$EXTMAX
 10
4245.275059244766
 20
1684.615919528047
 30
0.0
  9
$LIMMIN
 10
0.0
 20
0.0
  9
$LIMMAX
 10
12.0
 20
9.0
  9
$ORTHOMODE
 70
     0
  9
$REGENMODE
 70
     1
  9
$FILLMODE
 70
     1
  9
$QTEXTMODE
 70
     0
  9
$MIRRTEXT
 70
     0
  9
$LTSCALE
 40
1.0
  9
$ATTMODE
 70
     1
  9
$TEXTSIZE
 40
0.2
  9
$TRACEWID
 40
0.05
  9
$TEXTSTYLE
  7
Standard
  9
$CLAYER
  8
0
  9
$CELTYPE
  6
ByLayer
  9
$CECOLOR
 62
     1
  9
$CELTSCALE
 40
1.0
  9
$DISPSILH
 70
     0
  9
$DIMSCALE
 40
1.0
  9
$DIMASZ
 40
0.18
  9
$DIMEXO
 40
0.0625
  9
$DIMDLI
 40
0.38
  9
$DIMRND
 40
0.0
  9
$DIMDLE
 40
0.0
  9
$DIMEXE
 40
0.18
  9
$DIMTP
 40
0.0
  9
$DIMTM
 40
0.0
  9
$DIMTXT
 40
0.18
  9
$DIMCEN
 40
0.09
  9
$DIMTSZ
 40
0.0
  9
$DIMTOL
 70
     0
  9
$DIMLIM
 70
     0
  9
$DIMTIH
 70
     1
  9
$DIMTOH
 70
     1
  9
$DIMSE1
 70
     0
  9
$DIMSE2
 70
     0
  9
$DIMTAD
 70
     0
  9
$DIMZIN
 70
     0
  9
$DIMBLK
  1

  9
$DIMASO
 70
     1
  9
$DIMSHO
 70
     1
  9
$DIMPOST
  1

  9
$DIMAPOST
  1

  9
$DIMALT
 70
     0
  9
$DIMALTD
 70
     2
  9
$DIMALTF
 40
25.4
  9
$DIMLFAC
 40
1.0
  9
$DIMTOFL
 70
     0
  9
$DIMTVP
 40
0.0
  9
$DIMTIX
 70
     0
  9
$DIMSOXD
 70
     0
  9
$DIMSAH
 70
     0
  9
$DIMBLK1
  1

  9
$DIMBLK2
  1

  9
$DIMSTYLE
  2
Standard
  9
$DIMCLRD
 70
     0
  9
$DIMCLRE
 70
     0
  9
$DIMCLRT
 70
     0
  9
$DIMTFAC
 40
1.0
  9
$DIMGAP
 40
0.09
  9
$DIMJUST
 70
     0
  9
$DIMSD1
 70
     0
  9
$DIMSD2
 70
     0
  9
$DIMTOLJ
 70
     1
  9
$DIMTZIN
 70
     0
  9
$DIMALTZ
 70
     0
  9
$DIMALTTZ
 70
     0
  9
$DIMUPT
 70
     0
  9
$DIMDEC
 70
     4
  9
$DIMTDEC
 70
     4
  9
$DIMALTU
 70
     2
  9
$DIMALTTD
 70
     2
  9
$DIMTXSTY
  7
Standard
  9
$DIMAUNIT
 70
     0
  9
$DIMADEC
 70
     0
  9
$DIMALTRND
 40
0.0
  9
$DIMAZIN
 70
     0
  9
$DIMDSEP
 70
    46
  9
$DIMATFIT
 70
     3
  9
$DIMFRAC
 70
     0
  9
$DIMLDRBLK
  1

  9
$DIMLUNIT
 70
     2
  9
$DIMLWD
 70
    -2
  9
$DIMLWE
 70
    -2
  9
$DIMTMOVE
 70
     0
  9
$DIMFXL
 40
1.0
  9
$DIMFXLON
 70
     0
  9
$DIMJOGANG
 40
0.7853981633974483
  9
$DIMTFILL
 70
     0
  9
$DIMTFILLCLR
 70
     0
  9
$DIMARCSYM
 70
     0
  9
$DIMLTYPE
  6

  9
$DIMLTEX1
  6

  9
$DIMLTEX2
  6

  9
$LUNITS
 70
     2
  9
$LUPREC
 70
     4
  9
$SKETCHINC
 40
0.1
  9
$FILLETRAD
 40
0.0
  9
$AUNITS
 70
     0
  9
$AUPREC
 70
     0
  9
$MENU
  1
.
  9
$ELEVATION
 40
0.0
  9
$PELEVATION
 40
0.0
  9
$THICKNESS
 40
0.0
  9
$LIMCHECK
 70
     0
  9
$CHAMFERA
 40
0.0
  9
$CHAMFERB
 40
0.0
  9
$CHAMFERC
 40
0.0
  9
$CHAMFERD
 40
0.0
  9
$SKPOLY
 70
     0
  9
$TDCREATE
 40
2458562.346956018
  9
$TDUCREATE
 40
2458562.263622686
  9
$TDUPDATE
 40
2458562.567777778
  9
$TDUUPDATE
 40
2458562.484444445
  9
$TDINDWG
 40
0.2079976852
  9
$TDUSRTIMER
 40
0.2079976852
  9
$USRTIMER
 70
     1
  9
$ANGBASE
 50
0.0
  9
$ANGDIR
 70
     0
  9
$PDMODE
 70
     0
  9
$PDSIZE
 40
0.0
  9
$PLINEWID
 40
0.0
  9
$SPLFRAME
 70
     0
  9
$SPLINETYPE
 70
     6
  9
$SPLINESEGS
 70
     8
  9
$HANDSEED
  5
1BF4
  9
$SURFTAB1
 70
     6
  9
$SURFTAB2
 70
     6
  9
$SURFTYPE
 70
     6
  9
$SURFU
 70
     6
  9
$SURFV
 70
     6
  9
$UCSBASE
  2

  9
$UCSNAME
  2

  9
$UCSORG
 10
0.0
 20
0.0
 30
0.0
  9
$UCSXDIR
 10
1.0
 20
0.0
 30
0.0
  9
$UCSYDIR
 10
0.0
 20
1.0
 30
0.0
  9
$UCSORTHOREF
  2

  9
$UCSORTHOVIEW
 70
     0
  9
$UCSORGTOP
 10
0.0
 20
0.0
 30
0.0
  9
$UCSORGBOTTOM
 10
0.0
 20
0.0
 30
0.0
  9
$UCSORGLEFT
 10
0.0
 20
0.0
 30
0.0
  9
$UCSORGRIGHT
 10
0.0
 20
0.0
 30
0.0
  9
$UCSORGFRONT
 10
0.0
 20
0.0
 30
0.0
  9
$UCSORGBACK
 10
0.0
 20
0.0
 30
0.0
  9
$PUCSBASE
  2

  9
$PUCSNAME
  2

  9
$PUCSORG
 10
0.0
 20
0.0
 30
0.0
  9
$PUCSXDIR
 10
1.0
 20
0.0
 30
0.0
  9
$PUCSYDIR
 10
0.0
 20
1.0
 30
0.0
  9
$PUCSORTHOREF
  2

  9
$PUCSORTHOVIEW
 70
     0
  9
$PUCSORGTOP
 10
0.0
 20
0.0
 30
0.0
  9
$PUCSORGBOTTOM
 10
0.0
 20
0.0
 30
0.0
  9
$PUCSORGLEFT
 10
0.0
 20
0.0
 30
0.0
  9
$PUCSORGRIGHT
 10
0.0
 20
0.0
 30
0.0
  9
$PUCSORGFRONT
 10
0.0
 20
0.0
 30
0.0
  9
$PUCSORGBACK
 10
0.0
 20
0.0
 30
0.0
  9
$USERI1
 70
     0
  9
$USERI2
 70
     0
  9
$USERI3
 70
     0
  9
$USERI4
 70
     0
  9
$USERI5
 70
     0
  9
$USERR1
 40
0.0
  9
$USERR2
 40
0.0
  9
$USERR3
 40
0.0
  9
$USERR4
 40
0.0
  9
$USERR5
 40
0.0
  9
$WORLDVIEW
 70
     1
  9
$SHADEDGE
 70
     3
  9
$SHADEDIF
 70
    70
  9
$TILEMODE
 70
     1
  9
$MAXACTVP
 70
    64
  9
$PINSBASE
 10
0.0
 20
0.0
 30
0.0
  9
$PLIMCHECK
 70
     0
  9
$PEXTMIN
 10
1.049999952316284
 20
0.7999999523162842
 30
0.0
  9
$PEXTMAX
 10
9.449999570846559
 20
7.199999570846558
 30
0.0
  9
$PLIMMIN
 10
-0.2500002402958907
 20
-0.2499999962453767
  9
$PLIMMAX
 10
10.74999951940822
 20
8.249999763458733
  9
$UNITMODE
 70
     0
  9
$VISRETAIN
 70
     1
  9
$PLINEGEN
 70
     0
  9
$PSLTSCALE
 70
     1
  9
$TREEDEPTH
 70
  3020
  9
$CMLSTYLE
  2
Standard
  9
$CMLJUST
 70
     0
  9
$CMLSCALE
 40
1.0
  9
$PROXYGRAPHICS
 70
     1
  9
$MEASUREMENT
 70
     0
  9
$CELWEIGHT
370
    -1
  9
$ENDCAPS
280
     0
  9
$JOINSTYLE
280
     0
  9
$LWDISPLAY
290
     0
  9
$INSUNITS
 70
     1
  9
$HYPERLINKBASE
  1

  9
$STYLESHEET
  1

  9
$XEDIT
290
     1
  9
$CEPSNTYPE
380
     0
  9
$PSTYLEMODE
290
     1
  9
$FINGERPRINTGUID
  2
{5817D92C-0773-304D-9802-ECFFEFEE4916}
  9
$VERSIONGUID
  2
{D8AC8E45-6213-9642-8A25-87B759B987DC}
  9
$EXTNAMES
290
     1
  9
$PSVPSCALE
 40
0.0
  9
$OLESTARTUP
290
     0
  9
$SORTENTS
280
   127
  9
$INDEXCTL
280
     0
  9
$HIDETEXT
280
     1
  9
$XCLIPFRAME
290
     0
  9
$HALOGAP
280
     0
  9
$OBSCOLOR
 70
   257
  9
$OBSLTYPE
280
     0
  9
$INTERSECTIONDISPLAY
280
     0
  9
$INTERSECTIONCOLOR
 70
   257
  9
$DIMASSOC
280
     2
  9
$PROJECTNAME
  1

  9
$CAMERADISPLAY
290
     0
  9
$LENSLENGTH
 40
50.0
  9
$CAMERAHEIGHT
 40
0.0
  9
$STEPSPERSEC
 40
2.0
  9
$STEPSIZE
 40
6.0
  9
$3DDWFPREC
 40
2.0
  9
$PSOLWIDTH
 40
0.25
  9
$PSOLHEIGHT
 40
4.0
  9
$LOFTANG1
 40
1.570796326794896
  9
$LOFTANG2
 40
1.570796326794896
  9
$LOFTMAG1
 40
0.0
  9
$LOFTMAG2
 40
0.0
  9
$LOFTPARAM
 70
     7
  9
$LOFTNORMALS
280
     1
  9
$LATITUDE
 40
37.795
  9
$LONGITUDE
 40
-122.394
  9
$NORTHDIRECTION
 40
0.0
  9
$TIMEZONE
 70
 -8000
  9
$LIGHTGLYPHDISPLAY
280
     1
  9
$TILEMODELIGHTSYNCH
280
     1
  9
$CMATERIAL
347
96
  9
$SOLIDHIST
280
     0
  9
$SHOWHIST
280
     1
  9
$DWFFRAME
280
     2
  9
$DGNFRAME
280
     0
  9
$REALWORLDSCALE
290
     1
  9
$INTERFERECOLOR
 62
     1
  9
$INTERFEREOBJVS
345
A3
  9
$INTERFEREVPVS
346
A0
  9
$CSHADOW
280
     0
  9
$SHADOWPLANELOCATION
 40
0.0
  0
ENDSEC
  0
SECTION
  2
CLASSES
  0
CLASS
  1
ACDBDICTIONARYWDFLT
  2
AcDbDictionaryWithDefault
  3
ObjectDBX Classes
 90
        0
 91
        1
280
     0
281
     0
  0
CLASS
  1
DICTIONARYVAR
  2
AcDbDictionaryVar
  3
ObjectDBX Classes
 90
        0
 91
       10
280
     0
281
     0
  0
CLASS
  1
TABLESTYLE
  2
AcDbTableStyle
  3
ObjectDBX Classes
 90
     4095
 91
        1
280
     0
281
     0
  0
CLASS
  1
MATERIAL
  2
AcDbMaterial
  3
ObjectDBX Classes
 90
     1153
 91
        3
280
     0
281
     0
  0
CLASS
  1
VISUALSTYLE
  2
AcDbVisualStyle
  3
ObjectDBX Classes
 90
     4095
 91
       24
280
     0
281
     0
  0
CLASS
  1
SCALE
  2
AcDbScale
  3
ObjectDBX Classes
 90
     1153
 91
       33
280
     0
281
     0
  0
CLASS
  1
MLEADERSTYLE
  2
AcDbMLeaderStyle
  3
ACDB_MLEADERSTYLE_CLASS
 90
     4095
 91
        2
280
     0
281
     0
  0
CLASS
  1
CELLSTYLEMAP
  2
AcDbCellStyleMap
  3
ObjectDBX Classes
 90
     1152
 91
        1
280
     0
281
     0
  0
CLASS
  1
EXACXREFPANELOBJECT
  2
ExAcXREFPanelObject
  3
EXAC_ESW
 90
     1025
 91
        0
280
     0
281
     0
  0
CLASS
  1
NPOCOLLECTION
  2
AcDbImpNonPersistentObjectsCollection
  3
ObjectDBX Classes
 90
     1153
 91
        0
280
     0
281
     0
  0
CLASS
  1
LAYER_INDEX
  2
AcDbLayerIndex
  3
ObjectDBX Classes
 90
        0
 91
        0
280
     0
281
     0
  0
CLASS
  1
SPATIAL_INDEX
  2
AcDbSpatialIndex
  3
ObjectDBX Classes
 90
        0
 91
        0
280
     0
281
     0
  0
CLASS
  1
IDBUFFER
  2
AcDbIdBuffer
  3
ObjectDBX Classes
 90
        0
 91
        0
280
     0
281
     0
  0
CLASS
  1
ACDBSECTIONVIEWSTYLE
  2
AcDbSectionViewStyle
  3
ObjectDBX Classes
 90
     1025
 91
        1
280
     0
281
     0
  0
CLASS
  1
ACDBDETAILVIEWSTYLE
  2
AcDbDetailViewStyle
  3
ObjectDBX Classes
 90
     1025
 91
        1
280
     0
281
     0
  0
CLASS
  1
IMAGEDEF
  2
AcDbRasterImageDef
  3
ISM
 90
        0
 91
        2
280
     0
281
     0
  0
CLASS
  1
RASTERVARIABLES
  2
AcDbRasterVariables
  3
ISM
 90
        0
 91
        1
280
     0
281
     0
  0
CLASS
  1
IMAGEDEF_REACTOR
  2
AcDbRasterImageDefReactor
  3
ISM
 90
        1
 91
        0
280
     0
281
     0
  0
CLASS
  1
IMAGE
  2
AcDbRasterImage
  3
ISM
 90
     2175
 91
        0
280
     0
281
     1
  0
CLASS
  1
SORTENTSTABLE
  2
AcDbSortentsTable
  3
ObjectDBX Classes
 90
        0
 91
        1
280
     0
281
     0
  0
CLASS
  1
DIMASSOC
  2
AcDbDimAssoc
  3
"AcDbDimAssoc|Product Desc:     AcDim ARX App For Dimension|Company:          Autodesk, Inc.|WEB Address:      www.autodesk.com"
 90
        0
 91
        1
280
     0
281
     0
  0
CLASS
  1
RAPIDRTRENDERSETTINGS
  2
AcDbRapidRTRenderSettings
  3
ObjectDBX Classes
 90
     1024
 91
        7
280
     0
281
     0
  0
CLASS
  1
MENTALRAYRENDERSETTINGS
  2
AcDbMentalRayRenderSettings
  3
SCENEOE
 90
     1024
 91
        1
280
     0
281
     0
  0
ENDSEC
  0
SECTION
  2
TABLES
  0
TABLE
  2
VPORT
  5
8
330
0
100
AcDbSymbolTable
 70
     1
  0
VPORT
  5
94
330
8
100
AcDbSymbolTableRecord
100
AcDbViewportTableRecord
  2
*Active
 70
     0
 10
0.0
 20
0.0
 11
1.0
 21
1.0
 12
3986.08385475986
 22
240.4353704882997
 13
0.0
 23
0.0
 14
0.5
 24
0.5
 15
0.5
 25
0.5
 16
0.0
 26
0.0
 36
1.0
 17
0.0
 27
0.0
 37
0.0
 40
6485.231333304823
 41
2.56393001345895
 42
50.0
 43
0.0
 44
0.0
 50
0.0
 51
0.0
 71
     0
 72
  1000
 73
     1
 74
     3
 75
     0
 76
     0
 77
     0
 78
     0
281
     0
 65
     1
110
0.0
120
0.0
130
0.0
111
1.0
121
0.0
131
0.0
112
0.0
122
1.0
132
0.0
 79
     0
146
0.0
348
9F
 60
     3
 61
     5
292
     1
282
     1
141
0.0
142
0.0
 63
   250
421
  3355443
1001
ACAD_NAV_VCDISPLAY
1070
     3
  0
ENDTAB
  0
TABLE
  2
LTYPE
  5
5
330
0
100
AcDbSymbolTable
 70
     2
  0
LTYPE
  5
14
330
5
100
AcDbSymbolTableRecord
100
AcDbLinetypeTableRecord
  2
ByBlock
 70
     0
  3

 72
    65
 73
     0
 40
0.0
  0
LTYPE
  5
15
330
5
100
AcDbSymbolTableRecord
100
AcDbLinetypeTableRecord
  2
ByLayer
 70
     0
  3

 72
    65
 73
     0
 40
0.0
  0
LTYPE
  5
16
330
5
100
AcDbSymbolTableRecord
100
AcDbLinetypeTableRecord
  2
Continuous
 70
     0
  3
Solid line
 72
    65
 73
     0
 40
0.0
  0
ENDTAB
  0
TABLE
  2
LAYER
  5
2
102
{ACAD_XDICTIONARY
360
18E
102
}
330
0
100
AcDbSymbolTable
 70
     2
  0
LAYER
  5
10
102
{ACAD_XDICTIONARY
360
E6
102
}
330
2
100
AcDbSymbolTableRecord
100
AcDbLayerTableRecord
  2
0
 70
     0
 62
     7
  6
Continuous
370
    -3
390
F
347
98
  0
LAYER
  5
78F
330
2
100
AcDbSymbolTableRecord
100
AcDbLayerTableRecord
  2
Defpoints
 70
     0
 62
     7
  6
Continuous
290
     0
370
    -3
390
F
347
98
  0
ENDTAB
  0
TABLE
  2
STYLE
  5
3
330
0
100
AcDbSymbolTable
 70
     2
  0
STYLE
  5
11
330
3
100
AcDbSymbolTableRecord
100
AcDbTextStyleTableRecord
  2
Standard
 70
     0
 40
0.0
 41
1.0
 50
0.0
 71
     0
 42
0.2
  3
arial.ttf
  4

1001
ACAD
1000
Arial
1071
       34
  0
STYLE
  5
DC
330
3
100
AcDbSymbolTableRecord
100
AcDbTextStyleTableRecord
  2
Annotative
 70
     0
 40
0.0
 41
1.0
 50
0.0
 71
     0
 42
0.2
  3
arial.ttf
  4

1001
AcadAnnotative
1000
AnnotativeData
1002
{
1070
     1
1070
     1
1002
}
1001
ACAD
1000
Arial
1071
       34
  0
ENDTAB
  0
TABLE
  2
VIEW
  5
6
330
0
100
AcDbSymbolTable
 70
     4
  0
ENDTAB
  0
TABLE
  2
UCS
  5
7
330
0
100
AcDbSymbolTable
 70
     0
  0
ENDTAB
  0
TABLE
  2
APPID
  5
9
330
0
100
AcDbSymbolTable
 70
     9
  0
APPID
  5
12
330
9
100
AcDbSymbolTableRecord
100
AcDbRegAppTableRecord
  2
ACAD
 70
     0
  0
APPID
  5
DD
330
9
100
AcDbSymbolTableRecord
100
AcDbRegAppTableRecord
  2
AcadAnnoPO
 70
     0
  0
APPID
  5
DE
330
9
100
AcDbSymbolTableRecord
100
AcDbRegAppTableRecord
  2
AcadAnnotative
 70
     0
  0
APPID
  5
DF
330
9
100
AcDbSymbolTableRecord
100
AcDbRegAppTableRecord
  2
ACAD_DSTYLE_DIMJAG
 70
     0
  0
APPID
  5
E0
330
9
100
AcDbSymbolTableRecord
100
AcDbRegAppTableRecord
  2
ACAD_DSTYLE_DIMTALN
 70
     0
  0
APPID
  5
107
330
9
100
AcDbSymbolTableRecord
100
AcDbRegAppTableRecord
  2
ACAD_MLEADERVER
 70
     0
  0
APPID
  5
1A6
330
9
100
AcDbSymbolTableRecord
100
AcDbRegAppTableRecord
  2
ACAD_NAV_VCDISPLAY
 70
     0
  0
APPID
  5
20C
330
9
100
AcDbSymbolTableRecord
100
AcDbRegAppTableRecord
  2
ACAD_EXEMPT_FROM_CAD_STANDARDS
 70
     0
  0
APPID
  5
13D1
330
9
100
AcDbSymbolTableRecord
100
AcDbRegAppTableRecord
  2
ACAD_PSEXT
 70
     0
  0
ENDTAB
  0
TABLE
  2
DIMSTYLE
  5
A
330
0
100
AcDbSymbolTable
 70
     3
100
AcDbDimStyleTable
 71
     2
340
27
340
E1
  0
DIMSTYLE
105
27
330
A
100
AcDbSymbolTableRecord
100
AcDbDimStyleTableRecord
  2
Standard
 70
     0
340
11
  0
DIMSTYLE
105
E1
330
A
100
AcDbSymbolTableRecord
100
AcDbDimStyleTableRecord
  2
Annotative
 70
     0
 40
0.0
340
11
1001
AcadAnnotative
1000
AnnotativeData
1002
{
1070
     1
1070
     1
1002
}
1001
ACAD_DSTYLE_DIMJAG
1070
   388
1040
1.5
1001
ACAD_DSTYLE_DIMTALN
1070
   392
1070
     0
  0
ENDTAB
  0
TABLE
  2
BLOCK_RECORD
  5
1
330
0
100
AcDbSymbolTable
 70
     5
  0
BLOCK_RECORD
  5
1F
102
{ACAD_XDICTIONARY
360
15D
102
}
330
1
100
AcDbSymbolTableRecord
100
AcDbBlockTableRecord
  2
*Model_Space
340
22
 70
     0
280
     1
281
     0
  0
BLOCK_RECORD
  5
58
330
1
100
AcDbSymbolTableRecord
100
AcDbBlockTableRecord
  2
*Paper_Space
340
59
 70
     0
280
     1
281
     0
  0
BLOCK_RECORD
  5
5D
330
1
100
AcDbSymbolTableRecord
100
AcDbBlockTableRecord
  2
*Paper_Space0
340
5E
 70
     0
280
     1
281
     0
  0
BLOCK_RECORD
  5
1B92
330
1
100
AcDbSymbolTableRecord
100
AcDbBlockTableRecord
  2
*D4
340
0
 70
     0
280
     1
281
     0
  0
ENDTAB
  0
ENDSEC
  0
SECTION
  2
BLOCKS
  0
BLOCK
  5
20
330
1F
100
AcDbEntity
  8
0
100
AcDbBlockBegin
  2
*Model_Space
 70
     0
 10
0.0
 20
0.0
 30
0.0
  3
*Model_Space
  1

  0
ENDBLK
  5
21
330
1F
100
AcDbEntity
  8
0
100
AcDbBlockEnd
  0
BLOCK
  5
5A
330
58
100
AcDbEntity
 67
     1
  8
0
100
AcDbBlockBegin
  2
*Paper_Space
 70
     0
 10
0.0
 20
0.0
 30
0.0
  3
*Paper_Space
  1

  0
ENDBLK
  5
5B
330
58
100
AcDbEntity
 67
     1
  8
0
100
AcDbBlockEnd
  0
BLOCK
  5
5F
330
5D
100
AcDbEntity
 67
     1
  8
0
100
AcDbBlockBegin
  2
*Paper_Space0
 70
     0
 10
0.0
 20
0.0
 30
0.0
  3
*Paper_Space0
  1

  0
ENDBLK
  5
60
330
5D
100
AcDbEntity
 67
     1
  8
0
100
AcDbBlockEnd
  0
BLOCK
  5
1B93
330
1B92
100
AcDbEntity
  8
0
 62
     1
100
AcDbBlockBegin
  2
*D4
 70
     1
 10
0.0
 20
0.0
 30
0.0
  3
*D4
  1

  0
LINE
  5
1BA0
330
1B92
100
AcDbEntity
  8
0
 62
     0
440
 16777216
370
    -2
100
AcDbLine
 10
3025.275059244767
 20
1549.63159539768
 30
0.0
 11
3025.275059244767
 21
1684.615919528047
 31
0.0
  0
LINE
  5
1BA1
330
1B92
100
AcDbEntity
  8
0
 62
     0
440
 16777216
370
    -2
100
AcDbLine
 10
4245.275059244766
 20
1549.63159539768
 30
0.0
 11
4245.275059244766
 21
1684.615919528047
 31
0.0
  0
LINE
  5
1BA2
330
1B92
100
AcDbEntity
  8
0
 62
     0
440
 16777216
370
    -2
100
AcDbLine
 10
3025.455059244766
 20
1684.435919528047
 30
0.0
 11
3634.610434415299
 21
1684.435919528047
 31
0.0
  0
LINE
  5
1BA3
330
1B92
100
AcDbEntity
  8
0
 62
     0
440
 16777216
370
    -2
100
AcDbLine
 10
4245.095059244766
 20
1684.435919528047
 30
0.0
 11
3635.939684074234
 21
1684.435919528047
 31
0.0
  0
SOLID
  5
1BA4
330
1B92
100
AcDbEntity
  8
0
 62
     0
440
 16777216
100
AcDbTrace
 10
3025.455059244766
 20
1684.465919528047
 30
0.0
 11
3025.455059244766
 21
1684.405919528047
 31
0.0
 12
3025.275059244767
 22
1684.435919528047
 32
0.0
 13
3025.275059244767
 23
1684.435919528047
 33
0.0
  0
SOLID
  5
1BA5
330
1B92
100
AcDbEntity
  8
0
 62
     0
440
 16777216
100
AcDbTrace
 10
4245.095059244766
 20
1684.465919528047
 30
0.0
 11
4245.095059244766
 21
1684.405919528047
 31
0.0
 12
4245.275059244766
 22
1684.435919528047
 32
0.0
 13
4245.275059244766
 23
1684.435919528047
 33
0.0
  0
MTEXT
  5
1BA6
330
1B92
100
AcDbEntity
  8
0
 62
     0
440
 16777216
100
AcDbMText
 10
3635.275059244766
 20
1684.435919528047
 30
0.0
 40
0.18
 41
0.0
 46
0.0
 71
     5
 72
     1
  1
\A1;1220.0000
 73
     1
 44
1.0
  0
POINT
  5
1BA7
330
1B92
100
AcDbEntity
  8
Defpoints
 62
     0
440
 16777216
100
AcDbPoint
 10
3025.275059244767
 20
1549.56909539768
 30
0.0
  0
POINT
  5
1BA8
330
1B92
100
AcDbEntity
  8
Defpoints
 62
     0
440
 16777216
100
AcDbPoint
 10
4245.275059244766
 20
1549.56909539768
 30
0.0
  0
POINT
  5
1BA9
330
1B92
100
AcDbEntity
  8
Defpoints
 62
     0
440
 16777216
100
AcDbPoint
 10
4245.275059244766
 20
1684.435919528047
 30
0.0
  0
ENDBLK
  5
1B94
330
1B92
100
AcDbEntity
  8
0
 62
     1
100
AcDbBlockEnd
  0
ENDSEC
  0
SECTION
  2
ENTITIES
  0
LWPOLYLINE
  5
1AE4
330
1F
100
AcDbEntity
  8
0
100
AcDbPolyline
 90
        4
 70
     1
 43
0.0
 10
3025.275059244767
 20
1549.56909539768
 10
3025.275059244767
 20
-890.430904602319
 10
4245.275059244766
 20
-890.430904602319
 10
4245.275059244766
 20
1549.56909539768
  0
LINE
  5
1AE5
330
1F
100
AcDbEntity
  8
0
100
AcDbLine
 10
3624.071066539499
 20
-632.0682341282445
 30
0.0
 11
3624.071066539499
 21
-832.0682341282445
 31
0.0
  0
LINE
  5
1AE6
330
1F
100
AcDbEntity
  8
0
100
AcDbLine
 10
3724.071066539499
 20
-632.0682341282445
 30
0.0
 11
3724.071066539499
 21
-832.0682341282445
 31
0.0
  0
LINE
  5
1AE7
330
1F
100
AcDbEntity
  8
0
100
AcDbLine
 10
3985.899087081151
 20
-172.6607542902848
 30
0.0
 11
3985.899087081151
 21
-372.6607542902857
 31
0.0
  0
LINE
  5
1AE8
330
1F
100
AcDbEntity
  8
0
100
AcDbLine
 10
4085.89908708115
 20
-172.6607542902848
 30
0.0
 11
4085.89908708115
 21
-372.6607542902857
 31
0.0
  0
LINE
  5
1AE9
330
1F
100
AcDbEntity
  8
0
100
AcDbLine
 10
4182.740376844998
 20
1090.306469120118
 30
0.0
 11
3982.740376844999
 21
1090.306469120118
 31
0.0
  0
LINE
  5
1AEA
330
1F
100
AcDbEntity
  8
0
100
AcDbLine
 10
4182.740376844998
 20
690.306469120118
 30
0.0
 11
3982.740376844999
 21
690.306469120118
 31
0.0
  0
LINE
  5
1AEB
330
1F
100
AcDbEntity
  8
0
100
AcDbLine
 10
3269.376698005952
 20
-169.1680462729282
 30
0.0
 11
3069.376698005952
 21
-169.1680462729282
 31
0.0
  0
LINE
  5
1AEC
330
1F
100
AcDbEntity
  8
0
100
AcDbLine
 10
3269.376698005952
 20
-469.1680462729273
 30
0.0
 11
3069.376698005952
 21
-469.1680462729273
 31
0.0
  0
LINE
  5
1AED
330
1F
100
AcDbEntity
  8
0
100
AcDbLine
 10
3262.856392991187
 20
1515.146605525789
 30
0.0
 11
3262.856392991187
 21
1315.14660552579
 31
0.0
  0
LINE
  5
1AEE
330
1F
100
AcDbEntity
  8
0
100
AcDbLine
 10
3562.856392991187
 20
1515.146605525789
 30
0.0
 11
3562.856392991187
 21
1315.14660552579
 31
0.0
  0
LINE
  5
1AEF
330
1F
100
AcDbEntity
  8
0
100
AcDbLine
 10
4183.392325321867
 20
236.7896923512035
 30
0.0
 11
4183.392325321867
 21
36.78969235120348
 31
0.0
  0
LINE
  5
1AF0
330
1F
100
AcDbEntity
  8
0
100
AcDbLine
 10
4087.367797469767
 20
511.6154435868248
 30
0.0
 11
4087.367797469767
 21
311.6154435868248
 31
0.0
  0
LINE
  5
1AF1
330
1F
100
AcDbEntity
  8
0
100
AcDbLine
 10
4187.367797469767
 20
511.6154435868248
 30
0.0
 11
4187.367797469767
 21
311.6154435868248
 31
0.0
  0
LINE
  5
1AF2
330
1F
100
AcDbEntity
  8
0
100
AcDbLine
 10
3350.245438953051
 20
274.8178923736632
 30
0.0
 11
3350.245438953054
 21
74.8178923736641
 31
0.0
  0
LINE
  5
1AF3
330
1F
100
AcDbEntity
  8
0
100
AcDbLine
 10
3430.245438953051
 20
274.8178923736641
 30
0.0
 11
3430.245438953054
 21
74.81789237366683
 31
0.0
  0
LINE
  5
1AF4
330
1F
100
AcDbEntity
  8
0
100
AcDbLine
 10
3219.777585473683
 20
128.161384355636
 30
0.0
 11
3219.777585473687
 21
-71.83861564436302
 31
0.0
  0
LINE
  5
1AF5
330
1F
100
AcDbEntity
  8
0
100
AcDbLine
 10
3299.777585473683
 20
128.1613843556369
 30
0.0
 11
3299.777585473687
 21
-71.8386156443612
 31
0.0
  0
LWPOLYLINE
  5
1AF6
330
1F
100
AcDbEntity
  8
0
100
AcDbPolyline
 90
       12
 70
     1
 43
0.0
 10
3649.071066539498
 20
-632.0682341282445
 10
3649.071066539498
 20
-614.0682341282444
 10
3699.071066539499
 20
-614.0682341282444
 10
3699.071066539499
 20
-632.0682341282445
 10
3724.071066539499
 20
-632.0682341282445
 10
3724.071066539499
 20
-832.0682341282445
 10
3699.071066539499
 20
-832.0682341282445
 10
3699.071066539499
 20
-850.0682341282445
 10
3649.071066539498
 20
-850.0682341282445
 10
3649.071066539498
 20
-832.0682341282445
 10
3624.071066539499
 20
-832.0682341282445
 10
3624.071066539499
 20
-632.0682341282445
  0
LWPOLYLINE
  5
1AF7
330
1F
100
AcDbEntity
  8
0
100
AcDbPolyline
 90
       12
 70
     1
 43
0.0
 10
4010.89908708115
 20
-172.6607542902848
 10
4010.899087081143
 20
-154.6607542902857
 10
4060.89908708115
 20
-154.6607542902857
 10
4060.89908708115
 20
-172.6607542902848
 10
4085.89908708115
 20
-172.6607542902848
 10
4085.89908708115
 20
-372.6607542902857
 10
4060.89908708115
 20
-372.6607542902857
 10
4060.89908708115
 20
-390.6607542902839
 10
4010.899087081143
 20
-390.6607542902839
 10
4010.89908708115
 20
-372.6607542902857
 10
3985.899087081151
 20
-372.6607542902857
 10
3985.899087081151
 20
-172.6607542902848
  0
LWPOLYLINE
  5
1AF8
330
1F
100
AcDbEntity
  8
0
100
AcDbPolyline
 90
       28
 70
     1
 43
0.0
 10
4200.740376844994
 20
715.306469120118
 10
4182.740376844998
 20
715.306469120118
 10
4182.740376844998
 20
690.306469120118
 10
3982.740376844999
 20
690.306469120118
 10
3982.740376844999
 20
715.306469120118
 10
3964.740376844999
 20
715.3064691201234
 10
3964.740376844995
 20
765.306469120118
 10
3982.740376844999
 20
765.306469120118
 10
3982.740376844999
 20
865.306469120118
 10
3964.740376844995
 20
865.306469120127
 10
3964.740376844995
 20
915.306469120118
 10
3982.740376844999
 20
915.306469120118
 10
3982.740376844999
 20
1015.306469120118
 10
3964.740376844999
 20
1015.306469120123
 10
3964.740376844999
 20
1065.306469120118
 10
3982.740376844999
 20
1065.306469120118
 10
3982.740376844999
 20
1090.306469120118
 10
4182.740376844998
 20
1090.306469120118
 10
4182.740376844998
 20
1065.306469120118
 10
4200.740376844998
 20
1065.306469120118
 10
4200.740376844994
 20
1015.306469120123
 10
4182.740376844998
 20
1015.306469120118
 10
4182.740376844998
 20
915.306469120118
 10
4200.740376844994
 20
915.306469120118
 10
4200.740376844994
 20
865.306469120127
 10
4182.740376844998
 20
865.306469120118
 10
4182.740376844998
 20
765.306469120118
 10
4200.740376844994
 20
765.306469120118
  0
LWPOLYLINE
  5
1AF9
330
1F
100
AcDbEntity
  8
0
100
AcDbPolyline
 90
       20
 70
     1
 43
0.0
 10
3269.376698005952
 20
-194.1680462729273
 10
3287.376698005948
 20
-194.1680462729273
 10
3287.376698005948
 20
-244.1680462729273
 10
3269.376698005952
 20
-244.1680462729273
 10
3269.376698005952
 20
-383.3269790614868
 10
3287.376698005948
 20
-383.3269790614831
 10
3287.376698005948
 20
-433.3269790614868
 10
3269.376698005952
 20
-433.3269790614868
 10
3269.376698005952
 20
-469.1680462729273
 10
3069.376698005952
 20
-469.1680462729273
 10
3069.376698005952
 20
-433.3269790614868
 10
3051.376698005948
 20
-433.3269790614868
 10
3051.376698005948
 20
-383.3269790614831
 10
3069.376698005952
 20
-383.3269790614868
 10
3069.376698005952
 20
-244.1680462729273
 10
3051.376698005948
 20
-244.1680462729273
 10
3051.376698005948
 20
-194.1680462729273
 10
3069.376698005952
 20
-194.1680462729273
 10
3069.376698005952
 20
-169.1680462729282
 10
3269.376698005952
 20
-169.1680462729282
  0
LWPOLYLINE
  5
1AFA
330
1F
100
AcDbEntity
  8
0
100
AcDbPolyline
 90
       20
 70
     1
 43
0.0
 10
3477.01532577974
 20
1315.14660552579
 10
3337.85639299118
 20
1315.14660552579
 10
3337.85639299118
 20
1297.14660552579
 10
3287.85639299118
 20
1297.14660552579
 10
3287.85639299118
 20
1315.14660552579
 10
3262.856392991187
 20
1315.14660552579
 10
3262.856392991187
 20
1515.146605525789
 10
3287.85639299118
 20
1515.14660552579
 10
3287.856392991187
 20
1533.14660552579
 10
3337.85639299118
 20
1533.14660552579
 10
3337.85639299118
 20
1515.146605525789
 10
3477.01532577974
 20
1515.146605525789
 10
3477.01532577974
 20
1533.14660552579
 10
3527.015325779736
 20
1533.14660552579
 10
3527.01532577974
 20
1515.146605525789
 10
3562.856392991187
 20
1515.146605525789
 10
3562.856392991187
 20
1315.14660552579
 10
3527.01532577974
 20
1315.14660552579
 10
3527.01532577974
 20
1297.14660552579
 10
3477.01532577974
 20
1297.14660552579
  0
LWPOLYLINE
  5
1AFB
330
1F
100
AcDbEntity
  8
0
100
AcDbPolyline
 90
       12
 70
     1
 43
0.0
 10
4108.392325321867
 20
236.7896923512035
 10
4108.392325321867
 20
254.7896923512026
 10
4158.392325321867
 20
254.7896923512026
 10
4158.392325321867
 20
236.7896923512035
 10
4183.392325321867
 20
236.7896923512035
 10
4183.392325321867
 20
36.78969235120348
 10
4158.392325321867
 20
36.78969235120348
 10
4158.392325321867
 20
18.78969235120348
 10
4108.392325321867
 20
18.78969235120348
 10
4108.392325321867
 20
36.78969235120348
 10
4083.392325321867
 20
36.78969235120348
 10
4083.392325321867
 20
236.7896923512035
  0
LWPOLYLINE
  5
1AFC
330
1F
100
AcDbEntity
  8
0
100
AcDbPolyline
 90
       12
 70
     1
 43
0.0
 10
4112.367797469768
 20
511.6154435868248
 10
4112.367797469771
 20
529.6154435868229
 10
4162.367797469768
 20
529.6154435868238
 10
4162.367797469768
 20
511.6154435868248
 10
4187.367797469767
 20
511.6154435868248
 10
4187.367797469767
 20
311.6154435868248
 10
4162.367797469768
 20
311.6154435868248
 10
4162.367797469768
 20
293.6154435868248
 10
4112.367797469771
 20
293.6154435868248
 10
4112.367797469768
 20
311.6154435868248
 10
4087.367797469767
 20
311.6154435868248
 10
4087.367797469767
 20
511.6154435868248
  0
LWPOLYLINE
  5
1AFD
330
1F
100
AcDbEntity
  8
0
100
AcDbPolyline
 90
       12
 70
     1
 43
0.0
 10
3365.245438953051
 20
274.8178923736632
 10
3365.245438953051
 20
292.8178923736632
 10
3415.24543895305
 20
292.8178923736632
 10
3415.24543895305
 20
274.8178923736632
 10
3430.245438953054
 20
274.8178923736632
 10
3430.245438953054
 20
74.81789237366683
 10
3415.24543895305
 20
74.81789237366683
 10
3415.24543895305
 20
56.81789237366501
 10
3365.245438953051
 20
56.81789237366501
 10
3365.245438953051
 20
74.81789237366683
 10
3350.245438953051
 20
74.81789237366683
 10
3350.245438953051
 20
274.8178923736632
  0
LWPOLYLINE
  5
1AFE
330
1F
100
AcDbEntity
  8
0
100
AcDbPolyline
 90
       12
 70
     1
 43
0.0
 10
3284.77758547368
 20
-71.83861564436483
 10
3284.777585473672
 20
-89.83861564436301
 10
3234.777585473679
 20
-89.83861564436665
 10
3234.777585473679
 20
-71.8386156443612
 10
3219.777585473683
 20
-71.8386156443612
 10
3219.777585473683
 20
128.161384355636
 10
3234.777585473679
 20
128.161384355636
 10
3234.777585473679
 20
146.1613843556388
 10
3284.777585473672
 20
146.161384355637
 10
3284.77758547368
 20
128.161384355636
 10
3299.777585473687
 20
128.161384355636
 10
3299.777585473687
 20
-71.8386156443612
  0
LINE
  5
1AFF
330
1F
100
AcDbEntity
  8
0
100
AcDbLine
 10
3835.191338413843
 20
-189.0344223433148
 30
0.0
 11
3835.19133841385
 21
-389.034422343313
 31
0.0
  0
LINE
  5
1B00
330
1F
100
AcDbEntity
  8
0
100
AcDbLine
 10
3915.191338413843
 20
-189.034422343313
 30
0.0
 11
3915.19133841385
 21
-389.0344223433112
 31
0.0
  0
LINE
  5
1B01
330
1F
100
AcDbEntity
  8
0
100
AcDbLine
 10
3083.860099053313
 20
-604.7597494911752
 30
0.0
 11
3083.860099053316
 21
-804.7597494911752
 31
0.0
  0
LINE
  5
1B02
330
1F
100
AcDbEntity
  8
0
100
AcDbLine
 10
3163.860099053313
 20
-604.7597494911733
 30
0.0
 11
3163.860099053316
 21
-804.7597494911734
 31
0.0
  0
LWPOLYLINE
  5
1B03
330
1F
100
AcDbEntity
  8
0
100
AcDbPolyline
 90
       12
 70
     1
 43
0.0
 10
3850.191338413843
 20
-189.0344223433148
 10
3850.191338413843
 20
-171.0344223433148
 10
3900.191338413843
 20
-171.0344223433148
 10
3900.191338413843
 20
-189.0344223433148
 10
3915.19133841385
 20
-189.0344223433148
 10
3915.19133841385
 20
-389.0344223433112
 10
3900.191338413843
 20
-389.0344223433112
 10
3900.191338413843
 20
-407.034422343313
 10
3850.191338413843
 20
-407.034422343313
 10
3850.191338413843
 20
-389.0344223433112
 10
3835.191338413843
 20
-389.0344223433112
 10
3835.191338413843
 20
-189.0344223433148
  0
LWPOLYLINE
  5
1B04
330
1F
100
AcDbEntity
  8
0
100
AcDbPolyline
 90
       12
 70
     1
 43
0.0
 10
3098.860099053305
 20
-604.7597494911733
 10
3098.860099053305
 20
-586.7597494911751
 10
3148.860099053305
 20
-586.7597494911715
 10
3148.860099053305
 20
-604.7597494911752
 10
3163.860099053316
 20
-604.7597494911752
 10
3163.860099053316
 20
-804.7597494911734
 10
3148.860099053305
 20
-804.7597494911734
 10
3148.860099053305
 20
-822.7597494911787
 10
3098.860099053305
 20
-822.7597494911751
 10
3098.860099053305
 20
-804.7597494911734
 10
3083.860099053313
 20
-804.7597494911734
 10
3083.860099053313
 20
-604.7597494911752
  0
LINE
  5
1B05
330
1F
100
AcDbEntity
  8
0
100
AcDbLine
 10
3282.003081304709
 20
1194.418119904518
 30
0.0
 11
3082.003081304709
 21
1194.418119904518
 31
0.0
  0
LINE
  5
1B06
330
1F
100
AcDbEntity
  8
0
100
AcDbLine
 10
3282.003081304709
 20
894.4181199045187
 30
0.0
 11
3082.003081304709
 21
894.4181199045187
 31
0.0
  0
LWPOLYLINE
  5
1B07
330
1F
100
AcDbEntity
  8
0
100
AcDbPolyline
 90
       20
 70
     1
 43
0.0
 10
3082.003081304709
 20
980.2591871159593
 10
3082.003081304709
 20
1119.418119904519
 10
3064.003081304705
 20
1119.418119904523
 10
3064.003081304705
 20
1169.418119904519
 10
3082.003081304709
 20
1169.418119904519
 10
3082.003081304709
 20
1194.418119904518
 10
3282.003081304709
 20
1194.418119904518
 10
3282.003081304709
 20
1169.418119904519
 10
3300.003081304705
 20
1169.418119904519
 10
3300.003081304705
 20
1119.418119904519
 10
3282.003081304709
 20
1119.418119904519
 10
3282.003081304709
 20
980.2591871159593
 10
3300.003081304705
 20
980.2591871159593
 10
3300.003081304705
 20
930.2591871159638
 10
3282.003081304709
 20
930.2591871159593
 10
3282.003081304709
 20
894.4181199045187
 10
3082.003081304709
 20
894.4181199045187
 10
3082.003081304709
 20
930.2591871159593
 10
3064.003081304705
 20
930.2591871159593
 10
3064.003081304705
 20
980.2591871159638
  0
LINE
  5
1B08
330
1F
100
AcDbEntity
  8
0
100
AcDbLine
 10
4164.682584964085
 20
1401.402969213847
 30
0.0
 11
4164.682584964085
 21
1383.402969213836
 31
0.0
  0
LINE
  5
1B09
330
1F
100
AcDbEntity
  8
0
100
AcDbLine
 10
4146.682584964085
 20
1365.402969213839
 30
0.0
 11
4164.682584964085
 21
1365.402969213839
 31
0.0
  0
LINE
  5
1B0A
330
1F
100
AcDbEntity
  8
0
100
AcDbLine
 10
4164.682584964085
 20
1129.402969213831
 30
0.0
 11
4164.682584964085
 21
1147.402969213842
 31
0.0
  0
LINE
  5
1B0B
330
1F
100
AcDbEntity
  8
0
100
AcDbLine
 10
3161.356500375751
 20
836.7019484629482
 30
0.0
 11
3161.356500375751
 21
818.7019484629372
 31
0.0
  0
LINE
  5
1B0C
330
1F
100
AcDbEntity
  8
0
100
AcDbLine
 10
3143.35650037575
 20
800.7019484629399
 30
0.0
 11
3161.356500375751
 21
800.7019484629399
 31
0.0
  0
LINE
  5
1B0D
330
1F
100
AcDbEntity
  8
0
100
AcDbLine
 10
3161.356500375751
 20
564.7019484629318
 30
0.0
 11
3161.356500375751
 21
582.7019484629427
 31
0.0
  0
CIRCLE
  5
1B0E
330
1F
100
AcDbEntity
  8
0
100
AcDbCircle
 10
3983.930992372058
 20
-647.2497964266531
 30
0.0
 40
225.0
  0
SPLINE
  5
1B0F
330
1F
100
AcDbEntity
  8
0
100
AcDbSpline
210
0.0
220
0.0
230
1.0
 70
    12
 71
     3
 72
   528
 73
   524
 74
     0
 42
0.000000001
 43
0.0000000001
 40
0.0
 40
0.0
 40
0.0
 40
0.0
 40
1.0
 40
1.0
 40
1.0
 40
2.0
 40
2.0
 40
2.0
 40
3.0
 40
3.0
 40
3.0
 40
4.0
 40
4.0
 40
4.0
 40
5.0
 40
5.0
 40
5.0
 40
6.0
 40
6.0
 40
6.0
 40
7.0
 40
7.0
 40
7.0
 40
8.0
 40
8.0
 40
8.0
 40
9.0
 40
9.0
 40
9.0
 40
10.0
 40
10.0
 40
10.0
 40
11.0
 40
11.0
 40
11.0
 40
12.0
 40
12.0
 40
12.0
 40
13.0
 40
13.0
 40
13.0
 40
14.0
 40
14.0
 40
14.0
 40
15.0
 40
15.0
 40
15.0
 40
16.0
 40
16.0
 40
16.0
 40
17.0
 40
17.0
 40
17.0
 40
18.0
 40
18.0
 40
18.0
 40
19.0
 40
19.0
 40
19.0
 40
20.0
 40
20.0
 40
20.0
 40
21.0
 40
21.0
 40
21.0
 40
22.0
 40
22.0
 40
22.0
 40
23.0
 40
23.0
 40
23.0
 40
24.0
 40
24.0
 40
24.0
 40
25.0
 40
25.0
 40
25.0
 40
26.0
 40
26.0
 40
26.0
 40
27.0
 40
27.0
 40
27.0
 40
28.0
 40
28.0
 40
28.0
 40
29.0
 40
29.0
 40
29.0
 40
30.0
 40
30.0
 40
30.0
 40
31.0
 40
31.0
 40
31.0
 40
32.0
 40
32.0
 40
32.0
 40
33.0
 40
33.0
 40
33.0
 40
34.0
 40
34.0
 40
34.0
 40
35.0
 40
35.0
 40
35.0
 40
36.0
 40
36.0
 40
36.0
 40
37.0
 40
37.0
 40
37.0
 40
38.0
 40
38.0
 40
38.0
 40
39.0
 40
39.0
 40
39.0
 40
40.0
 40
40.0
 40
40.0
 40
41.0
 40
41.0
 40
41.0
 40
42.0
 40
42.0
 40
42.0
 40
43.0
 40
43.0
 40
43.0
 40
44.0
 40
44.0
 40
44.0
 40
45.0
 40
45.0
 40
45.0
 40
46.0
 40
46.0
 40
46.0
 40
47.0
 40
47.0
 40
47.0
 40
48.0
 40
48.0
 40
48.0
 40
49.0
 40
49.0
 40
49.0
 40
50.0
 40
50.0
 40
50.0
 40
51.0
 40
51.0
 40
51.0
 40
52.0
 40
52.0
 40
52.0
 40
53.0
 40
53.0
 40
53.0
 40
54.0
 40
54.0
 40
54.0
 40
55.0
 40
55.0
 40
55.0
 40
55.41467417965058
 40
57.72388664492634
 40
59.82021081049317
 40
61.3905098483398
 40
62.75060911067967
 40
64.88488055868216
 40
64.88488055868216
 40
64.88488055868216
 40
66.85446927896295
 40
67.4667262316192
 40
67.4667262316192
 40
67.4667262316192
 40
71.61810696385292
 40
74.03643644979394
 40
79.01480751256004
 40
79.01480751256004
 40
79.01480751256004
 40
79.70672289827788
 40
80.88223436161783
 40
81.8193127041197
 40
82.00311535170508
 40
82.42719775194085
 40
82.65008529160288
 40
82.65008529160288
 40
82.65008529160288
 40
83.6194996546104
 40
83.6194996546104
 40
83.6194996546104
 40
84.58891401761793
 40
84.58891401761793
 40
84.58891401761793
 40
87.16879767688855
 40
94.12515899956654
 40
97.46096078121533
 40
99.84421698185871
 40
103.2993692780612
 40
106.5922918953856
 40
111.1531687406915
 40
114.6211668957757
 40
118.9369325256792
 40
120.9773449497681
 40
122.5537800537589
 40
124.6821044484011
 40
127.1441306383918
 40
128.7931664588093
 40
130.0209181701749
 40
132.0490730331076
 40
133.8138507913908
 40
134.102442221854
 40
134.7737190470244
 40
135.8408064241839
 40
136.429676489684
 40
137.4281656865943
 40
138.7757517695573
 40
139.4363580482634
 40
140.1558514534989
 40
140.7537504944681
 40
142.2489444686235
 40
144.087457359937
 40
144.5448030854966
 40
145.6482454383902
 40
146.3134632196058
 40
147.4377617295958
 40
148.8347135935915
 40
149.8216870663372
 40
150.4645571415482
 40
151.8903795493556
 40
152.2472641591162
 40
153.597746671769
 40
154.7038244044843
 40
155.8661536097963
 40
156.5090066616844
 40
158.7765394541891
 40
160.5537450397269
 40
163.8194470361483
 40
167.0075653488632
 40
167.4846370845858
 40
167.4846370845858
 40
167.4846370845858
 40
168.4846370845859
 40
168.4846370845859
 40
168.4846370845859
 40
169.4846370845858
 40
169.4846370845858
 40
169.4846370845858
 40
170.4846370845858
 40
170.4846370845858
 40
170.4846370845858
 40
171.9817689048818
 40
171.9817689048818
 40
171.9817689048818
 40
172.9817689048818
 40
172.9817689048818
 40
172.9817689048818
 40
173.9817689048818
 40
173.9817689048818
 40
173.9817689048818
 40
174.9817689048818
 40
174.9817689048818
 40
174.9817689048818
 40
176.0615818139823
 40
176.0615818139823
 40
176.0615818139823
 40
177.0615818139823
 40
177.0615818139823
 40
177.0615818139823
 40
178.0615818139823
 40
178.0615818139823
 40
178.0615818139823
 40
179.0615818139824
 40
179.0615818139824
 40
179.0615818139824
 40
180.4321232630956
 40
180.4321232630956
 40
180.4321232630956
 40
180.4448796331396
 40
180.4448796331396
 40
180.4448796331396
 40
180.4771002215647
 40
180.4771002215647
 40
180.4771002215647
 40
181.4771002215648
 40
181.4771002215648
 40
181.4771002215648
 40
182.4771002215648
 40
182.4771002215648
 40
182.4771002215648
 40
183.4771002215648
 40
183.4771002215648
 40
183.4771002215648
 40
183.6628453484185
 40
183.6628453484185
 40
183.6628453484185
 40
183.6890465241624
 40
183.6890465241624
 40
183.6890465241624
 40
185.1224706572277
 40
185.1224706572277
 40
185.1224706572277
 40
186.1224706572277
 40
186.1224706572277
 40
186.1224706572277
 40
187.1224706572277
 40
187.1224706572277
 40
187.1224706572277
 40
188.1224706572277
 40
188.1224706572277
 40
188.1224706572277
 40
188.2960052562798
 40
188.2960052562798
 40
188.2960052562798
 40
188.3312016944027
 40
188.3312016944027
 40
188.3312016944027
 40
189.483886573879
 40
189.483886573879
 40
189.483886573879
 40
190.4838865738789
 40
190.4838865738789
 40
190.4838865738789
 40
191.483886573879
 40
191.483886573879
 40
191.483886573879
 40
192.483886573879
 40
192.483886573879
 40
192.483886573879
 40
192.4935377811791
 40
192.4935377811791
 40
192.4935377811791
 40
192.5973414461076
 40
192.5973414461076
 40
192.5973414461076
 40
193.5552202693775
 40
195.1479610827126
 40
196.4099660188664
 40
198.6346513927335
 40
201.4760961405507
 40
206.2076120871704
 40
210.5923232121174
 40
212.4198116546076
 40
212.4198116546076
 40
212.4198116546076
 40
213.2301334952094
 40
214.42425510681
 40
214.42425510681
 40
214.42425510681
 40
214.8299432736325
 40
214.8377738437786
 40
214.8377738437786
 40
214.8377738437786
 40
215.8377738437786
 40
215.8377738437786
 40
215.8377738437786
 40
216.8377738437786
 40
216.8377738437786
 40
216.8377738437786
 40
217.8377738437786
 40
217.8377738437786
 40
217.8377738437786
 40
217.9627831433892
 40
217.9627831433892
 40
217.9627831433892
 40
218.9627831433892
 40
218.9627831433892
 40
218.9627831433892
 40
219.9627831433892
 40
219.9627831433892
 40
219.9627831433892
 40
220.9627831433892
 40
220.9627831433892
 40
220.9627831433892
 40
221.6216477948206
 40
222.4861861879247
 40
223.650508210277
 40
224.1933424110282
 40
224.4837563254622
 40
224.6043125054638
 40
224.6043125054638
 40
224.6043125054638
 40
225.6043125054638
 40
225.6043125054638
 40
225.6043125054638
 40
226.6043125054638
 40
226.6043125054638
 40
226.6043125054638
 40
227.6043125054638
 40
227.6043125054638
 40
227.6043125054638
 40
227.8407295996843
 40
227.8407295996843
 40
227.8407295996843
 40
228.8407295996843
 40
228.8407295996843
 40
228.8407295996843
 40
229.8407295996843
 40
229.8407295996843
 40
229.8407295996843
 40
230.8407295996843
 40
230.8407295996843
 40
230.8407295996843
 40
230.9222847708038
 40
230.9222847708038
 40
230.9222847708038
 40
231.9222847708037
 40
231.9222847708037
 40
231.9222847708037
 40
232.9222847708038
 40
232.9222847708038
 40
232.9222847708038
 40
233.9222847708037
 40
233.9222847708037
 40
233.9222847708037
 40
234.1057688169412
 40
234.1284021014896
 40
234.2875697762141
 40
234.2875697762141
 40
234.2875697762141
 40
235.2875697762141
 40
235.2875697762141
 40
235.2875697762141
 40
236.2875697762141
 40
236.2875697762141
 40
236.2875697762141
 40
237.2875697762141
 40
237.2875697762141
 40
237.2875697762141
 40
237.3512543616145
 40
237.9364981495654
 40
238.3595969250783
 40
238.8285597979
 40
239.0039141969365
 40
239.0980322667967
 40
239.1680184119362
 40
239.3409923867694
 40
239.6378181728079
 40
239.7921615620961
 40
239.8911193887801
 40
240.1127703688807
 40
240.2448137790454
 40
240.4148002587695
 40
240.5075747386835
 40
240.6658771941752
 40
240.918757675446
 40
241.3997031026053
 40
241.436211718832
 40
241.436211718832
 40
241.436211718832
 40
242.436211718832
 40
242.436211718832
 40
242.436211718832
 40
243.436211718832
 40
243.436211718832
 40
243.436211718832
 40
244.4362117188321
 40
244.4362117188321
 40
244.4362117188321
 40
245.436211718832
 40
245.436211718832
 40
245.436211718832
 40
246.4362117188321
 40
246.4362117188321
 40
246.4362117188321
 40
247.436211718832
 40
247.436211718832
 40
247.436211718832
 40
248.4362117188321
 40
248.4362117188321
 40
248.4362117188321
 40
248.5019206289202
 40
248.5019206289202
 40
248.5019206289202
 40
248.6518107330827
 40
249.1324270019123
 40
249.7896756624673
 40
252.0546799225771
 40
253.7146340883681
 40
255.1756404028188
 40
256.6887015515732
 40
257.7263879175415
 40
258.46378779065
 40
258.9215622598247
 40
259.3470263513729
 40
259.6991883859066
 40
260.3787829035833
 40
260.4899417011692
 40
260.5898447602539
 40
260.7417234298624
 40
260.8625968155874
 40
260.9514241317643
 40
261.1752600551203
 40
261.3064674761771
 40
261.4377015943771
 40
261.7747984516478
 40
261.9000739228532
 40
262.0211562292837
 40
262.5102976218551
 40
262.6942358246801
 40
262.9210426489605
 40
263.1490453286109
 40
263.4207925013311
 40
263.8337988128969
 40
264.2274924064385
 40
264.7231639722744
 40
265.0078552688507
 40
266.51459997789
 40
267.314214717722
 40
268.635226133707
 40
271.1103908340812
 40
272.4704900964211
 40
274.0407891342677
 40
276.1371132998345
 40
278.4463257651103
 40
278.6130404959806
 40
278.6130404959806
 40
278.6130404959806
 40
279.6130404959806
 40
279.6130404959806
 40
279.6130404959806
 40
279.6130404959806
 10
3160.629521496187
 20
123.9316810831387
 30
0.0
 41
1.0
 10
3146.251535100648
 20
132.5468710818823
 30
0.0
 41
1.0
 10
3131.873548705109
 20
141.1620610806249
 30
0.0
 41
1.0
 10
3117.495562309556
 20
149.7772510793693
 30
0.0
 41
1.0
 10
3120.516685816478
 20
154.8192376969618
 30
0.0
 41
1.0
 10
3123.537809323396
 20
159.8612243145544
 30
0.0
 41
1.0
 10
3126.558932830329
 20
164.9032109321469
 30
0.0
 41
1.0
 10
3132.562175339205
 20
174.4237704858942
 30
0.0
 41
1.0
 10
3138.565417848084
 20
183.9443300396415
 30
0.0
 41
1.0
 10
3144.56866035697
 20
193.4648895933851
 30
0.0
 41
1.0
 10
3151.226107182087
 20
203.0431011034634
 30
0.0
 41
1.0
 10
3157.8835540072
 20
212.6213126135408
 30
0.0
 41
1.0
 10
3164.541000832302
 20
222.1995241236191
 30
0.0
 41
1.0
 10
3173.1963500401
 20
233.7510013943938
 30
0.0
 41
1.0
 10
3181.851699247898
 20
245.3024786651677
 30
0.0
 41
1.0
 10
3190.5070484557
 20
256.8539559359451
 30
0.0
 41
1.0
 10
3198.917172083689
 20
268.8543472389119
 30
0.0
 41
1.0
 10
3207.327295711683
 20
280.8547385418778
 30
0.0
 41
1.0
 10
3215.737419339686
 20
292.8551298448456
 30
0.0
 41
1.0
 10
3225.124057345598
 20
308.6787358504553
 30
0.0
 41
1.0
 10
3234.51069535151
 20
324.5023418560649
 30
0.0
 41
1.0
 10
3243.897333357426
 20
340.3259478616719
 30
0.0
 41
1.0
 10
3251.97704111812
 20
354.9686694734955
 30
0.0
 41
1.0
 10
3260.056748878811
 20
369.6113910853201
 30
0.0
 41
1.0
 10
3268.136456639491
 20
384.2541126971455
 30
0.0
 41
1.0
 10
3278.914377624623
 20
402.9727126041907
 30
0.0
 41
1.0
 10
3289.69229860976
 20
421.6913125112369
 30
0.0
 41
1.0
 10
3300.470219594892
 20
440.4099124182821
 30
0.0
 41
1.0
 10
3309.362542079918
 20
456.2500967945752
 30
0.0
 41
1.0
 10
3318.254864564944
 20
472.0902811708683
 30
0.0
 41
1.0
 10
3327.147187049977
 20
487.9304655471615
 30
0.0
 41
1.0
 10
3330.235884674236
 20
493.0519836932517
 30
0.0
 41
1.0
 10
3333.324582298494
 20
498.1735018393428
 30
0.0
 41
1.0
 10
3336.413279922748
 20
503.2950199854358
 30
0.0
 41
1.0
 10
3340.11584661563
 20
508.7790092082486
 30
0.0
 41
1.0
 10
3343.818413308512
 20
514.2629984310615
 30
0.0
 41
1.0
 10
3347.520980001394
 20
519.7469876538717
 30
0.0
 41
1.0
 10
3352.431539303438
 20
526.6674569135666
 30
0.0
 41
1.0
 10
3357.342098605481
 20
533.5879261732616
 30
0.0
 41
1.0
 10
3362.252657907524
 20
540.5083954329584
 30
0.0
 41
1.0
 10
3380.735209267423
 20
570.1953390814178
 30
0.0
 41
1.0
 10
3399.217760627329
 20
599.8822827298782
 30
0.0
 41
1.0
 10
3417.700311987239
 20
629.5692263783357
 30
0.0
 41
1.0
 10
3426.799217928016
 20
644.8451518373204
 30
0.0
 41
1.0
 10
3435.898123868796
 20
660.1210772963058
 30
0.0
 41
1.0
 10
3444.997029809572
 20
675.3970027552904
 30
0.0
 41
1.0
 10
3451.752704896444
 20
688.336818503214
 30
0.0
 41
1.0
 10
3458.50837998332
 20
701.2766342511376
 30
0.0
 41
1.0
 10
3465.264055070195
 20
714.2164499990649
 30
0.0
 41
1.0
 10
3468.165596376104
 20
722.6690824672004
 30
0.0
 41
1.0
 10
3471.067137682014
 20
731.1217149353351
 30
0.0
 41
1.0
 10
3473.96867898792
 20
739.5743474034661
 30
0.0
 41
1.0
 10
3474.028099223811
 20
741.6971228893426
 30
0.0
 41
1.0
 10
3474.087519459707
 20
743.819898375219
 30
0.0
 41
1.0
 10
3474.146939695609
 20
745.9426738610936
 30
0.0
 41
1.0
 10
3473.338105970051
 20
747.5569369289715
 30
0.0
 41
1.0
 10
3472.529272244498
 20
749.1711999968502
 30
0.0
 41
1.0
 10
3471.72043851894
 20
750.7854630647325
 30
0.0
 41
1.0
 10
3470.546775803101
 20
751.3321907480012
 30
0.0
 41
1.0
 10
3469.373113087266
 20
751.87891843127
 30
0.0
 41
1.0
 10
3468.199450371438
 20
752.4256461145396
 30
0.0
 41
1.0
 10
3467.420978906027
 20
753.0581406950605
 30
0.0
 41
1.0
 10
3466.642507440618
 20
753.6906352755822
 30
0.0
 41
1.0
 10
3465.864035975217
 20
754.3231298561003
 30
0.0
 41
1.0
 10
3464.839683866016
 20
754.4495204458208
 30
0.0
 41
1.0
 10
3463.815331756811
 20
754.5759110355411
 30
0.0
 41
1.0
 10
3462.790979647606
 20
754.7023016252642
 30
0.0
 41
1.0
 10
3460.93021542623
 20
753.7782003978663
 30
0.0
 41
1.0
 10
3459.069451204858
 20
752.8540991704685
 30
0.0
 41
1.0
 10
3457.208686983486
 20
751.9299979430679
 30
0.0
 41
1.0
 10
3454.649821200892
 20
749.31285761045
 30
0.0
 41
1.0
 10
3452.090955418299
 20
746.695717277832
 30
0.0
 41
1.0
 10
3449.532089635705
 20
744.0785769452149
 30
0.0
 41
1.0
 10
3446.240893134109
 20
739.4509137228542
 30
0.0
 41
1.0
 10
3442.949696632513
 20
734.8232505004926
 30
0.0
 41
1.0
 10
3439.658500130918
 20
730.1955872781318
 30
0.0
 41
1.0
 10
3435.834962084791
 20
723.7970859400693
 30
0.0
 41
1.0
 10
3432.011424038665
 20
717.3985846020068
 30
0.0
 41
1.0
 10
3428.187885992527
 20
711.0000832639461
 30
0.0
 41
1.0
 10
3424.389558407304
 20
703.997280644041
 30
0.0
 41
1.0
 10
3420.59123082208
 20
696.9944780241357
 30
0.0
 41
1.0
 10
3416.792903236864
 20
689.9916754042269
 30
0.0
 41
1.0
 10
3413.113275542543
 20
682.847966581934
 30
0.0
 41
1.0
 10
3409.433647848226
 20
675.7042577596421
 30
0.0
 41
1.0
 10
3405.754020153913
 20
668.5605489373492
 30
0.0
 41
1.0
 10
3403.284755878853
 20
663.6613535145661
 30
0.0
 41
1.0
 10
3400.815491603793
 20
658.7621580917839
 30
0.0
 41
1.0
 10
3398.346227328726
 20
653.8629626690017
 30
0.0
 41
1.0
 10
3394.59585494368
 20
646.3998535363288
 30
0.0
 41
1.0
 10
3390.84548255863
 20
638.9367444036561
 30
0.0
 41
1.0
 10
3387.095110173574
 20
631.4736352709823
 30
0.0
 41
1.0
 10
3382.216447698385
 20
622.1114704950395
 30
0.0
 41
1.0
 10
3377.337785223197
 20
612.7493057190967
 30
0.0
 41
1.0
 10
3372.459122748001
 20
603.387140943153
 30
0.0
 41
1.0
 10
3369.03968135337
 20
597.2853442671967
 30
0.0
 41
1.0
 10
3365.620239958742
 20
591.1835475912412
 30
0.0
 41
1.0
 10
3362.200798564114
 20
585.0817509152839
 30
0.0
 41
1.0
 10
3357.71333838852
 20
577.4928353338846
 30
0.0
 41
1.0
 10
3353.225878212921
 20
569.9039197524853
 30
0.0
 41
1.0
 10
3348.738418037323
 20
562.3150041710869
 30
0.0
 41
1.0
 10
3344.066540376785
 20
554.5356215392894
 30
0.0
 41
1.0
 10
3339.394662716252
 20
546.7562389074919
 30
0.0
 41
1.0
 10
3334.722785055714
 20
538.9768562756944
 30
0.0
 41
1.0
 10
3331.313272355263
 20
533.6749835326299
 30
0.0
 41
1.0
 10
3327.903759654811
 20
528.3731107895655
 30
0.0
 41
1.0
 10
3324.494246954361
 20
523.0712380464992
 30
0.0
 41
1.0
 10
3321.384547584865
 20
518.7588026103712
 30
0.0
 41
1.0
 10
3318.274848215366
 20
514.4463671742433
 30
0.0
 41
1.0
 10
3315.165148845871
 20
510.1339317381161
 30
0.0
 41
1.0
 10
3311.925654268242
 20
506.1104824816602
 30
0.0
 41
1.0
 10
3308.686159690613
 20
502.0870332252043
 30
0.0
 41
1.0
 10
3305.446665112988
 20
498.0635839687484
 30
0.0
 41
1.0
 10
3301.446231426973
 20
493.2681708654326
 30
0.0
 41
1.0
 10
3297.445797740959
 20
488.472757762117
 30
0.0
 41
1.0
 10
3293.445364054947
 20
483.6773446587976
 30
0.0
 41
1.0
 10
3288.925659417353
 20
477.8087585496924
 30
0.0
 41
1.0
 10
3284.405954779755
 20
471.940172440587
 30
0.0
 41
1.0
 10
3279.886250142168
 20
466.0715863314826
 30
0.0
 41
1.0
 10
3275.728097641925
 20
459.9764595012429
 30
0.0
 41
1.0
 10
3271.56994514168
 20
453.8813326710042
 30
0.0
 41
1.0
 10
3267.41179264144
 20
447.7862058407627
 30
0.0
 41
1.0
 10
3261.579288641598
 20
438.5704131375587
 30
0.0
 41
1.0
 10
3255.746784641757
 20
429.3546204343538
 30
0.0
 41
1.0
 10
3249.914280641908
 20
420.1388277311489
 30
0.0
 41
1.0
 10
3244.216849875549
 20
411.2150734514825
 30
0.0
 41
1.0
 10
3238.519419109191
 20
402.2913191718162
 30
0.0
 41
1.0
 10
3232.821988342843
 20
393.3675648921508
 30
0.0
 41
1.0
 10
3229.306651785061
 20
387.9686925888663
 30
0.0
 41
1.0
 10
3225.791315227282
 20
382.569820285582
 30
0.0
 41
1.0
 10
3222.275978669502
 20
377.1709479823003
 30
0.0
 41
1.0
 10
3216.941414379598
 20
368.8920468867309
 30
0.0
 41
1.0
 10
3211.606850089698
 20
360.6131457911606
 30
0.0
 41
1.0
 10
3206.272285799784
 20
352.3342446955903
 30
0.0
 41
1.0
 10
3202.367667601214
 20
346.0288515818393
 30
0.0
 41
1.0
 10
3198.463049402642
 20
339.7234584680891
 30
0.0
 41
1.0
 10
3194.55843120407
 20
333.4180653543354
 30
0.0
 41
1.0
 10
3190.852717557253
 20
327.0547957103581
 30
0.0
 41
1.0
 10
3187.147003910435
 20
320.6915260663818
 30
0.0
 41
1.0
 10
3183.441290263625
 20
314.3282564224046
 30
0.0
 41
1.0
 10
3180.369380900633
 20
308.5993111469206
 30
0.0
 41
1.0
 10
3177.297471537637
 20
302.8703658714376
 30
0.0
 41
1.0
 10
3174.225562174634
 20
297.1414205959572
 30
0.0
 41
1.0
 10
3171.961175218803
 20
292.5768975171022
 30
0.0
 41
1.0
 10
3169.696788262973
 20
288.0123744382463
 30
0.0
 41
1.0
 10
3167.432401307135
 20
283.4478513593886
 30
0.0
 41
1.0
 10
3164.124943762305
 20
276.411214613102
 30
0.0
 41
1.0
 10
3160.817486217475
 20
269.3745778668163
 30
0.0
 41
1.0
 10
3157.510028672652
 20
262.3379411205296
 30
0.0
 41
1.0
 10
3152.617121386931
 20
251.9004156279025
 30
0.0
 41
1.0
 10
3147.72421410121
 20
241.4628901352744
 30
0.0
 41
1.0
 10
3142.831306815493
 20
231.0253646426481
 30
0.0
 41
1.0
 10
3138.024728071061
 20
221.6344614660075
 30
0.0
 41
1.0
 10
3133.218149326629
 20
212.2435582893668
 30
0.0
 41
1.0
 10
3128.411570582186
 20
202.8526551127252
 30
0.0
 41
1.0
 10
3123.382251767664
 20
193.0430575240625
 30
0.0
 41
1.0
 10
3118.352932953142
 20
183.2334599354008
 30
0.0
 41
1.0
 10
3113.323614138619
 20
173.4238623467381
 30
0.0
 41
1.0
 10
3110.215760342533
 20
168.237130585052
 30
0.0
 41
1.0
 10
3107.107906546448
 20
163.0503988233649
 30
0.0
 41
1.0
 10
3104.000052750373
 20
157.8636670616779
 30
0.0
 41
1.0
 10
3089.62206635483
 20
166.4788570604232
 30
0.0
 41
1.0
 10
3075.244079959285
 20
175.0940470591686
 30
0.0
 41
1.0
 10
3060.866093563742
 20
183.7092370579139
 30
0.0
 41
1.0
 10
3063.950013853795
 20
188.856025925219
 30
0.0
 41
1.0
 10
3067.033934143845
 20
194.002814792524
 30
0.0
 41
1.0
 10
3070.117854433887
 20
199.1496036598291
 30
0.0
 41
1.0
 10
3072.394916358149
 20
203.753283769187
 30
0.0
 41
1.0
 10
3093.451455980514
 20
253.5789351412441
 30
0.0
 41
1.0
 10
3101.897267851626
 20
373.5351224641036
 30
0.0
 41
1.0
 10
3185.638708184153
 20
495.6700652172858
 30
0.0
 41
1.0
 10
3244.529743396237
 20
601.351049384366
 30
0.0
 41
1.0
 10
3273.582400530544
 20
726.5601694851412
 30
0.0
 41
1.0
 10
3283.548193594285
 20
792.7333889063302
 30
0.0
 41
1.0
 10
3310.556079706632
 20
847.4221505397453
 30
0.0
 41
1.0
 10
3332.626856181025
 20
889.2972783590266
 30
0.0
 41
1.0
 10
3380.020901305732
 20
935.7677723499856
 30
0.0
 41
1.0
 10
3423.457035623425
 20
980.1566511038018
 30
0.0
 41
1.0
 10
3433.692363160106
 20
990.6887926258914
 30
0.0
 41
1.0
 10
3441.930624265817
 20
975.9039313285502
 30
0.0
 41
1.0
 10
3454.967970550625
 20
952.5063533648463
 30
0.0
 41
1.0
 10
3500.144121327638
 20
979.271263369179
 30
0.0
 41
1.0
 10
3475.351299573227
 20
1001.528449486006
 30
0.0
 41
1.0
 10
3458.664417959761
 20
1016.508714074647
 30
0.0
 41
1.0
 10
3470.229710517615
 20
1028.513981014797
 30
0.0
 41
1.0
 10
3501.661474968397
 20
1061.280265925889
 30
0.0
 41
1.0
 10
3552.23561691996
 20
1113.907865708661
 30
0.0
 41
1.0
 10
3600.514082307131
 20
1168.192866568461
 30
0.0
 41
1.0
 10
3598.288394723695
 20
1174.218201026206
 30
0.0
 41
1.0
 10
3598.288394723695
 20
1174.218201026206
 30
0.0
 41
1.0
 10
3598.288394723695
 20
1174.218201026206
 30
0.0
 41
1.0
 10
3598.288394723695
 20
1174.218201026206
 30
0.0
 41
1.0
 10
3597.4813907967
 20
1176.06871721551
 30
0.0
 41
0.9232076170734192
 10
3595.905097796523
 20
1177.33005217605
 30
0.0
 41
0.9232076170734192
 10
3593.922657610197
 20
1177.711623155956
 30
0.0
 41
1.0
 10
3591.940217423864
 20
1178.093194135863
 30
0.0
 41
0.9232076170734192
 10
3590.008338969136
 20
1177.507095900729
 30
0.0
 41
0.9232076170734192
 10
3588.572082896237
 20
1176.088352090904
 30
0.0
 41
1.0
 10
3562.518388218519
 20
1149.540575912118
 30
0.0
 41
1.0
 10
3528.83694129992
 20
1138.811713436729
 30
0.0
 41
1.0
 10
3496.108779271832
 20
1112.08089388518
 30
0.0
 41
1.0
 10
3457.494935091923
 20
1097.935127422765
 30
0.0
 41
1.0
 10
3425.910790726444
 20
1084.094608526902
 30
0.0
 41
1.0
 10
3404.692062484127
 20
1114.075001600826
 30
0.0
 41
1.0
 10
3376.012160848692
 20
1136.083774525863
 30
0.0
 41
1.0
 10
3350.138971674012
 20
1164.48710691206
 30
0.0
 41
1.0
 10
3323.750062091956
 20
1195.930792273957
 30
0.0
 41
1.0
 10
3302.888947663134
 20
1220.946983461121
 30
0.0
 41
1.0
 10
3283.449740150325
 20
1239.660136726179
 30
0.0
 41
1.0
 10
3264.519353534768
 20
1245.222326879684
 30
0.0
 41
1.0
 10
3244.108652517691
 20
1244.529183872468
 30
0.0
 41
1.0
 10
3222.394351219479
 20
1239.319042466772
 30
0.0
 41
1.0
 10
3204.719634990048
 20
1245.023154112669
 30
0.0
 41
1.0
 10
3190.393578909796
 20
1246.22565673992
 30
0.0
 41
1.0
 10
3173.537368517602
 20
1251.599475309416
 30
0.0
 41
1.0
 10
3162.331971550502
 20
1259.442613428086
 30
0.0
 41
1.0
 10
3159.136750444992
 20
1262.970492364406
 30
0.0
 41
1.0
 10
3155.746265524209
 20
1265.789171869459
 30
0.0
 41
1.0
 10
3157.218288508149
 20
1268.179394779781
 30
0.0
 41
1.0
 10
3156.118952932426
 20
1271.225831338419
 30
0.0
 41
1.0
 10
3153.086007194794
 20
1274.473588749355
 30
0.0
 41
1.0
 10
3135.207687465642
 20
1278.570643312841
 30
0.0
 41
1.0
 10
3146.24674457829
 20
1285.119652496472
 30
0.0
 41
1.0
 10
3152.35837674763
 20
1283.965311348229
 30
0.0
 41
1.0
 10
3162.08990028227
 20
1287.271058140399
 30
0.0
 41
1.0
 10
3169.913222570875
 20
1278.795346723473
 30
0.0
 41
1.0
 10
3190.971445488202
 20
1262.842924828714
 30
0.0
 41
1.0
 10
3183.799171312359
 20
1275.268182502335
 30
0.0
 41
1.0
 10
3184.527316093889
 20
1281.234439702443
 30
0.0
 41
1.0
 10
3176.385608113676
 20
1292.792660168434
 30
0.0
 41
1.0
 10
3192.441647639433
 20
1284.297539701105
 30
0.0
 41
1.0
 10
3193.986452653186
 20
1274.799651552021
 30
0.0
 41
1.0
 10
3201.338100081499
 20
1265.721763141146
 30
0.0
 41
1.0
 10
3212.059668105751
 20
1265.790586406414
 30
0.0
 41
1.0
 10
3219.394716354666
 20
1266.79966316315
 30
0.0
 41
1.0
 10
3230.013187742003
 20
1273.829143613233
 30
0.0
 41
1.0
 10
3214.687618591135
 20
1278.782063540429
 30
0.0
 41
1.0
 10
3208.284020558476
 20
1280.318956177179
 30
0.0
 41
1.0
 10
3201.342566215692
 20
1289.41261706278
 30
0.0
 41
1.0
 10
3206.873780422073
 20
1293.99438370775
 30
0.0
 41
1.0
 10
3221.279644572602
 20
1287.375217836929
 30
0.0
 41
1.0
 10
3245.496576732618
 20
1284.661057411371
 30
0.0
 41
1.0
 10
3274.750569127351
 20
1288.420749262817
 30
0.0
 41
1.0
 10
3292.139380972709
 20
1270.892527161362
 30
0.0
 41
1.0
 10
3301.455772045792
 20
1262.503176241147
 30
0.0
 41
1.0
 10
3302.670421770508
 20
1261.424511424059
 30
0.0
 41
1.0
 10
3298.39499110237
 20
1257.309651114656
 30
0.0
 41
1.0
 10
3294.119560434232
 20
1253.194790805251
 30
0.0
 41
1.0
 10
3289.844129766087
 20
1249.079930495851
 30
0.0
 41
1.0
 10
3292.665406712448
 20
1246.14856148869
 30
0.0
 41
1.0
 10
3295.486683658808
 20
1243.217192481527
 30
0.0
 41
1.0
 10
3298.307960605165
 20
1240.285823474365
 30
0.0
 41
1.0
 10
3302.818806568387
 20
1244.703830044409
 30
0.0
 41
1.0
 10
3307.329652531608
 20
1249.121836614452
 30
0.0
 41
1.0
 10
3311.840498494836
 20
1253.539843184493
 30
0.0
 41
1.0
 10
3315.682847087636
 20
1250.332949961152
 30
0.0
 41
1.0
 10
3319.543765274153
 20
1247.217950312373
 30
0.0
 41
1.0
 10
3323.421826147708
 20
1244.145691215863
 30
0.0
 41
1.0
 10
3319.146395479562
 20
1240.030830906456
 30
0.0
 41
1.0
 10
3314.87096481142
 20
1235.915970597052
 30
0.0
 41
1.0
 10
3310.595534143282
 20
1231.801110287648
 30
0.0
 41
1.0
 10
3313.416811089643
 20
1228.869741280487
 30
0.0
 41
1.0
 10
3316.238088036004
 20
1225.938372273325
 30
0.0
 41
1.0
 10
3319.059364982364
 20
1223.007003266159
 30
0.0
 41
1.0
 10
3323.703007291133
 20
1227.555073050926
 30
0.0
 41
1.0
 10
3328.346649599906
 20
1232.103142835691
 30
0.0
 41
1.0
 10
3332.990291908664
 20
1236.651212620458
 30
0.0
 41
1.0
 10
3335.806935173114
 20
1234.462048780642
 30
0.0
 41
1.0
 10
3338.631887862055
 20
1232.274163378437
 30
0.0
 41
1.0
 10
3341.464614596894
 20
1230.069114089778
 30
0.0
 41
1.0
 10
3337.189183928753
 20
1225.954253780374
 30
0.0
 41
1.0
 10
3332.913753260608
 20
1221.839393470967
 30
0.0
 41
1.0
 10
3328.63832259247
 20
1217.724533161564
 30
0.0
 41
1.0
 10
3331.459599538834
 20
1214.793164154402
 30
0.0
 41
1.0
 10
3334.280876485191
 20
1211.861795147241
 30
0.0
 41
1.0
 10
3337.102153431559
 20
1208.930426140075
 30
0.0
 41
1.0
 10
3341.745778280918
 20
1213.478478824772
 30
0.0
 41
1.0
 10
3346.389403130277
 20
1218.026531509468
 30
0.0
 41
1.0
 10
3351.03302797964
 20
1222.574584194162
 30
0.0
 41
1.0
 10
3354.653420596518
 20
1219.729704647279
 30
0.0
 41
1.0
 10
3358.289682879993
 20
1216.87644637443
 30
0.0
 41
1.0
 10
3361.947174576748
 20
1214.057013596584
 30
0.0
 41
1.0
 10
3361.981216828845
 20
1214.030771611819
 30
0.0
 41
1.0
 10
3362.015260920049
 20
1214.004532557364
 30
0.0
 41
1.0
 10
3362.049305011253
 20
1213.978293502909
 30
0.0
 41
1.0
 10
3362.135295041895
 20
1213.912017769984
 30
0.0
 41
1.0
 10
3362.221285072545
 20
1213.84574203705
 30
0.0
 41
1.0
 10
3362.307275103187
 20
1213.779466304126
 30
0.0
 41
1.0
 10
3358.030811235178
 20
1209.663611598262
 30
0.0
 41
1.0
 10
3353.754347367168
 20
1205.547756892396
 30
0.0
 41
1.0
 10
3349.477883499156
 20
1201.431902186533
 30
0.0
 41
1.0
 10
3352.299160445517
 20
1198.500533179371
 30
0.0
 41
1.0
 10
3355.120437391877
 20
1195.569164172209
 30
0.0
 41
1.0
 10
3357.941714338235
 20
1192.637795165046
 30
0.0
 41
1.0
 10
3362.635058413631
 20
1197.234543785957
 30
0.0
 41
1.0
 10
3367.328402489031
 20
1201.831292406869
 30
0.0
 41
1.0
 10
3372.021746564442
 20
1206.428041027779
 30
0.0
 41
1.0
 10
3372.524103524273
 20
1206.061360398629
 30
0.0
 41
1.0
 10
3373.026460484096
 20
1205.694679769476
 30
0.0
 41
1.0
 10
3373.528817443927
 20
1205.327999140327
 30
0.0
 41
1.0
 10
3373.599679830539
 20
1205.276275233655
 30
0.0
 41
1.0
 10
3373.670542217148
 20
1205.224551326983
 30
0.0
 41
1.0
 10
3373.741414391134
 20
1205.1728557562
 30
0.0
 41
1.0
 10
3377.618716904301
 20
1202.344674324307
 30
0.0
 41
1.0
 10
3381.525313117614
 20
1199.601302432997
 30
0.0
 41
1.0
 10
3385.467334886133
 20
1196.991024111124
 30
0.0
 41
1.0
 10
3381.191904217987
 20
1192.87616380172
 30
0.0
 41
1.0
 10
3376.916473549842
 20
1188.761303492316
 30
0.0
 41
1.0
 10
3372.641042881703
 20
1184.646443182915
 30
0.0
 41
1.0
 10
3375.462319828064
 20
1181.715074175754
 30
0.0
 41
1.0
 10
3378.283596774425
 20
1178.783705168592
 30
0.0
 41
1.0
 10
3381.104873720786
 20
1175.85233616143
 30
0.0
 41
1.0
 10
3386.063509155454
 20
1180.708916081785
 30
0.0
 41
1.0
 10
3391.022144590123
 20
1185.565496002139
 30
0.0
 41
1.0
 10
3395.980780024784
 20
1190.422075922492
 30
0.0
 41
1.0
 10
3396.467337559927
 20
1190.1432631847
 30
0.0
 41
1.0
 10
3396.95389509507
 20
1189.864450446906
 30
0.0
 41
1.0
 10
3397.44045263021
 20
1189.585637709109
 30
0.0
 41
1.0
 10
3397.539136652137
 20
1189.529088667435
 30
0.0
 41
1.0
 10
3397.637820674074
 20
1189.472539625762
 30
0.0
 41
1.0
 10
3397.736525953999
 20
1189.41606007349
 30
0.0
 41
1.0
 10
3400.969128164936
 20
1187.566352279877
 30
0.0
 41
1.0
 10
3404.224530961707
 20
1185.79117641127
 30
0.0
 41
1.0
 10
3407.490167460132
 20
1183.95130880858
 30
0.0
 41
1.0
 10
3403.21473679199
 20
1179.836448499176
 30
0.0
 41
1.0
 10
3398.939306123848
 20
1175.721588189773
 30
0.0
 41
1.0
 10
3394.663875455707
 20
1171.606727880372
 30
0.0
 41
1.0
 10
3397.485152402067
 20
1168.67535887321
 30
0.0
 41
1.0
 10
3400.306429348428
 20
1165.743989866048
 30
0.0
 41
1.0
 10
3403.127706294792
 20
1162.812620858886
 30
0.0
 41
1.0
 10
3408.140482951367
 20
1167.722227700591
 30
0.0
 41
1.0
 10
3413.153259607945
 20
1172.631834542297
 30
0.0
 41
1.0
 10
3418.166036264528
 20
1177.541441384004
 30
0.0
 41
1.0
 10
3418.193437564678
 20
1177.52328503649
 30
0.0
 41
1.0
 10
3418.220838864828
 20
1177.505128688975
 30
0.0
 41
1.0
 10
3418.248240164984
 20
1177.486972341461
 30
0.0
 41
1.0
 10
3418.542955146349
 20
1177.291691548598
 30
0.0
 41
1.0
 10
3418.837670127716
 20
1177.096410755734
 30
0.0
 41
1.0
 10
3419.132347223218
 20
1176.899266172326
 30
0.0
 41
1.0
 10
3421.851566719735
 20
1175.080056593369
 30
0.0
 41
1.0
 10
3429.083657056272
 20
1169.813304940757
 30
0.0
 41
1.0
 10
3439.783443635108
 20
1159.411828232791
 30
0.0
 41
1.0
 10
3455.763226155137
 20
1170.252094628886
 30
0.0
 41
1.0
 10
3472.484764285819
 20
1181.675231611265
 30
0.0
 41
1.0
 10
3491.55320905826
 20
1209.405019235013
 30
0.0
 41
1.0
 10
3529.385214694867
 20
1227.964462795211
 30
0.0
 41
1.0
 10
3545.50546379466
 20
1259.629141773543
 30
0.0
 41
1.0
 10
3558.874052881664
 20
1276.806481403582
 30
0.0
 41
1.0
 10
3564.602672803881
 20
1282.588708135949
 30
0.0
 41
1.0
 10
3612.69046871522
 20
1327.817361353549
 30
0.0
 41
1.0
 10
3651.495595092212
 20
1352.854068463642
 30
0.0
 41
1.0
 10
3701.653764434552
 20
1338.4455616308
 30
0.0
 41
1.0
 10
3731.341258768458
 20
1330.501297228133
 30
0.0
 41
1.0
 10
3773.549180142942
 20
1310.680695292007
 30
0.0
 41
1.0
 10
3784.054826583805
 20
1311.504796854169
 30
0.0
 41
1.0
 10
3794.485071715364
 20
1314.644760832416
 30
0.0
 41
1.0
 10
3794.682529126116
 20
1314.705047962961
 30
0.0
 41
1.0
 10
3801.436896393043
 20
1305.721318283653
 30
0.0
 41
1.0
 10
3808.191263659978
 20
1296.737588604346
 30
0.0
 41
1.0
 10
3814.945630926897
 20
1287.753858925041
 30
0.0
 41
1.0
 10
3818.661413632268
 20
1291.162078285973
 30
0.0
 41
1.0
 10
3822.377196337639
 20
1294.570297646905
 30
0.0
 41
1.0
 10
3826.092979043006
 20
1297.978517007836
 30
0.0
 41
1.0
 10
3820.38723824871
 20
1305.564527670134
 30
0.0
 41
1.0
 10
3814.681497454414
 20
1313.150538332433
 30
0.0
 41
1.0
 10
3808.975756660126
 20
1320.736548994728
 30
0.0
 41
1.0
 10
3811.812905339579
 20
1322.329673694821
 30
0.0
 41
1.0
 10
3814.462812977629
 20
1324.11434443331
 30
0.0
 41
1.0
 10
3816.814826996372
 20
1326.078229933707
 30
0.0
 41
1.0
 10
3822.209990501775
 20
1320.456322726651
 30
0.0
 41
1.0
 10
3827.605154007182
 20
1314.834415519594
 30
0.0
 41
1.0
 10
3833.000317512579
 20
1309.212508312536
 30
0.0
 41
1.0
 10
3836.716100217953
 20
1312.620727673471
 30
0.0
 41
1.0
 10
3840.431882923324
 20
1316.028947034405
 30
0.0
 41
1.0
 10
3844.147665628695
 20
1319.437166395339
 30
0.0
 41
1.0
 10
3838.441924834398
 20
1327.023177057636
 30
0.0
 41
1.0
 10
3832.736184040103
 20
1334.609187719934
 30
0.0
 41
1.0
 10
3827.030443245814
 20
1342.195198382227
 30
0.0
 41
1.0
 10
3829.797350253641
 20
1356.460940042174
 30
0.0
 41
1.0
 10
3811.182153749255
 20
1398.048478712093
 30
0.0
 41
1.0
 10
3843.13790110789
 20
1455.623121294633
 30
0.0
 41
1.0
 10
3882.577913003388
 20
1517.953684740554
 30
0.0
 41
1.0
 10
3933.302803898128
 20
1510.151723817634
 30
0.0
 41
1.0
 10
3956.988401548708
 20
1515.184092660524
 30
0.0
 41
1.0
 10
3965.989867120788
 20
1511.789535405105
 30
0.0
 41
1.0
 10
3968.561799387746
 20
1510.480633764592
 30
0.0
 41
1.0
 10
3960.645149349181
 20
1503.434150399784
 30
0.0
 41
1.0
 10
3952.728499310619
 20
1496.387667034976
 30
0.0
 41
1.0
 10
3944.811849272065
 20
1489.34118367017
 30
0.0
 41
1.0
 10
3948.34468008289
 20
1485.372085365843
 30
0.0
 41
1.0
 10
3951.877510893711
 20
1481.402987061516
 30
0.0
 41
1.0
 10
3955.410341704526
 20
1477.433888757189
 30
0.0
 41
1.0
 10
3964.427482710497
 20
1485.277573336707
 30
0.0
 41
1.0
 10
3973.444623716467
 20
1493.121257916224
 30
0.0
 41
1.0
 10
3982.461764722437
 20
1500.96494249574
 30
0.0
 41
1.0
 10
3986.012307565245
 20
1498.154572760972
 30
0.0
 41
1.0
 10
3989.910710830074
 20
1494.885243050652
 30
0.0
 41
1.0
 10
3995.06315394062
 20
1489.961358638149
 30
0.0
 41
1.0
 10
3987.146503902052
 20
1482.91487527334
 30
0.0
 41
1.0
 10
3979.229853863486
 20
1475.868391908532
 30
0.0
 41
1.0
 10
3971.313203824921
 20
1468.821908543725
 30
0.0
 41
1.0
 10
3974.846034635757
 20
1464.852810239399
 30
0.0
 41
1.0
 10
3978.378865446583
 20
1460.883711935072
 30
0.0
 41
1.0
 10
3981.911696257404
 20
1456.914613630744
 30
0.0
 41
1.0
 10
3990.129203625831
 20
1464.062725852258
 30
0.0
 41
1.0
 10
3998.346710994269
 20
1471.210838073772
 30
0.0
 41
1.0
 10
4006.564218362703
 20
1478.358950295285
 30
0.0
 41
1.0
 10
4008.886678614693
 20
1475.925845720203
 30
0.0
 41
1.0
 10
4011.281732885767
 20
1473.380233778907
 30
0.0
 41
1.0
 10
4013.628708629723
 20
1470.863166041039
 30
0.0
 41
1.0
 10
4005.712058591165
 20
1463.816682676235
 30
0.0
 41
1.0
 10
3997.795408552604
 20
1456.77019931143
 30
0.0
 41
1.0
 10
3989.878758514042
 20
1449.723715946624
 30
0.0
 41
1.0
 10
3993.411589324868
 20
1445.754617642296
 30
0.0
 41
1.0
 10
3996.944420135689
 20
1441.785519337969
 30
0.0
 41
1.0
 10
4000.477250946511
 20
1437.816421033642
 30
0.0
 41
1.0
 10
4008.544290114845
 20
1444.833646414183
 30
0.0
 41
1.0
 10
4016.611329283175
 20
1451.850871794725
 30
0.0
 41
1.0
 10
4024.678368451506
 20
1458.868097175267
 30
0.0
 41
1.0
 10
4028.787549250348
 20
1454.36044312068
 30
0.0
 41
1.0
 10
4031.952561891031
 20
1450.835615046102
 30
0.0
 41
1.0
 10
4031.599617031527
 20
1451.244711406654
 30
0.0
 41
1.0
 10
4033.200137365049
 20
1449.367597137074
 30
0.0
 41
1.0
 10
4035.15339251504
 20
1446.809698574789
 30
0.0
 41
1.0
 10
4027.236742476467
 20
1439.763215209981
 30
0.0
 41
1.0
 10
4019.320092437902
 20
1432.716731845175
 30
0.0
 41
1.0
 10
4011.40344239934
 20
1425.670248480368
 30
0.0
 41
1.0
 10
4014.93627321018
 20
1421.701150176041
 30
0.0
 41
1.0
 10
4018.469104021002
 20
1417.732051871713
 30
0.0
 41
1.0
 10
4022.001934831827
 20
1413.762953567386
 30
0.0
 41
1.0
 10
4029.382359547013
 20
1420.182917887627
 30
0.0
 41
1.0
 10
4036.762784262206
 20
1426.602882207866
 30
0.0
 41
1.0
 10
4044.143208977398
 20
1433.022846528105
 30
0.0
 41
1.0
 10
4044.927444883997
 20
1431.507778305642
 30
0.0
 41
1.0
 10
4052.082274677701
 20
1416.093136299963
 30
0.0
 41
1.0
 10
4050.69782447132
 20
1399.6679967737
 30
0.0
 41
1.0
 10
4037.028578571123
 20
1384.255745555214
 30
0.0
 41
1.0
 10
4028.431704512917
 20
1359.18815632965
 30
0.0
 41
1.0
 10
4016.515850422798
 20
1335.239491577316
 30
0.0
 41
1.0
 10
4008.323334539905
 20
1329.977760342403
 30
0.0
 41
1.0
 10
4000.340466193626
 20
1335.312613478585
 30
0.0
 41
1.0
 10
3990.729821036487
 20
1319.525403567832
 30
0.0
 41
1.0
 10
3994.410728471059
 20
1304.399265145697
 30
0.0
 41
1.0
 10
3981.533200937771
 20
1295.32829203561
 30
0.0
 41
1.0
 10
3968.574968916346
 20
1299.272340552925
 30
0.0
 41
1.0
 10
3967.441151629198
 20
1280.676531262164
 30
0.0
 41
1.0
 10
3950.346243526208
 20
1284.977968028937
 30
0.0
 41
1.0
 10
3951.603163443277
 20
1268.591360089116
 30
0.0
 41
1.0
 10
3938.290216978614
 20
1271.834480028328
 30
0.0
 41
1.0
 10
3936.487555120649
 20
1256.475407520869
 30
0.0
 41
1.0
 10
3912.556356038884
 20
1240.889873791939
 30
0.0
 41
1.0
 10
3902.763829344247
 20
1275.200267837121
 30
0.0
 41
1.0
 10
3891.440238549589
 20
1272.343874289336
 30
0.0
 41
1.0
 10
3890.640551946901
 20
1272.03548007384
 30
0.0
 41
1.0
 10
3885.420203890546
 20
1278.275822761107
 30
0.0
 41
1.0
 10
3880.199855834177
 20
1284.51616544837
 30
0.0
 41
1.0
 10
3874.979507777807
 20
1290.756508135634
 30
0.0
 41
1.0
 10
3872.422817234892
 20
1288.617713012463
 30
0.0
 41
1.0
 10
3869.866126691984
 20
1286.478917889292
 30
0.0
 41
1.0
 10
3867.309436149073
 20
1284.340122766122
 30
0.0
 41
1.0
 10
3872.380872056605
 20
1277.798940726161
 30
0.0
 41
1.0
 10
3877.452307964148
 20
1271.2577586862
 30
0.0
 41
1.0
 10
3882.52374387169
 20
1264.716576646239
 30
0.0
 41
1.0
 10
3881.786385450425
 20
1261.588606805138
 30
0.0
 41
1.0
 10
3881.049027029156
 20
1258.460636964042
 30
0.0
 41
1.0
 10
3880.311668607883
 20
1255.332667122945
 30
0.0
 41
1.0
 10
3873.172114506298
 20
1260.829586126687
 30
0.0
 41
1.0
 10
3866.032560404717
 20
1266.326505130428
 30
0.0
 41
1.0
 10
3858.893006303134
 20
1271.823424134167
 30
0.0
 41
1.0
 10
3857.153539451832
 20
1268.979946301606
 30
0.0
 41
1.0
 10
3855.414072600514
 20
1266.136468469043
 30
0.0
 41
1.0
 10
3853.674605749194
 20
1263.292990636482
 30
0.0
 41
1.0
 10
3863.561603756327
 20
1256.313661513513
 30
0.0
 41
1.0
 10
3873.448601763463
 20
1249.334332390545
 30
0.0
 41
1.0
 10
3883.335599770599
 20
1242.355003267577
 30
0.0
 41
1.0
 10
3883.986216176156
 20
1240.900907554027
 30
0.0
 41
1.0
 10
3884.726455977005
 20
1239.484646292103
 30
0.0
 41
1.0
 10
3885.543219110095
 20
1238.104549173016
 30
0.0
 41
1.0
 10
3888.048512321078
 20
1235.275128901012
 30
0.0
 41
1.0
 10
3899.374490564056
 20
1223.818990313557
 30
0.0
 41
1.0
 10
3920.488148851124
 20
1202.535336767272
 30
0.0
 41
1.0
 10
4008.842376074198
 20
1167.660000238611
 30
0.0
 41
1.0
 10
3903.687775642768
 20
1027.273799481385
 30
0.0
 41
1.0
 10
3830.074445185051
 20
937.5801551238273
 30
0.0
 41
1.0
 10
3802.987594811435
 20
822.8969678637932
 30
0.0
 41
1.0
 10
3752.453516562044
 20
740.1542366588946
 30
0.0
 41
1.0
 10
3728.19976647773
 20
663.1854036301265
 30
0.0
 41
1.0
 10
3694.787450207456
 20
619.7209492588718
 30
0.0
 41
1.0
 10
3686.976758979541
 20
579.2299067722888
 30
0.0
 41
1.0
 10
3664.063598156837
 20
559.7015748858066
 30
0.0
 41
1.0
 10
3641.878799534159
 20
527.5405860156697
 30
0.0
 41
1.0
 10
3614.315484262075
 20
538.5367839454647
 30
0.0
 41
1.0
 10
3590.145868906176
 20
545.1867404081204
 30
0.0
 41
1.0
 10
3593.542529627529
 20
551.4292056610247
 30
0.0
 41
1.0
 10
3596.724920900899
 20
556.5938617496376
 30
0.0
 41
1.0
 10
3596.255672874181
 20
562.1212700075593
 30
0.0
 41
1.0
 10
3604.161080167113
 20
562.3623278389096
 30
0.0
 41
1.0
 10
3615.561688715541
 20
554.661679756382
 30
0.0
 41
1.0
 10
3631.069885656234
 20
557.5026043011803
 30
0.0
 41
1.0
 10
3643.476409384286
 20
558.5562815397497
 30
0.0
 41
1.0
 10
3641.418894962452
 20
580.83288774645
 30
0.0
 41
1.0
 10
3655.974332907248
 20
590.0137927474079
 30
0.0
 41
1.0
 10
3639.195827569813
 20
609.6856923197574
 30
0.0
 41
1.0
 10
3635.826264379168
 20
570.8991601740254
 30
0.0
 41
1.0
 10
3611.205164817465
 20
572.583871873634
 30
0.0
 41
1.0
 10
3614.629402772582
 20
588.2512102555337
 30
0.0
 41
1.0
 10
3622.506502399516
 20
601.5802766510878
 30
0.0
 41
1.0
 10
3638.868317702574
 20
617.8661320156243
 30
0.0
 41
1.0
 10
3648.053548782551
 20
643.4207108864612
 30
0.0
 41
1.0
 10
3675.091447782754
 20
660.8355597968457
 30
0.0
 41
1.0
 10
3693.521471680502
 20
685.6352716955735
 30
0.0
 41
1.0
 10
3705.962562085926
 20
750.1714068631136
 30
0.0
 41
1.0
 10
3712.521188025017
 20
787.5725758883746
 30
0.0
 41
1.0
 10
3688.973377629463
 20
784.4931020631065
 30
0.0
 41
1.0
 10
3633.490720044239
 20
639.1045700244412
 30
0.0
 41
1.0
 10
3544.220305864005
 20
573.9951048312559
 30
0.0
 41
1.0
 10
3449.686815228677
 20
478.4223509700622
 30
0.0
 41
1.0
 10
3375.591097134984
 20
381.8519076180928
 30
0.0
 41
1.0
 10
3307.388694425252
 20
250.4060810015417
 30
0.0
 41
1.0
 10
3210.831837674603
 20
189.6764919938086
 30
0.0
 41
1.0
 10
3172.457250994692
 20
142.7150468595064
 30
0.0
 41
1.0
 10
3169.952398570509
 20
139.4907343090508
 30
0.0
 41
1.0
 10
3166.844544774428
 20
134.3040025473783
 30
0.0
 41
1.0
 10
3163.736690978341
 20
129.1172707856922
 30
0.0
 41
1.0
 10
3160.628837182256
 20
123.930539024006
 30
0.0
 41
1.0
  0
LINE
  5
1B10
330
1F
100
AcDbEntity
  8
0
100
AcDbLine
 10
3117.495562309567
 20
149.7772510793675
 30
0.0
 11
3160.62952149619
 21
123.9316810831351
 31
0.0
  0
CIRCLE
  5
1B11
330
1F
100
AcDbEntity
  8
0
100
AcDbCircle
 10
3894.152825279638
 20
1413.508056788723
 30
0.0
 40
3.0
  0
CIRCLE
  5
1B12
330
1F
100
AcDbEntity
  8
0
100
AcDbCircle
 10
3880.305911279349
 20
1427.780890787087
 30
0.0
 40
3.0
  0
CIRCLE
  5
1B13
330
1F
100
AcDbEntity
  8
0
100
AcDbCircle
 10
3861.723276663877
 20
1418.722557888899
 30
0.0
 40
3.0
  0
CIRCLE
  5
1B14
330
1F
100
AcDbEntity
  8
0
100
AcDbCircle
 10
3860.24054361635
 20
1398.751104095709
 30
0.0
 40
3.0
  0
CIRCLE
  5
1B15
330
1F
100
AcDbEntity
  8
0
100
AcDbCircle
 10
3864.752303399451
 20
1377.631188818017
 30
0.0
 40
3.0
  0
CIRCLE
  5
1B16
330
1F
100
AcDbEntity
  8
0
100
AcDbCircle
 10
3881.287527337427
 20
1366.417380335946
 30
0.0
 40
3.0
  0
LWPOLYLINE
  5
1B31
330
1F
100
AcDbEntity
  8
0
100
AcDbPolyline
 90
        8
 70
     1
 43
0.0
 10
3540.813954228412
 20
882.1187630788335
 10
3521.282459058105
 20
849.5224335858956
 42
0.9999999999984694
 10
3518.198538768058
 20
844.3756447185878
 10
3532.952666854333
 20
835.5350732204479
 42
1.0
 10
3536.036587144379
 20
840.681862087753
 10
3555.568082314691
 20
873.2781915806882
 42
1.0
 10
3558.652002604737
 20
878.4249804479987
 10
3543.897874518461
 20
887.2655519461332
 42
0.9999999999984694
  0
LWPOLYLINE
  5
1B32
330
1F
100
AcDbEntity
  8
0
100
AcDbPolyline
 90
        8
 70
     1
 43
0.0
 10
3819.98598926096
 20
1269.063962308559
 10
3800.454494090646
 20
1236.467632815622
 42
0.9999999999984694
 10
3797.3705738006
 20
1231.320843948315
 10
3812.124701886875
 20
1222.480272450175
 42
1.0
 10
3815.20862217692
 20
1227.62706131748
 10
3834.740117347236
 20
1260.223390810419
 42
1.0
 10
3837.824037637285
 20
1265.370179677724
 10
3823.06990955101
 20
1274.210751175864
 42
0.9999999999999996
  0
LWPOLYLINE
  5
1B33
330
1F
100
AcDbEntity
  8
0
100
AcDbPolyline
 90
        8
 70
     1
 43
0.0
 10
3326.606300801093
 20
339.2380670127222
 42
0.9999999999999998
 10
3321.459511933787
 20
342.3219873027756
 10
3288.863182440851
 20
361.8534824730814
 42
0.9999999999998438
 10
3283.716393573552
 20
364.9374027631293
 10
3274.875822075414
 20
350.1832746768532
 42
0.9999999999999998
 10
3280.022610942717
 20
347.0993543868026
 10
3312.618940435652
 20
327.5678592164968
 42
1.000001101275515
 10
3317.765729302952
 20
324.4839389264471
  0
LWPOLYLINE
  5
1B34
330
1F
100
AcDbEntity
  8
0
100
AcDbPolyline
 90
        8
 70
     1
 43
0.0
 10
3213.531718426883
 20
406.9915746585884
 42
0.9999999999999998
 10
3208.384929559576
 20
410.0754949486417
 10
3175.788600066641
 20
429.6069901189476
 42
0.9999999999998438
 10
3170.641811199341
 20
432.6909104089954
 10
3161.801239701203
 20
417.9367823227194
 42
0.9999999999999998
 10
3166.948028568506
 20
414.8528620326687
 10
3199.544358061441
 20
395.321366862363
 42
1.000001101275515
 10
3204.691146928741
 20
392.2374465723133
  0
LWPOLYLINE
  5
1B35
330
1F
100
AcDbEntity
  8
0
100
AcDbPolyline
 90
        8
 70
     1
 43
0.0
 10
3401.25756821347
 20
466.8366540436655
 42
0.9999999999999998
 10
3396.110779346167
 20
469.9205743337224
 10
3363.514449853229
 20
489.4520695040246
 42
0.9999999999998438
 10
3358.367660985929
 20
492.5359897940725
 10
3349.527089487791
 20
477.7818617077964
 42
0.9999999999999998
 10
3354.673878355094
 20
474.6979414177458
 10
3387.270207848029
 20
455.16644624744
 42
1.000001101275515
 10
3392.416996715332
 20
452.0825259573903
  0
LWPOLYLINE
  5
1B36
330
1F
100
AcDbEntity
  8
0
100
AcDbPolyline
 90
        8
 70
     1
 43
0.0
 10
3292.844500619253
 20
531.7970142760686
 42
0.9999999999999998
 10
3287.697711751945
 20
534.8809345661175
 10
3255.101382259014
 20
554.4124297364278
 42
0.9999999999998438
 10
3249.954593391711
 20
557.4963500264766
 10
3241.114021893569
 20
542.7422219401951
 42
0.9999999999999998
 10
3246.260810760876
 20
539.6583016501445
 10
3278.857140253811
 20
520.1268064798386
 42
1.000001101275515
 10
3284.003929121111
 20
517.042886189789
  0
LWPOLYLINE
  5
1B37
330
1F
100
AcDbEntity
  8
0
100
AcDbPolyline
 90
        8
 70
     1
 43
0.0
 10
3498.74107755315
 20
590.30320704139
 42
0.9999999999999998
 10
3493.594288685847
 20
593.3871273314379
 10
3460.997959192911
 20
612.9186225017447
 42
0.9999999999998438
 10
3455.851170325612
 20
616.0025427917935
 10
3447.01059882747
 20
601.2484147055165
 42
0.9999999999999998
 10
3452.157387694777
 20
598.1644944154659
 10
3484.753717187709
 20
578.6329992451592
 42
1.000001101275515
 10
3489.900506055008
 20
575.5490789551149
  0
LWPOLYLINE
  5
1B38
330
1F
100
AcDbEntity
  8
0
100
AcDbPolyline
 90
        8
 70
     1
 43
0.0
 10
3357.117313359387
 20
675.1631869649299
 42
0.9999999999999998
 10
3351.970524492081
 20
678.2471072549833
 10
3319.374194999153
 20
697.7786024252891
 42
0.9999999999998438
 10
3314.227406131846
 20
700.862522715337
 10
3305.386834633708
 20
686.108394629061
 42
0.9999999999999998
 10
3310.533623501011
 20
683.0244743390103
 10
3343.129952993943
 20
663.4929791686991
 42
1.000001101275515
 10
3348.276741861242
 20
660.4090588786548
  0
LWPOLYLINE
  5
1B39
330
1F
100
AcDbEntity
  8
0
100
AcDbPolyline
 90
        8
 70
     1
 43
0.0
 10
3599.030769055509
 20
757.920967926404
 42
0.9999999999999998
 10
3593.883980188202
 20
761.004888216452
 10
3561.287650695275
 20
780.5363833867631
 42
0.9999999999998438
 10
3556.140861827968
 20
783.6203036768111
 10
3547.300290329829
 20
768.866175590535
 42
0.9999999999999998
 10
3552.447079197133
 20
765.7822553004844
 10
3585.043408690064
 20
746.2507601301731
 42
1.000001101275515
 10
3590.190197557368
 20
743.1668398401289
  0
LWPOLYLINE
  5
1B3A
330
1F
100
AcDbEntity
  8
0
100
AcDbPolyline
 90
        8
 70
     1
 43
0.0
 10
3436.770587484247
 20
855.1461464048516
 42
0.9999999999999998
 10
3431.623798616933
 20
858.2300666948995
 10
3399.027469124005
 20
877.7615618652061
 42
0.9999999999998438
 10
3393.880680256702
 20
880.8454821552587
 10
3385.040108758559
 20
866.0913540689779
 42
0.9999999999999998
 10
3390.186897625867
 20
863.0074337789274
 10
3422.783227118794
 20
843.4759386086208
 42
1.000001101275515
 10
3427.930015986102
 20
840.3920183185718
  0
LWPOLYLINE
  5
1B3B
330
1F
100
AcDbEntity
  8
0
100
AcDbPolyline
 90
        8
 70
     1
 43
0.0
 10
3761.635536648876
 20
892.8438194271821
 42
0.9999999999999998
 10
3756.488747781568
 20
895.9277397172355
 10
3723.892418288637
 20
915.4592348875413
 42
0.9999999999998438
 10
3718.745629421333
 20
918.5431551775891
 10
3709.905057923196
 20
903.7890270913131
 42
0.9999999999999998
 10
3715.051846790499
 20
900.7051068012625
 10
3747.64817628343
 20
881.1736116309512
 42
1.000001101275515
 10
3752.794965150734
 20
878.0896913409069
  0
LWPOLYLINE
  5
1B3C
330
1F
100
AcDbEntity
  8
0
100
AcDbPolyline
 90
        8
 70
     1
 43
0.0
 10
3600.429922976138
 20
989.4371081150502
 42
0.9999999999999998
 10
3595.283134108835
 20
992.521028405099
 10
3562.686804615896
 20
1012.052523575409
 42
0.9999999999998438
 10
3557.540015748597
 20
1015.136443865458
 10
3548.699444250458
 20
1000.382315779177
 42
0.9999999999999998
 10
3553.846233117762
 20
997.298395489126
 10
3586.442562610697
 20
977.7669003188202
 42
1.000001101275515
 10
3591.589351478
 20
974.682980028775
  0
LWPOLYLINE
  5
1B3D
330
1F
100
AcDbEntity
  8
0
100
AcDbPolyline
 90
        8
 70
     1
 43
0.0
 10
3813.034208149696
 20
978.6236338822819
 42
0.9999999999999998
 10
3807.88741928239
 20
981.7075541723298
 10
3775.291089789455
 20
1001.239049342641
 42
0.9999999999998438
 10
3770.144300922155
 20
1004.322969632689
 10
3761.303729424013
 20
989.5688415464082
 42
0.9999999999999998
 10
3766.45051829132
 20
986.4849212563576
 10
3799.046847784248
 20
966.953426086051
 42
1.000001101275515
 10
3804.193636651555
 20
963.8695057960021
  0
LWPOLYLINE
  5
1B3E
330
1F
100
AcDbEntity
  8
0
100
AcDbPolyline
 90
        8
 70
     1
 43
0.0
 10
3650.774026578427
 20
1075.848812360725
 42
0.9999999999999998
 10
3645.62723771112
 20
1078.932732650777
 10
3613.030908218185
 20
1098.464227821084
 42
0.9999999999998438
 10
3607.884119350885
 20
1101.548148111133
 10
3599.043547852748
 20
1086.794020024851
 42
0.9999999999999998
 10
3604.19033672005
 20
1083.7100997348
 10
3636.786666212986
 20
1064.178604564495
 42
1.000001101275515
 10
3641.933455080282
 20
1061.094684274449
  0
LWPOLYLINE
  5
1B3F
330
1F
100
AcDbEntity
  8
0
100
AcDbPolyline
 90
        8
 70
     1
 43
0.0
 10
3882.98408785959
 20
1074.271650416105
 42
0.9999999999999998
 10
3877.837298992279
 20
1077.355570706153
 10
3845.240969499348
 20
1096.887065876464
 42
0.9999999999998438
 10
3840.094180632045
 20
1099.970986166512
 10
3831.253609133906
 20
1085.216858080231
 42
0.9999999999999998
 10
3836.400398001213
 20
1082.132937790181
 10
3868.996727494141
 20
1062.601442619874
 42
1.000001101275515
 10
3874.143516361448
 20
1059.517522329825
  0
LWPOLYLINE
  5
1B40
330
1F
100
AcDbEntity
  8
0
100
AcDbPolyline
 90
        8
 70
     1
 43
0.0
 10
3754.314366176943
 20
1151.36965766733
 42
0.9999999999999998
 10
3749.167577309633
 20
1154.453577957383
 10
3716.571247816701
 20
1173.985073127689
 42
0.9999999999998438
 10
3711.424458949397
 20
1177.068993417737
 10
3702.583887451263
 20
1162.314865331461
 42
0.9999999999999998
 10
3707.730676318566
 20
1159.23094504141
 10
3740.327005811498
 20
1139.699449871099
 42
1.000001101275515
 10
3745.473794678805
 20
1136.615529581055
  0
LWPOLYLINE
  5
1B41
330
1F
100
AcDbEntity
  8
0
100
AcDbPolyline
 90
        8
 70
     1
 43
0.0
 10
3625.644644494303
 20
1228.467664918559
 42
0.9999999999999998
 10
3620.497855626993
 20
1231.551585208612
 10
3587.901526134061
 20
1251.083080378914
 42
0.9999999999998438
 10
3582.754737266758
 20
1254.167000668962
 10
3573.914165768623
 20
1239.412872582686
 42
0.9999999999999998
 10
3579.060954635926
 20
1236.328952292635
 10
3611.657284128858
 20
1216.797457122329
 42
1.000001101275515
 10
3616.804072996161
 20
1213.713536832284
  0
LWPOLYLINE
  5
1B42
330
1F
100
AcDbEntity
  8
0
100
AcDbPolyline
 90
        8
 70
     1
 43
0.0
 10
3873.193599800772
 20
1339.190932977994
 10
3864.35302830263
 20
1324.436804891718
 42
0.9999999999999998
 10
3869.499817169938
 20
1321.352884601669
 10
3902.096146662869
 20
1301.821389431358
 42
1.000001101275515
 10
3907.242935530172
 20
1298.737469141311
 10
3916.083507028314
 20
1313.491597227588
 42
0.9999999999999998
 10
3910.936718161007
 20
1316.575517517642
 10
3878.340388668079
 20
1336.107012687947
 42
0.9999999999998438
  0
LWPOLYLINE
  5
1B43
330
1F
100
AcDbEntity
  8
0
100
AcDbPolyline
 90
        8
 70
     1
 43
0.0
 10
3936.30105094417
 20
1444.511659987999
 10
3927.460479446028
 20
1429.757531901723
 42
0.9999999999999998
 10
3932.607268313335
 20
1426.673611611672
 10
3965.203597806264
 20
1407.142116441366
 42
1.000001101275515
 10
3970.35038667357
 20
1404.058196151319
 10
3979.190958171709
 20
1418.812324237591
 42
0.9999999999999998
 10
3974.044169304405
 20
1421.896244527645
 10
3941.447839811473
 20
1441.42773969795
 42
0.9999999999998438
  0
LWPOLYLINE
  5
1B44
330
1F
100
AcDbEntity
  8
0
100
AcDbPolyline
 90
        8
 70
     1
 43
0.0
 10
3990.083938336375
 20
-546.4497964266538
 10
3990.083938336375
 20
-529.2497964266531
 42
-0.9999999999999998
 10
3996.083938336382
 20
-529.2497964266531
 10
4034.368448113684
 20
-529.2497964266767
 42
-0.9999999999962108
 10
4040.368448113688
 20
-529.2497964266785
 10
4040.368448113684
 20
-546.4497964266538
 42
-1.000000000003979
 10
4034.368448113681
 20
-546.4497964266538
 10
3996.083938336375
 20
-546.4497964266556
 42
-0.9999999999999998
  0
LWPOLYLINE
  5
1B45
330
1F
100
AcDbEntity
  8
0
100
AcDbPolyline
 90
        8
 70
     1
 43
0.0
 10
3990.083938336371
 20
-764.4497964266538
 10
3990.083938336371
 20
-747.2497964266531
 42
-0.9999999999999998
 10
3996.083938336375
 20
-747.2497964266531
 10
4034.368448113681
 20
-747.2497964266767
 42
-0.9999999999962108
 10
4040.368448113684
 20
-747.2497964266786
 10
4040.368448113677
 20
-764.4497964266538
 42
-1.000000000003979
 10
4034.368448113677
 20
-764.4497964266538
 10
3996.083938336371
 20
-764.4497964266556
 42
-0.9999999999999998
  0
LWPOLYLINE
  5
1B46
330
1F
100
AcDbEntity
  8
0
100
AcDbPolyline
 90
        8
 70
     1
 43
0.0
 10
3974.351204889786
 20
-764.4497964266538
 10
3974.351204889794
 20
-747.2497964266786
 42
0.9999999999962108
 10
3968.351204889787
 20
-747.2497964266531
 10
3930.066695112484
 20
-747.2497964266531
 42
0.9999999999999998
 10
3924.06669511248
 20
-747.2497964266531
 10
3924.06669511248
 20
-764.4497964266538
 42
0.9999999999999998
 10
3930.066695112481
 20
-764.4497964266556
 10
3968.351204889783
 20
-764.4497964266538
 42
1.000000000003979
  0
LWPOLYLINE
  5
1B47
330
1F
100
AcDbEntity
  8
0
100
AcDbPolyline
 90
        8
 70
     1
 43
0.0
 10
3924.066695112485
 20
-529.2497964266531
 10
3924.06669511248
 20
-546.4497964266556
 42
0.9999999999999998
 10
3930.066695112484
 20
-546.4497964266556
 10
3968.351204889787
 20
-546.4497964266538
 42
1.000000000003979
 10
3974.351204889794
 20
-546.4497964266811
 10
3974.351204889801
 20
-529.2497964266531
 42
0.9999999999962108
 10
3968.351204889794
 20
-529.2497964266531
 10
3930.066695112488
 20
-529.2497964266531
 42
0.9999999999999998
  0
LWPOLYLINE
  5
1B48
330
1F
100
AcDbEntity
  8
0
100
AcDbPolyline
 90
       16
 70
     1
 43
0.0
 10
3075.356500375754
 20
600.70194846294
 10
3075.356500375754
 20
800.7019484629399
 10
3111.35650037575
 20
800.7019484629399
 10
3111.35650037575
 20
836.7019484629436
 10
3161.356500375751
 20
836.7019484629436
 10
3161.356500375751
 20
818.7019484629418
 10
3143.35650037575
 20
818.7019484629418
 10
3143.35650037575
 20
800.7019484629399
 10
3179.35650037575
 20
800.7019484629399
 10
3179.35650037575
 20
600.70194846294
 10
3143.35650037575
 20
600.70194846294
 10
3143.35650037575
 20
582.7019484629381
 10
3161.356500375751
 20
582.7019484629381
 10
3161.356500375751
 20
564.7019484629363
 10
3111.35650037575
 20
564.7019484629363
 10
3111.35650037575
 20
600.70194846294
  0
LWPOLYLINE
  5
1B49
330
1F
100
AcDbEntity
  8
0
100
AcDbPolyline
 90
       16
 70
     1
 43
0.0
 10
4078.682584964088
 20
1165.402969213839
 10
4078.682584964088
 20
1365.402969213839
 10
4114.682584964085
 20
1365.402969213839
 10
4114.682584964085
 20
1401.402969213843
 10
4164.682584964085
 20
1401.402969213843
 10
4164.682584964085
 20
1383.402969213841
 10
4146.682584964085
 20
1383.402969213841
 10
4146.682584964085
 20
1365.402969213839
 10
4182.682584964084
 20
1365.402969213839
 10
4182.682584964084
 20
1165.402969213839
 10
4146.682584964085
 20
1165.402969213839
 10
4146.682584964085
 20
1147.402969213837
 10
4164.682584964085
 20
1147.402969213837
 10
4164.682584964085
 20
1129.402969213835
 10
4114.682584964085
 20
1129.402969213835
 10
4114.682584964085
 20
1165.402969213839
  0
SPLINE
  5
1B4D
330
1F
100
AcDbEntity
  8
0
100
AcDbSpline
210
0.0
220
0.0
230
1.0
 70
    12
 71
     3
 72
   528
 73
   524
 74
     0
 42
0.000000001
 43
0.0000000001
 40
0.0
 40
0.0
 40
0.0
 40
0.0
 40
1.0
 40
1.0
 40
1.0
 40
2.0
 40
2.0
 40
2.0
 40
3.0
 40
3.0
 40
3.0
 40
4.0
 40
4.0
 40
4.0
 40
5.0
 40
5.0
 40
5.0
 40
6.0
 40
6.0
 40
6.0
 40
7.0
 40
7.0
 40
7.0
 40
8.0
 40
8.0
 40
8.0
 40
9.0
 40
9.0
 40
9.0
 40
10.0
 40
10.0
 40
10.0
 40
11.0
 40
11.0
 40
11.0
 40
12.0
 40
12.0
 40
12.0
 40
13.0
 40
13.0
 40
13.0
 40
14.0
 40
14.0
 40
14.0
 40
15.0
 40
15.0
 40
15.0
 40
16.0
 40
16.0
 40
16.0
 40
17.0
 40
17.0
 40
17.0
 40
18.0
 40
18.0
 40
18.0
 40
19.0
 40
19.0
 40
19.0
 40
20.0
 40
20.0
 40
20.0
 40
21.0
 40
21.0
 40
21.0
 40
22.0
 40
22.0
 40
22.0
 40
23.0
 40
23.0
 40
23.0
 40
24.0
 40
24.0
 40
24.0
 40
25.0
 40
25.0
 40
25.0
 40
26.0
 40
26.0
 40
26.0
 40
27.0
 40
27.0
 40
27.0
 40
28.0
 40
28.0
 40
28.0
 40
29.0
 40
29.0
 40
29.0
 40
30.0
 40
30.0
 40
30.0
 40
31.0
 40
31.0
 40
31.0
 40
32.0
 40
32.0
 40
32.0
 40
33.0
 40
33.0
 40
33.0
 40
34.0
 40
34.0
 40
34.0
 40
35.0
 40
35.0
 40
35.0
 40
36.0
 40
36.0
 40
36.0
 40
37.0
 40
37.0
 40
37.0
 40
38.0
 40
38.0
 40
38.0
 40
39.0
 40
39.0
 40
39.0
 40
40.0
 40
40.0
 40
40.0
 40
41.0
 40
41.0
 40
41.0
 40
42.0
 40
42.0
 40
42.0
 40
43.0
 40
43.0
 40
43.0
 40
44.0
 40
44.0
 40
44.0
 40
45.0
 40
45.0
 40
45.0
 40
46.0
 40
46.0
 40
46.0
 40
47.0
 40
47.0
 40
47.0
 40
48.0
 40
48.0
 40
48.0
 40
49.0
 40
49.0
 40
49.0
 40
50.0
 40
50.0
 40
50.0
 40
51.0
 40
51.0
 40
51.0
 40
52.0
 40
52.0
 40
52.0
 40
53.0
 40
53.0
 40
53.0
 40
54.0
 40
54.0
 40
54.0
 40
55.0
 40
55.0
 40
55.0
 40
55.41467417965058
 40
57.72388664492634
 40
59.82021081049317
 40
61.3905098483398
 40
62.75060911067967
 40
64.88488055868216
 40
64.88488055868216
 40
64.88488055868216
 40
66.85446927896295
 40
67.4667262316192
 40
67.4667262316192
 40
67.4667262316192
 40
71.61810696385292
 40
74.03643644979394
 40
79.01480751256004
 40
79.01480751256004
 40
79.01480751256004
 40
79.70672289827788
 40
80.88223436161783
 40
81.8193127041197
 40
82.00311535170508
 40
82.42719775194085
 40
82.65008529160288
 40
82.65008529160288
 40
82.65008529160288
 40
83.6194996546104
 40
83.6194996546104
 40
83.6194996546104
 40
84.58891401761793
 40
84.58891401761793
 40
84.58891401761793
 40
87.16879767688855
 40
94.12515899956654
 40
97.46096078121533
 40
99.84421698185871
 40
103.2993692780612
 40
106.5922918953856
 40
111.1531687406915
 40
114.6211668957757
 40
118.9369325256792
 40
120.9773449497681
 40
122.5537800537589
 40
124.6821044484011
 40
127.1441306383918
 40
128.7931664588093
 40
130.0209181701749
 40
132.0490730331076
 40
133.8138507913908
 40
134.102442221854
 40
134.7737190470244
 40
135.8408064241839
 40
136.429676489684
 40
137.4281656865943
 40
138.7757517695573
 40
139.4363580482634
 40
140.1558514534989
 40
140.7537504944681
 40
142.2489444686235
 40
144.087457359937
 40
144.5448030854966
 40
145.6482454383902
 40
146.3134632196058
 40
147.4377617295958
 40
148.8347135935915
 40
149.8216870663372
 40
150.4645571415482
 40
151.8903795493556
 40
152.2472641591162
 40
153.597746671769
 40
154.7038244044843
 40
155.8661536097963
 40
156.5090066616844
 40
158.7765394541891
 40
160.5537450397269
 40
163.8194470361483
 40
167.0075653488632
 40
167.4846370845858
 40
167.4846370845858
 40
167.4846370845858
 40
168.4846370845859
 40
168.4846370845859
 40
168.4846370845859
 40
169.4846370845858
 40
169.4846370845858
 40
169.4846370845858
 40
170.4846370845858
 40
170.4846370845858
 40
170.4846370845858
 40
171.9817689048818
 40
171.9817689048818
 40
171.9817689048818
 40
172.9817689048818
 40
172.9817689048818
 40
172.9817689048818
 40
173.9817689048818
 40
173.9817689048818
 40
173.9817689048818
 40
174.9817689048818
 40
174.9817689048818
 40
174.9817689048818
 40
176.0615818139823
 40
176.0615818139823
 40
176.0615818139823
 40
177.0615818139823
 40
177.0615818139823
 40
177.0615818139823
 40
178.0615818139823
 40
178.0615818139823
 40
178.0615818139823
 40
179.0615818139824
 40
179.0615818139824
 40
179.0615818139824
 40
180.4321232630956
 40
180.4321232630956
 40
180.4321232630956
 40
180.4448796331396
 40
180.4448796331396
 40
180.4448796331396
 40
180.4771002215647
 40
180.4771002215647
 40
180.4771002215647
 40
181.4771002215648
 40
181.4771002215648
 40
181.4771002215648
 40
182.4771002215648
 40
182.4771002215648
 40
182.4771002215648
 40
183.4771002215648
 40
183.4771002215648
 40
183.4771002215648
 40
183.6628453484185
 40
183.6628453484185
 40
183.6628453484185
 40
183.6890465241624
 40
183.6890465241624
 40
183.6890465241624
 40
185.1224706572277
 40
185.1224706572277
 40
185.1224706572277
 40
186.1224706572277
 40
186.1224706572277
 40
186.1224706572277
 40
187.1224706572277
 40
187.1224706572277
 40
187.1224706572277
 40
188.1224706572277
 40
188.1224706572277
 40
188.1224706572277
 40
188.2960052562798
 40
188.2960052562798
 40
188.2960052562798
 40
188.3312016944027
 40
188.3312016944027
 40
188.3312016944027
 40
189.483886573879
 40
189.483886573879
 40
189.483886573879
 40
190.4838865738789
 40
190.4838865738789
 40
190.4838865738789
 40
191.483886573879
 40
191.483886573879
 40
191.483886573879
 40
192.483886573879
 40
192.483886573879
 40
192.483886573879
 40
192.4935377811791
 40
192.4935377811791
 40
192.4935377811791
 40
192.5973414461076
 40
192.5973414461076
 40
192.5973414461076
 40
193.5552202693775
 40
195.1479610827126
 40
196.4099660188664
 40
198.6346513927335
 40
201.4760961405507
 40
206.2076120871704
 40
210.5923232121174
 40
212.4198116546076
 40
212.4198116546076
 40
212.4198116546076
 40
213.2301334952094
 40
214.42425510681
 40
214.42425510681
 40
214.42425510681
 40
214.8299432736325
 40
214.8377738437786
 40
214.8377738437786
 40
214.8377738437786
 40
215.8377738437786
 40
215.8377738437786
 40
215.8377738437786
 40
216.8377738437786
 40
216.8377738437786
 40
216.8377738437786
 40
217.8377738437786
 40
217.8377738437786
 40
217.8377738437786
 40
217.9627831433892
 40
217.9627831433892
 40
217.9627831433892
 40
218.9627831433892
 40
218.9627831433892
 40
218.9627831433892
 40
219.9627831433892
 40
219.9627831433892
 40
219.9627831433892
 40
220.9627831433892
 40
220.9627831433892
 40
220.9627831433892
 40
221.6216477948206
 40
222.4861861879247
 40
223.650508210277
 40
224.1933424110282
 40
224.4837563254622
 40
224.6043125054638
 40
224.6043125054638
 40
224.6043125054638
 40
225.6043125054638
 40
225.6043125054638
 40
225.6043125054638
 40
226.6043125054638
 40
226.6043125054638
 40
226.6043125054638
 40
227.6043125054638
 40
227.6043125054638
 40
227.6043125054638
 40
227.8407295996843
 40
227.8407295996843
 40
227.8407295996843
 40
228.8407295996843
 40
228.8407295996843
 40
228.8407295996843
 40
229.8407295996843
 40
229.8407295996843
 40
229.8407295996843
 40
230.8407295996843
 40
230.8407295996843
 40
230.8407295996843
 40
230.9222847708038
 40
230.9222847708038
 40
230.9222847708038
 40
231.9222847708037
 40
231.9222847708037
 40
231.9222847708037
 40
232.9222847708038
 40
232.9222847708038
 40
232.9222847708038
 40
233.9222847708037
 40
233.9222847708037
 40
233.9222847708037
 40
234.1057688169412
 40
234.1284021014896
 40
234.2875697762141
 40
234.2875697762141
 40
234.2875697762141
 40
235.2875697762141
 40
235.2875697762141
 40
235.2875697762141
 40
236.2875697762141
 40
236.2875697762141
 40
236.2875697762141
 40
237.2875697762141
 40
237.2875697762141
 40
237.2875697762141
 40
237.3512543616145
 40
237.9364981495654
 40
238.3595969250783
 40
238.8285597979
 40
239.0039141969365
 40
239.0980322667967
 40
239.1680184119362
 40
239.3409923867694
 40
239.6378181728079
 40
239.7921615620961
 40
239.8911193887801
 40
240.1127703688807
 40
240.2448137790454
 40
240.4148002587695
 40
240.5075747386835
 40
240.6658771941752
 40
240.918757675446
 40
241.3997031026053
 40
241.436211718832
 40
241.436211718832
 40
241.436211718832
 40
242.436211718832
 40
242.436211718832
 40
242.436211718832
 40
243.436211718832
 40
243.436211718832
 40
243.436211718832
 40
244.4362117188321
 40
244.4362117188321
 40
244.4362117188321
 40
245.436211718832
 40
245.436211718832
 40
245.436211718832
 40
246.4362117188321
 40
246.4362117188321
 40
246.4362117188321
 40
247.436211718832
 40
247.436211718832
 40
247.436211718832
 40
248.4362117188321
 40
248.4362117188321
 40
248.4362117188321
 40
248.5019206289202
 40
248.5019206289202
 40
248.5019206289202
 40
248.6518107330827
 40
249.1324270019123
 40
249.7896756624673
 40
252.0546799225771
 40
253.7146340883681
 40
255.1756404028188
 40
256.6887015515732
 40
257.7263879175415
 40
258.46378779065
 40
258.9215622598247
 40
259.3470263513729
 40
259.6991883859066
 40
260.3787829035833
 40
260.4899417011692
 40
260.5898447602539
 40
260.7417234298624
 40
260.8625968155874
 40
260.9514241317643
 40
261.1752600551203
 40
261.3064674761771
 40
261.4377015943771
 40
261.7747984516478
 40
261.9000739228532
 40
262.0211562292837
 40
262.5102976218551
 40
262.6942358246801
 40
262.9210426489605
 40
263.1490453286109
 40
263.4207925013311
 40
263.8337988128969
 40
264.2274924064385
 40
264.7231639722744
 40
265.0078552688507
 40
266.51459997789
 40
267.314214717722
 40
268.635226133707
 40
271.1103908340812
 40
272.4704900964211
 40
274.0407891342677
 40
276.1371132998345
 40
278.4463257651103
 40
278.6130404959806
 40
278.6130404959806
 40
278.6130404959806
 40
279.6130404959806
 40
279.6130404959806
 40
279.6130404959806
 40
279.6130404959806
 10
3231.391087145818
 20
-801.7487129164001
 30
0.0
 41
1.0
 10
3246.281691110042
 20
-809.4440300044206
 30
0.0
 41
1.0
 10
3261.172295074277
 20
-817.1393470924394
 30
0.0
 41
1.0
 10
3276.062899038512
 20
-824.8346641804745
 30
0.0
 41
1.0
 10
3278.7614469929
 20
-819.612915887621
 30
0.0
 41
1.0
 10
3281.459994947287
 20
-814.3911675947729
 30
0.0
 41
1.0
 10
3284.15854290167
 20
-809.169419301903
 30
0.0
 41
1.0
 10
3289.097010383939
 20
-799.0554925786473
 30
0.0
 41
1.0
 10
3294.035477866208
 20
-788.9415658553899
 30
0.0
 41
1.0
 10
3298.973945348455
 20
-778.8276391321232
 30
0.0
 41
1.0
 10
3303.61728032558
 20
-768.127023530611
 30
0.0
 41
1.0
 10
3308.260615302704
 20
-757.4264079291006
 30
0.0
 41
1.0
 10
3312.90395027983
 20
-746.7257923276065
 30
0.0
 41
1.0
 10
3318.174372794511
 20
-733.2879969889764
 30
0.0
 41
1.0
 10
3323.444795309192
 20
-719.8502016503425
 30
0.0
 41
1.0
 10
3328.715217823861
 20
-706.4124063117069
 30
0.0
 41
1.0
 10
3334.496420951382
 20
-692.9469965050648
 30
0.0
 41
1.0
 10
3340.277624078892
 20
-679.4815866984245
 30
0.0
 41
1.0
 10
3346.058827206402
 20
-666.0161768917678
 30
0.0
 41
1.0
 10
3354.577711524878
 20
-649.708997796557
 30
0.0
 41
1.0
 10
3363.096595843348
 20
-633.4018187013444
 30
0.0
 41
1.0
 10
3371.615480161825
 20
-617.0946396061408
 30
0.0
 41
1.0
 10
3379.817642754399
 20
-602.5201583973794
 30
0.0
 41
1.0
 10
3388.019805346972
 20
-587.9456771886143
 30
0.0
 41
1.0
 10
3396.221967939542
 20
-573.371195979862
 30
0.0
 41
1.0
 10
3406.470939972405
 20
-554.3578286949341
 30
0.0
 41
1.0
 10
3416.719912005265
 20
-535.3444614100044
 30
0.0
 41
1.0
 10
3426.968884038124
 20
-516.3310941250838
 30
0.0
 41
1.0
 10
3435.761915251857
 20
-500.435577702925
 30
0.0
 41
1.0
 10
3444.554946465586
 20
-484.5400612807698
 30
0.0
 41
1.0
 10
3453.347977679307
 20
-468.6445448586055
 30
0.0
 41
1.0
 10
3456.078612992115
 20
-463.3234893314274
 30
0.0
 41
1.0
 10
3458.809248304915
 20
-458.002433804253
 30
0.0
 41
1.0
 10
3461.539883617727
 20
-452.6813782770768
 30
0.0
 41
1.0
 10
3464.255835308551
 20
-446.6475781209338
 30
0.0
 41
1.0
 10
3466.971786999377
 20
-440.6137779647906
 30
0.0
 41
1.0
 10
3469.687738690187
 20
-434.5799778086493
 30
0.0
 41
1.0
 10
3472.989828897207
 20
-426.7631569908244
 30
0.0
 41
1.0
 10
3476.291919104235
 20
-418.9463361730012
 30
0.0
 41
1.0
 10
3479.594009311251
 20
-411.1295153551745
 30
0.0
 41
1.0
 10
3495.117636903029
 20
-379.7936522850432
 30
0.0
 41
1.0
 10
3510.641264494811
 20
-348.4577892149137
 30
0.0
 41
1.0
 10
3526.164892086592
 20
-317.1219261447786
 30
0.0
 41
1.0
 10
3534.369377871267
 20
-301.3475671734413
 30
0.0
 41
1.0
 10
3542.573863655937
 20
-285.5732082021004
 30
0.0
 41
1.0
 10
3550.778349440614
 20
-269.7988492307632
 30
0.0
 41
1.0
 10
3558.228841166715
 20
-257.2462339451377
 30
0.0
 41
1.0
 10
3565.679332892815
 20
-244.6936186595122
 30
0.0
 41
1.0
 10
3573.129824618922
 20
-232.1410033738812
 30
0.0
 41
1.0
 10
3578.791821200109
 20
-225.2266897921963
 30
0.0
 41
1.0
 10
3584.45381778129
 20
-218.3123762105042
 30
0.0
 41
1.0
 10
3590.115814362467
 20
-211.3980626288157
 30
0.0
 41
1.0
 10
3591.88984140426
 20
-210.2307860622604
 30
0.0
 41
1.0
 10
3593.663868446067
 20
-209.0635094957051
 30
0.0
 41
1.0
 10
3595.437895487863
 20
-207.8962329291408
 30
0.0
 41
1.0
 10
3597.23623324863
 20
-207.7348682920128
 30
0.0
 41
1.0
 10
3599.03457100939
 20
-207.5735036548867
 30
0.0
 41
1.0
 10
3600.832908770164
 20
-207.4121390177643
 30
0.0
 41
1.0
 10
3601.915303166545
 20
-208.1226442611478
 30
0.0
 41
1.0
 10
3602.997697562929
 20
-208.8331495045277
 30
0.0
 41
1.0
 10
3604.080091959306
 20
-209.5436547479094
 30
0.0
 41
1.0
 10
3605.027524656583
 20
-209.8729547646071
 30
0.0
 41
1.0
 10
3605.974957353835
 20
-210.2022547813085
 30
0.0
 41
1.0
 10
3606.922390051091
 20
-210.5315547980081
 30
0.0
 41
1.0
 10
3607.568765381893
 20
-211.3362104737698
 30
0.0
 41
1.0
 10
3608.215140712702
 20
-212.1408661495261
 30
0.0
 41
1.0
 10
3608.861516043515
 20
-212.9455218252806
 30
0.0
 41
1.0
 10
3609.05453153298
 20
-215.0141328536884
 30
0.0
 41
1.0
 10
3609.247547022456
 20
-217.0827438820925
 30
0.0
 41
1.0
 10
3609.440562511933
 20
-219.1513549104966
 30
0.0
 41
1.0
 10
3608.56101021585
 20
-222.7043262546577
 30
0.0
 41
1.0
 10
3607.681457919782
 20
-226.2572975988151
 30
0.0
 41
1.0
 10
3606.801905623699
 20
-229.8102689429725
 30
0.0
 41
1.0
 10
3604.597792781115
 20
-235.0437312662198
 30
0.0
 41
1.0
 10
3602.393679938523
 20
-240.2771935894671
 30
0.0
 41
1.0
 10
3600.189567095938
 20
-245.510655912718
 30
0.0
 41
1.0
 10
3596.759520780583
 20
-252.1284383840393
 30
0.0
 41
1.0
 10
3593.329474465216
 20
-258.746220855377
 30
0.0
 41
1.0
 10
3589.899428149864
 20
-265.3640033267111
 30
0.0
 41
1.0
 10
3585.942199064772
 20
-272.2782549092153
 30
0.0
 41
1.0
 10
3581.984969979683
 20
-279.1925064917268
 30
0.0
 41
1.0
 10
3578.027740894595
 20
-286.1067580742256
 30
0.0
 41
1.0
 10
3573.888234686656
 20
-292.9941904013649
 30
0.0
 41
1.0
 10
3569.748728478728
 20
-299.8816227285079
 30
0.0
 41
1.0
 10
3565.609222270789
 20
-306.7690550556472
 30
0.0
 41
1.0
 10
3562.741788760756
 20
-311.4463627124351
 30
0.0
 41
1.0
 10
3559.874355250719
 20
-316.1236703692211
 30
0.0
 41
1.0
 10
3557.006921740696
 20
-320.8009780260163
 30
0.0
 41
1.0
 10
3552.633002870218
 20
-327.9166034143582
 30
0.0
 41
1.0
 10
3548.259083999746
 20
-335.0322288027037
 30
0.0
 41
1.0
 10
3543.88516512929
 20
-342.1478541910583
 30
0.0
 41
1.0
 10
3538.489786701318
 20
-351.2220686726378
 30
0.0
 41
1.0
 10
3533.094408273352
 20
-360.2962831542172
 30
0.0
 41
1.0
 10
3527.699029845378
 20
-369.3704976358022
 30
0.0
 41
1.0
 10
3524.308726168722
 20
-375.4885318875858
 30
0.0
 41
1.0
 10
3520.918422492058
 20
-381.6065661393786
 30
0.0
 41
1.0
 10
3517.528118815401
 20
-387.7246003911641
 30
0.0
 41
1.0
 10
3513.434974444197
 20
-395.533256337334
 30
0.0
 41
1.0
 10
3509.341830072987
 20
-403.3419122835075
 30
0.0
 41
1.0
 10
3505.248685701801
 20
-411.1505682296774
 30
0.0
 41
1.0
 10
3501.090578918498
 20
-419.2162599536186
 30
0.0
 41
1.0
 10
3496.93247213521
 20
-427.281951677558
 30
0.0
 41
1.0
 10
3492.774365351917
 20
-435.3476434015028
 30
0.0
 41
1.0
 10
3490.059123269315
 20
-441.0364123255349
 30
0.0
 41
1.0
 10
3487.343881186705
 20
-446.7251812495669
 30
0.0
 41
1.0
 10
3484.628639104096
 20
-452.4139501736008
 30
0.0
 41
1.0
 10
3482.597126141016
 20
-457.3272265387386
 30
0.0
 41
1.0
 10
3480.565613177922
 20
-462.2405029038782
 30
0.0
 41
1.0
 10
3478.534100214831
 20
-467.1537792690141
 30
0.0
 41
1.0
 10
3476.816634046969
 20
-472.025409283704
 30
0.0
 41
1.0
 10
3475.099167879103
 20
-476.8970392983865
 30
0.0
 41
1.0
 10
3473.381701711235
 20
-481.7686693130744
 30
0.0
 41
1.0
 10
3471.408041560371
 20
-487.6935424861057
 30
0.0
 41
1.0
 10
3469.434381409501
 20
-493.6184156591389
 30
0.0
 41
1.0
 10
3467.460721258631
 20
-499.5432888321702
 30
0.0
 41
1.0
 10
3464.847571669049
 20
-506.4743408557497
 30
0.0
 41
1.0
 10
3462.234422079466
 20
-513.4053928793291
 30
0.0
 41
1.0
 10
3459.621272489883
 20
-520.336444902905
 30
0.0
 41
1.0
 10
3456.625260034093
 20
-527.079197505267
 30
0.0
 41
1.0
 10
3453.629247578294
 20
-533.8219501076364
 30
0.0
 41
1.0
 10
3450.633235122492
 20
-540.5647027099985
 30
0.0
 41
1.0
 10
3445.86413101809
 20
-550.3730962633762
 30
0.0
 41
1.0
 10
3441.095026913688
 20
-560.1814898167503
 30
0.0
 41
1.0
 10
3436.325922809283
 20
-569.989883370139
 30
0.0
 41
1.0
 10
3431.734120040303
 20
-579.5297709539627
 30
0.0
 41
1.0
 10
3427.142317271311
 20
-589.0696585377936
 30
0.0
 41
1.0
 10
3422.550514502331
 20
-598.6095461216137
 30
0.0
 41
1.0
 10
3419.808451911347
 20
-604.4393408014275
 30
0.0
 41
1.0
 10
3417.06638932036
 20
-610.2691354812359
 30
0.0
 41
1.0
 10
3414.324326729373
 20
-616.0989301610461
 30
0.0
 41
1.0
 10
3410.090035206187
 20
-624.9909802514339
 30
0.0
 41
1.0
 10
3405.855743682998
 20
-633.8830303418235
 30
0.0
 41
1.0
 10
3401.621452159812
 20
-642.775080432224
 30
0.0
 41
1.0
 10
3398.313242921748
 20
-649.412834362025
 30
0.0
 41
1.0
 10
3395.005033683661
 20
-656.0505882918333
 30
0.0
 41
1.0
 10
3391.696824445582
 20
-662.688342221636
 30
0.0
 41
1.0
 10
3388.234755754918
 20
-669.1873878881415
 30
0.0
 41
1.0
 10
3384.772687064248
 20
-675.6864335546433
 30
0.0
 41
1.0
 10
3381.31061837358
 20
-682.1854792211397
 30
0.0
 41
1.0
 10
3378.054572680561
 20
-687.8118108456455
 30
0.0
 41
1.0
 10
3374.798526987547
 20
-693.4381424701532
 30
0.0
 41
1.0
 10
3371.542481294535
 20
-699.0644740946627
 30
0.0
 41
1.0
 10
3368.851884254709
 20
-703.3914830838439
 30
0.0
 41
1.0
 10
3366.161287214894
 20
-707.7184920730233
 30
0.0
 41
1.0
 10
3363.470690175069
 20
-712.0455010622118
 30
0.0
 41
1.0
 10
3359.226451850984
 20
-718.5600979920581
 30
0.0
 41
1.0
 10
3354.982213526888
 20
-725.0746949219046
 30
0.0
 41
1.0
 10
3350.737975202803
 20
-731.5892918517456
 30
0.0
 41
1.0
 10
3344.43556417822
 20
-741.2413432084813
 30
0.0
 41
1.0
 10
3338.133153153627
 20
-750.893394565217
 30
0.0
 41
1.0
 10
3331.830742129038
 20
-760.545445921949
 30
0.0
 41
1.0
 10
3326.373001909531
 20
-769.5734763492291
 30
0.0
 41
1.0
 10
3320.915261690036
 20
-778.6015067765074
 30
0.0
 41
1.0
 10
3315.457521470533
 20
-787.6295372037966
 30
0.0
 41
1.0
 10
3309.760886494129
 20
-797.0672595209235
 30
0.0
 41
1.0
 10
3304.064251517717
 20
-806.5049818380503
 30
0.0
 41
1.0
 10
3298.367616541309
 20
-815.942704155177
 30
0.0
 41
1.0
 10
3295.591598783423
 20
-821.3143581828862
 30
0.0
 41
1.0
 10
3292.815581025538
 20
-826.6860122105972
 30
0.0
 41
1.0
 10
3290.039563267641
 20
-832.0576662382991
 30
0.0
 41
1.0
 10
3304.930167231873
 20
-839.7529833263215
 30
0.0
 41
1.0
 10
3319.820771196108
 20
-847.4483004143475
 30
0.0
 41
1.0
 10
3334.711375160343
 20
-855.1436175023718
 30
0.0
 41
1.0
 10
3337.466014873404
 20
-849.8133304508847
 30
0.0
 41
1.0
 10
3340.220654586461
 20
-844.4830433993994
 30
0.0
 41
1.0
 10
3342.975294299523
 20
-839.1527563479231
 30
0.0
 41
1.0
 10
3345.692523914433
 20
-834.7943684835717
 30
0.0
 41
1.0
 10
3376.988736154239
 20
-790.6749793790168
 30
0.0
 41
1.0
 10
3474.560760015549
 20
-720.3861554109971
 30
0.0
 41
1.0
 10
3534.374378041782
 20
-584.9169553362171
 30
0.0
 41
1.0
 10
3593.268169173465
 20
-479.2375069604276
 30
0.0
 41
1.0
 10
3684.466693281346
 20
-388.6604135895414
 30
0.0
 41
1.0
 10
3735.500067978166
 20
-345.3729250159668
 30
0.0
 41
1.0
 10
3767.801182135958
 20
-293.6339205278564
 30
0.0
 41
1.0
 10
3791.80240885001
 20
-252.8345746962859
 30
0.0
 41
1.0
 10
3806.38971492133
 20
-188.0818695278685
 30
0.0
 41
1.0
 10
3821.288904452089
 20
-127.7902078090846
 30
0.0
 41
1.0
 10
3824.861255911943
 20
-113.5449896685413
 30
0.0
 41
1.0
 10
3807.953704033153
 20
-114.3168439899818
 30
0.0
 41
1.0
 10
3781.196891418993
 20
-115.5383313816637
 30
0.0
 41
1.0
 10
3780.192624436648
 20
-63.03846038758274
 30
0.0
 41
1.0
 10
3812.163891226719
 20
-72.41419738382865
 30
0.0
 41
1.0
 10
3833.682246387875
 20
-78.72456474924366
 30
0.0
 41
1.0
 10
3837.807734066159
 20
-62.57331781070934
 30
0.0
 41
1.0
 10
3849.137863734632
 20
-18.60499506512769
 30
0.0
 41
1.0
 10
3867.28842407437
 20
52.09129375108751
 30
0.0
 41
1.0
 10
3888.056202182081
 20
121.7071750638897
 30
0.0
 41
1.0
 10
3894.3512522003
 20
122.9841581549226
 30
0.0
 41
1.0
 10
3894.3512522003
 20
122.9841581549226
 30
0.0
 41
1.0
 10
3894.3512522003
 20
122.9841581549226
 30
0.0
 41
1.0
 10
3894.3512522003
 20
122.9841581549226
 30
0.0
 41
1.0
 10
3896.34954572485
 20
123.2713662586247
 30
0.0
 41
0.9232076170734192
 10
3898.251483079174
 20
122.5943878207663
 30
0.0
 41
0.9232076170734192
 10
3899.618901358419
 20
121.1091832036654
 30
0.0
 41
1.0
 10
3900.986319637672
 20
119.62397858656
 30
0.0
 41
0.9232076170734192
 10
3901.504196917478
 20
117.6727049952569
 30
0.0
 41
0.9232076170734192
 10
3901.053226106721
 20
115.7048912762566
 30
0.0
 41
1.0
 10
3892.182266975113
 20
79.58169221410026
 30
0.0
 41
1.0
 10
3900.777081388766
 20
45.29353796600481
 30
0.0
 41
1.0
 10
3895.261739313511
 20
3.397830483885627
 30
0.0
 41
1.0
 10
3903.545513255315
 20
-36.88257120776143
 30
0.0
 41
1.0
 10
3908.390717463447
 20
-71.02407285586924
 30
0.0
 41
1.0
 10
3945.04983618304
 20
-73.29726703829329
 30
0.0
 41
1.0
 10
3978.85474662538
 20
-86.10940477831718
 30
0.0
 41
1.0
 10
4016.621279640159
 20
-93.17057980473419
 30
0.0
 41
1.0
 10
4057.24474975435
 20
-99.07088267396193
 30
0.0
 41
1.0
 10
4089.493995463072
 20
-103.6515014033575
 30
0.0
 41
1.0
 10
4115.634872411504
 20
-110.3387613964114
 30
0.0
 41
1.0
 10
4130.324005712766
 20
-123.5117208048295
 30
0.0
 41
1.0
 10
4140.472132089242
 20
-141.234381279035
 30
0.0
 41
1.0
 10
4147.464630377505
 20
-162.4419606323072
 30
0.0
 41
1.0
 10
4161.613879620748
 20
-174.4723899393821
 30
0.0
 41
1.0
 10
4170.173141164934
 20
-186.0231880590472
 30
0.0
 41
1.0
 10
4183.610899866562
 20
-197.531289374223
 30
0.0
 41
1.0
 10
4196.175896006731
 20
-202.9346780088235
 30
0.0
 41
1.0
 10
4200.857066931138
 20
-203.7960759882353
 30
0.0
 41
1.0
 10
4205.037832276299
 20
-205.1966270508419
 30
0.0
 41
1.0
 10
4206.296168638629
 20
-202.6873229988214
 30
0.0
 41
1.0
 10
4209.465305970774
 20
-202.0195782991923
 30
0.0
 41
1.0
 10
4213.822881863637
 20
-202.8903368108622
 30
0.0
 41
1.0
 10
4226.712541541593
 20
-215.9393538550885
 30
0.0
 41
1.0
 10
4226.474666511815
 20
-203.1060487977775
 30
0.0
 41
1.0
 10
4222.277782927514
 20
-198.515763464633
 30
0.0
 41
1.0
 10
4219.969581163179
 20
-188.5006390633007
 30
0.0
 41
1.0
 10
4208.64585310208
 20
-186.3062739039123
 30
0.0
 41
1.0
 10
4184.001077257675
 20
-176.78978608943
 30
0.0
 41
1.0
 10
4198.341143851627
 20
-176.3527103632696
 30
0.0
 41
1.0
 10
4203.0320090575
 20
-172.5947583384259
 30
0.0
 41
1.0
 10
4217.144712040146
 20
-173.4382532697145
 30
0.0
 41
1.0
 10
4201.473434447627
 20
-164.2526920116624
 30
0.0
 41
1.0
 10
4192.583393210603
 20
-167.935553484348
 30
0.0
 41
1.0
 10
4180.995688902163
 20
-166.4591095230844
 30
0.0
 41
1.0
 10
4175.413848182608
 20
-157.3048858136681
 30
0.0
 41
1.0
 10
4172.413203988344
 20
-150.5360378219993
 30
0.0
 41
1.0
 10
4172.805199951683
 20
-137.8076495042869
 30
0.0
 41
1.0
 10
4185.079775720725
 20
-148.235462088578
 30
0.0
 41
1.0
 10
4189.755591749196
 20
-152.8727944261063
 30
0.0
 41
1.0
 10
4201.140916396151
 20
-153.9920975034238
 30
0.0
 41
1.0
 10
4202.127575253518
 20
-146.8777865399515
 30
0.0
 41
1.0
 10
4188.919798070027
 20
-138.1086987527142
 30
0.0
 41
1.0
 10
4173.871604289689
 20
-118.9415827983484
 30
0.0
 41
1.0
 10
4161.679131907931
 20
-92.08501989336765
 30
0.0
 41
1.0
 10
4137.624630222304
 20
-86.518127035848
 30
0.0
 41
1.0
 10
4125.588877138536
 20
-83.00856877364457
 30
0.0
 41
1.0
 10
4124.032541436794
 20
-82.54304656703698
 30
0.0
 41
1.0
 10
4122.782318106263
 20
-88.34376414228064
 30
0.0
 41
1.0
 10
4121.532094775728
 20
-94.14448171753065
 30
0.0
 41
1.0
 10
4120.281871445197
 20
-99.94519929277885
 30
0.0
 41
1.0
 10
4116.304718021547
 20
-99.08800706873808
 30
0.0
 41
1.0
 10
4112.327564597901
 20
-98.23081484469732
 30
0.0
 41
1.0
 10
4108.350411174255
 20
-97.37362262066108
 30
0.0
 41
1.0
 10
4109.734594702218
 20
-91.21322090342165
 30
0.0
 41
1.0
 10
4111.118778230186
 20
-85.05281918617766
 30
0.0
 41
1.0
 10
4112.502961758149
 20
-78.89241746893458
 30
0.0
 41
1.0
 10
4107.754330036667
 20
-77.31181516974174
 30
0.0
 41
1.0
 10
4103.07407896787
 20
-75.66707750436217
 30
0.0
 41
1.0
 10
4098.421157669309
 20
-73.98527624248527
 30
0.0
 41
1.0
 10
4097.17093433877
 20
-79.78599381773438
 30
0.0
 41
1.0
 10
4095.920711008239
 20
-85.58671139298803
 30
0.0
 41
1.0
 10
4094.670487677704
 20
-91.38742896822805
 30
0.0
 41
1.0
 10
4090.693334254058
 20
-90.53023674418728
 30
0.0
 41
1.0
 10
4086.716180830404
 20
-89.67304452015287
 30
0.0
 41
1.0
 10
4082.739027406755
 20
-88.81585229611118
 30
0.0
 41
1.0
 10
4084.163960389604
 20
-82.47409239421358
 30
0.0
 41
1.0
 10
4085.58889337246
 20
-76.13233249232507
 30
0.0
 41
1.0
 10
4087.013826355316
 20
-69.79057259043656
 30
0.0
 41
1.0
 10
4083.670309287507
 20
-68.54686393725024
 30
0.0
 41
1.0
 10
4080.323508052977
 20
-67.29541608598629
 30
0.0
 41
1.0
 10
4076.958020268674
 20
-66.04638642525879
 30
0.0
 41
1.0
 10
4075.707796938131
 20
-71.84710400050789
 30
0.0
 41
1.0
 10
4074.457573607608
 20
-77.64782157575609
 30
0.0
 41
1.0
 10
4073.207350277072
 20
-83.44853915100157
 30
0.0
 41
1.0
 10
4069.230196853419
 20
-82.59134692696534
 30
0.0
 41
1.0
 10
4065.253043429769
 20
-81.73415470292002
 30
0.0
 41
1.0
 10
4061.275890006112
 20
-80.87696247888107
 30
0.0
 41
1.0
 10
4062.700817631426
 20
-74.53522642106509
 30
0.0
 41
1.0
 10
4064.125745256744
 20
-68.19349036325366
 30
0.0
 41
1.0
 10
4065.550672882062
 20
-61.85175430544223
 30
0.0
 41
1.0
 10
4061.226676897971
 20
-60.26946448805574
 30
0.0
 41
1.0
 10
4056.887206668991
 20
-58.67808637535654
 30
0.0
 41
1.0
 10
4052.565334583563
 20
-57.05085917001088
 30
0.0
 41
1.0
 10
4052.525108584083
 20
-57.0357136868879
 30
0.0
 41
1.0
 10
4052.484884109151
 20
-57.02056509816429
 30
0.0
 41
1.0
 10
4052.444659634213
 20
-57.00541650943342
 30
0.0
 41
1.0
 10
4052.343058924372
 20
-56.96715355209199
 30
0.0
 41
1.0
 10
4052.241458214517
 20
-56.92889059475419
 30
0.0
 41
1.0
 10
4052.139857504676
 20
-56.89062763741549
 30
0.0
 41
1.0
 10
4050.889332045379
 20
-62.69274701310951
 30
0.0
 41
1.0
 10
4049.638806586088
 20
-68.49486638880808
 30
0.0
 41
1.0
 10
4048.388281126801
 20
-74.29698576450665
 30
0.0
 41
1.0
 10
4044.411127703148
 20
-73.43979354046496
 30
0.0
 41
1.0
 10
4040.433974279494
 20
-72.5826013164251
 30
0.0
 41
1.0
 10
4036.456820855845
 20
-71.72540909239433
 30
0.0
 41
1.0
 10
4037.89700516123
 20
-65.31577215567995
 30
0.0
 41
1.0
 10
4039.337189466616
 20
-58.90613521896558
 30
0.0
 41
1.0
 10
4040.777373772002
 20
-52.49649828224665
 30
0.0
 41
1.0
 10
4040.201256571421
 20
-52.26217762571469
 30
0.0
 41
1.0
 10
4039.625139370841
 20
-52.02785696919637
 30
0.0
 41
1.0
 10
4039.04902217026
 20
-51.79353631265803
 30
0.0
 41
1.0
 10
4038.967755176734
 20
-51.76048308103054
 30
0.0
 41
1.0
 10
4038.886488183208
 20
-51.72742984940123
 30
0.0
 41
1.0
 10
4038.805240138656
 20
-51.69435338736821
 30
0.0
 41
1.0
 10
4034.360290455293
 20
-49.8847934124924
 30
0.0
 41
1.0
 10
4029.972055194561
 20
-48.00570464279735
 30
0.0
 41
1.0
 10
4025.678371049584
 20
-46.02647120426536
 30
0.0
 41
1.0
 10
4024.428147719048
 20
-51.82718877951447
 30
0.0
 41
1.0
 10
4023.177924388518
 20
-57.62790635476722
 30
0.0
 41
1.0
 10
4021.92770105799
 20
-63.42862393001087
 30
0.0
 41
1.0
 10
4017.950547634336
 20
-62.57143170597647
 30
0.0
 41
1.0
 10
4013.97339421069
 20
-61.71423948193478
 30
0.0
 41
1.0
 10
4009.996240787033
 20
-60.85704725789037
 30
0.0
 41
1.0
 10
4011.517831536486
 20
-54.0851054766972
 30
0.0
 41
1.0
 10
4013.039422285951
 20
-47.31316369549858
 30
0.0
 41
1.0
 10
4014.561013035399
 20
-40.54122191430542
 30
0.0
 41
1.0
 10
4014.067933648664
 20
-40.2741123934502
 30
0.0
 41
1.0
 10
4013.574854261929
 20
-40.0070028725886
 30
0.0
 41
1.0
 10
4013.081774875183
 20
-39.73989335173064
 30
0.0
 41
1.0
 10
4012.981768085647
 20
-39.68571796668857
 30
0.0
 41
1.0
 10
4012.881761296113
 20
-39.63154258163377
 30
0.0
 41
1.0
 10
4012.781802419584
 20
-39.57731256122861
 30
0.0
 41
1.0
 10
4009.508144865409
 20
-37.8012770340074
 30
0.0
 41
1.0
 10
4006.28587714829
 20
-35.96664151354526
 30
0.0
 41
1.0
 10
4003.003209476315
 20
-34.15733571004512
 30
0.0
 41
1.0
 10
4001.75298614578
 20
-39.95805328529332
 30
0.0
 41
1.0
 10
4000.502762815257
 20
-45.75877086053696
 30
0.0
 41
1.0
 10
3999.252539484722
 20
-51.55948843578608
 30
0.0
 41
1.0
 10
3995.275386061069
 20
-50.70229621174622
 30
0.0
 41
1.0
 10
3991.298232637426
 20
-49.84510398770908
 30
0.0
 41
1.0
 10
3987.321079213773
 20
-48.98791176366467
 30
0.0
 41
1.0
 10
3988.859283562572
 20
-42.14203004322917
 30
0.0
 41
1.0
 10
3990.397487911374
 20
-35.29614832279731
 30
0.0
 41
1.0
 10
3991.935692260184
 20
-28.45026660235635
 30
0.0
 41
1.0
 10
3991.905836237427
 20
-28.43651516205046
 30
0.0
 41
1.0
 10
3991.875980214675
 20
-28.42276372175002
 30
0.0
 41
1.0
 10
3991.846124191925
 20
-28.40901228144139
 30
0.0
 41
1.0
 10
3991.525007414974
 20
-28.26110851588055
 30
0.0
 41
1.0
 10
3991.203890638029
 20
-28.11320475032335
 30
0.0
 41
1.0
 10
3990.881208755655
 20
-27.96631370168143
 30
0.0
 41
1.0
 10
3987.903566858455
 20
-26.61083338295521
 30
0.0
 41
1.0
 10
3979.619890224574
 20
-23.23111371539198
 30
0.0
 41
1.0
 10
3965.145178481224
 20
-19.60359796959255
 30
0.0
 41
1.0
 10
3965.957544947825
 20
-0.3109857656963868
 30
0.0
 41
1.0
 10
3966.875385503179
 20
19.91907762246228
 30
0.0
 41
1.0
 10
3980.426350277161
 20
50.72359127536583
 30
0.0
 41
1.0
 10
3976.307437618121
 20
92.66102269718613
 30
0.0
 41
1.0
 10
3994.755757303229
 20
123.0283378013537
 30
0.0
 41
1.0
 10
4002.331093724034
 20
143.4340832926264
 30
0.0
 41
1.0
 10
4004.234817559099
 20
151.3478098331143
 30
0.0
 41
1.0
 10
4017.401050031305
 20
216.0372023946156
 30
0.0
 41
1.0
 10
4018.278705025674
 20
262.2097511412658
 30
0.0
 41
1.0
 10
3979.638118438914
 20
297.2861262270399
 30
0.0
 41
1.0
 10
3957.264114049329
 20
318.354172750157
 30
0.0
 41
1.0
 10
3918.203324696849
 20
343.8221845105245
 30
0.0
 41
1.0
 10
3913.377391915037
 20
353.1901150883223
 30
0.0
 41
1.0
 10
3910.560620947588
 20
363.7122436090194
 30
0.0
 41
1.0
 10
3910.50801354327
 20
363.9118843568158
 30
0.0
 41
1.0
 10
3899.314600665173
 20
364.9299139576369
 30
0.0
 41
1.0
 10
3888.121187787092
 20
365.9479435584517
 30
0.0
 41
1.0
 10
3876.927774909015
 20
366.9659731592647
 30
0.0
 41
1.0
 10
3877.871462615335
 20
371.9189978754057
 30
0.0
 41
1.0
 10
3878.815150321658
 20
376.8720225915449
 30
0.0
 41
1.0
 10
3879.758838027974
 20
381.8250473076842
 30
0.0
 41
1.0
 10
3889.211920748614
 20
380.9635005260425
 30
0.0
 41
1.0
 10
3898.665003469254
 20
380.1019537443945
 30
0.0
 41
1.0
 10
3908.11808618988
 20
379.2404069627555
 30
0.0
 41
1.0
 10
3907.980379540127
 20
382.4913292654191
 30
0.0
 41
1.0
 10
3908.104073924038
 20
385.6837828413436
 30
0.0
 41
1.0
 10
3908.536894147274
 20
388.7171774509225
 30
0.0
 41
1.0
 10
3900.917545109773
 20
390.3478675316856
 30
0.0
 41
1.0
 10
3893.298196072276
 20
391.9785576124614
 30
0.0
 41
1.0
 10
3885.678847034771
 20
393.6092476932336
 30
0.0
 41
1.0
 10
3886.622534741098
 20
398.5622724093737
 30
0.0
 41
1.0
 10
3887.566222447418
 20
403.5152971255229
 30
0.0
 41
1.0
 10
3888.509910153738
 20
408.4683218416612
 30
0.0
 41
1.0
 10
3897.962992874374
 20
407.6067750600186
 30
0.0
 41
1.0
 10
3907.416075595018
 20
406.7452282783715
 30
0.0
 41
1.0
 10
3916.869158315651
 20
405.8836814967344
 30
0.0
 41
1.0
 10
3927.545665628957
 20
415.7416402655199
 30
0.0
 41
1.0
 10
3972.706271368417
 20
421.7888381921348
 30
0.0
 41
1.0
 10
4004.858689149983
 20
479.2538822498508
 30
0.0
 41
1.0
 10
4037.118418067818
 20
545.5858019262177
 30
0.0
 41
1.0
 10
4003.798142901654
 20
584.6196899387778
 30
0.0
 41
1.0
 10
3995.617406548834
 20
607.4102104453795
 30
0.0
 41
1.0
 10
3987.995085513412
 20
613.2795906033352
 30
0.0
 41
1.0
 10
3985.528912758524
 20
614.7782737030657
 30
0.0
 41
1.0
 10
3983.701090762399
 20
604.3386691897667
 30
0.0
 41
1.0
 10
3981.873268766267
 20
593.8990646764632
 30
0.0
 41
1.0
 10
3980.045446770135
 20
583.4594601631825
 30
0.0
 41
1.0
 10
3974.811437893932
 20
584.3758585324521
 30
0.0
 41
1.0
 10
3969.577429017747
 20
585.2922569017282
 30
0.0
 41
1.0
 10
3964.343420141551
 20
586.2086552709952
 30
0.0
 41
1.0
 10
3966.270268479814
 20
598.0035471817282
 30
0.0
 41
1.0
 10
3968.197116818087
 20
609.798439092462
 30
0.0
 41
1.0
 10
3970.123965156352
 20
621.5933310031869
 30
0.0
 41
1.0
 10
3965.866063951904
 20
623.1343728124593
 30
0.0
 41
1.0
 10
3961.034844861391
 20
624.729799673657
 30
0.0
 41
1.0
 10
3954.136809807027
 20
626.5212851198221
 30
0.0
 41
1.0
 10
3952.308987810895
 20
616.0816806065159
 30
0.0
 41
1.0
 10
3950.48116581477
 20
605.6420760932215
 30
0.0
 41
1.0
 10
3948.653343818642
 20
595.2024715799234
 30
0.0
 41
1.0
 10
3943.419334942439
 20
596.1188699492113
 30
0.0
 41
1.0
 10
3938.185326066239
 20
597.035268318481
 30
0.0
 41
1.0
 10
3932.951317190044
 20
597.9516666877607
 30
0.0
 41
1.0
 10
3934.707293991021
 20
608.7005959905281
 30
0.0
 41
1.0
 10
3936.463270791992
 20
619.4495252933066
 30
0.0
 41
1.0
 10
3938.219247592967
 20
630.1984545960785
 30
0.0
 41
1.0
 10
3934.928252642702
 20
630.8935601511148
 30
0.0
 41
1.0
 10
3931.503387228262
 20
631.5912148006646
 30
0.0
 41
1.0
 10
3928.128089866801
 20
632.2629981448299
 30
0.0
 41
1.0
 10
3926.300267870673
 20
621.8233936315355
 30
0.0
 41
1.0
 10
3924.472445874552
 20
611.383789118242
 30
0.0
 41
1.0
 10
3922.644623878415
 20
600.9441846049485
 30
0.0
 41
1.0
 10
3917.41061500222
 20
601.8605829742227
 30
0.0
 41
1.0
 10
3912.176606126021
 20
602.7769813434933
 30
0.0
 41
1.0
 10
3906.942597249825
 20
603.6933797127731
 30
0.0
 41
1.0
 10
3908.666420910332
 20
614.2454887423573
 30
0.0
 41
1.0
 10
3910.390244570848
 20
624.797597771937
 30
0.0
 41
1.0
 10
3912.11406823136
 20
635.3497068015167
 30
0.0
 41
1.0
 10
3906.118847172791
 20
636.4729326792049
 30
0.0
 41
1.0
 10
3901.456162793053
 20
637.3102452528501
 30
0.0
 41
1.0
 10
3901.989749625311
 20
637.2253041055046
 30
0.0
 41
1.0
 10
3899.551385363895
 20
637.5989390178492
 30
0.0
 41
1.0
 10
3896.34849131871
 20
637.9144076712209
 30
0.0
 41
1.0
 10
3894.520669322588
 20
627.4748031579147
 30
0.0
 41
1.0
 10
3892.692847326467
 20
617.0351986446166
 30
0.0
 41
1.0
 10
3890.865025330331
 20
606.5955941313168
 30
0.0
 41
1.0
 10
3885.631016454125
 20
607.5119925006056
 30
0.0
 41
1.0
 10
3880.397007577929
 20
608.4283908698853
 30
0.0
 41
1.0
 10
3875.162998701737
 20
609.344789239155
 30
0.0
 41
1.0
 10
3876.7401015871
 20
618.998770663351
 30
0.0
 41
1.0
 10
3878.317204472456
 20
628.6527520875524
 30
0.0
 41
1.0
 10
3879.894307357816
 20
638.306733511752
 30
0.0
 41
1.0
 10
3878.193268903953
 20
638.1766341098064
 30
0.0
 41
1.0
 10
3861.320096571417
 20
636.1520766330977
 30
0.0
 41
1.0
 10
3848.079878815264
 20
626.333800582749
 30
0.0
 41
1.0
 10
3842.163807400964
 20
606.6009378881799
 30
0.0
 41
1.0
 10
3825.36802172802
 20
586.1023560644789
 30
0.0
 41
1.0
 10
3811.26984987416
 20
563.3698315127376
 30
0.0
 41
1.0
 10
3811.10497367771
 20
553.6345375819028
 30
0.0
 41
1.0
 10
3819.841533386796
 20
549.6521551959158
 30
0.0
 41
1.0
 10
3811.471446666197
 20
533.1736192963826
 30
0.0
 41
1.0
 10
3796.671179160494
 20
528.3464850671334
 30
0.0
 41
1.0
 10
3795.731459978753
 20
512.622929604262
 30
0.0
 41
1.0
 10
3805.90265258092
 20
503.6776438694414
 30
0.0
 41
1.0
 10
3790.684564879612
 20
492.9305758258033
 30
0.0
 41
1.0
 10
3803.335903876181
 20
480.6553217387281
 30
0.0
 41
1.0
 10
3788.738890678317
 20
473.103634963385
 30
0.0
 41
1.0
 10
3798.500594851536
 20
463.4879445489941
 30
0.0
 41
1.0
 10
3786.387011395397
 20
453.8748392278894
 30
0.0
 41
1.0
 10
3785.722151893894
 20
425.3236726501445
 30
0.0
 41
1.0
 10
3820.052601265907
 20
435.0456562191811
 30
0.0
 41
1.0
 10
3823.580499624124
 20
423.912973444625
 30
0.0
 41
1.0
 10
3823.738926540591
 20
423.0706513169307
 30
0.0
 41
1.0
 10
3831.792249557238
 20
421.9139754446332
 30
0.0
 41
1.0
 10
3839.845572573887
 20
420.7572995723149
 30
0.0
 41
1.0
 10
3847.898895590541
 20
419.6006237000055
 30
0.0
 41
1.0
 10
3847.425001381169
 20
416.3011486827545
 30
0.0
 41
1.0
 10
3846.951107171804
 20
413.0016736655124
 30
0.0
 41
1.0
 10
3846.477212962437
 20
409.7021986482614
 30
0.0
 41
1.0
 10
3838.246384310576
 20
410.5739694597686
 30
0.0
 41
1.0
 10
3830.015555658702
 20
411.4457402712905
 30
0.0
 41
1.0
 10
3821.784727006834
 20
412.3175110828124
 30
0.0
 41
1.0
 10
3819.512493266735
 20
410.0448811968489
 30
0.0
 41
1.0
 10
3817.240259526632
 20
407.7722513108837
 30
0.0
 41
1.0
 10
3814.968025786541
 20
405.4996214249149
 30
0.0
 41
1.0
 10
3823.398764048583
 20
402.3196837431023
 30
0.0
 41
1.0
 10
3831.829502310608
 20
399.1397460612952
 30
0.0
 41
1.0
 10
3840.260240572636
 20
395.9598083794863
 30
0.0
 41
1.0
 10
3838.757135559757
 20
392.9846131873492
 30
0.0
 41
1.0
 10
3837.254030546883
 20
390.009417995203
 30
0.0
 41
1.0
 10
3835.750925534019
 20
387.0342228030477
 30
0.0
 41
1.0
 10
3824.614123859556
 20
391.7708263397135
 30
0.0
 41
1.0
 10
3813.477322185096
 20
396.5074298763802
 30
0.0
 41
1.0
 10
3802.340520510632
 20
401.2440334130442
 30
0.0
 41
1.0
 10
3800.761629478977
 20
401.0323752889944
 30
0.0
 41
1.0
 10
3799.167765453316
 20
400.9168400454964
 30
0.0
 41
1.0
 10
3797.564399583523
 20
400.8854081940953
 30
0.0
 41
1.0
 10
3793.840178911152
 20
401.5275090678787
 30
0.0
 41
1.0
 10
3778.139118714018
 20
405.1327279490733
 30
0.0
 41
1.0
 10
3748.931303328664
 20
411.8917215839974
 30
0.0
 41
1.0
 10
3672.790900633998
 20
468.6843059913571
 30
0.0
 41
1.0
 10
3608.720710296868
 20
305.4029963900912
 30
0.0
 41
1.0
 10
3571.168204539434
 20
195.6137365758695
 30
0.0
 41
1.0
 10
3487.887156653826
 20
112.2458892583581
 30
0.0
 41
1.0
 10
3444.104499876004
 20
25.74079347066527
 30
0.0
 41
1.0
 10
3391.406702574186
 20
-35.37702562082177
 30
0.0
 41
1.0
 10
3372.020377338599
 20
-86.65774388992668
 30
0.0
 41
1.0
 10
3341.694324738023
 20
-114.6016511467005
 30
0.0
 41
1.0
 10
3337.140797550212
 20
-144.3612559039165
 30
0.0
 41
1.0
 10
3321.460817751755
 20
-180.1471851017704
 30
0.0
 41
1.0
 10
3345.312817321046
 20
-197.803199211583
 30
0.0
 41
1.0
 10
3363.683265108022
 20
-214.8595433542687
 30
0.0
 41
1.0
 10
3367.205182925824
 20
-208.6868801223736
 30
0.0
 41
1.0
 10
3369.923214262133
 20
-203.2634501758094
 30
0.0
 41
1.0
 10
3374.870786963307
 20
-200.7546735562391
 30
0.0
 41
1.0
 10
3370.916938326951
 20
-193.9048082797544
 30
0.0
 41
1.0
 10
3358.370424648209
 20
-188.2604437739428
 30
0.0
 41
1.0
 10
3352.627945743563
 20
-173.5771552917858
 30
0.0
 41
1.0
 10
3346.997244734284
 20
-162.4718739859381
 30
0.0
 41
1.0
 10
3367.02450433464
 20
-152.5024496001178
 30
0.0
 41
1.0
 10
3367.175003545253
 20
-135.2941045202133
 30
0.0
 41
1.0
 10
3392.731499483758
 20
-139.2142307284566
 30
0.0
 41
1.0
 10
3361.518650013361
 20
-162.4845349792849
 30
0.0
 41
1.0
 10
3375.903985764573
 20
-182.5369391359709
 30
0.0
 41
1.0
 10
3387.426655981516
 20
-171.3826140278424
 30
0.0
 41
1.0
 10
3394.618225151277
 20
-157.6715220805818
 30
0.0
 41
1.0
 10
3399.860742901517
 20
-135.1892158687078
 30
0.0
 41
1.0
 10
3416.761161442963
 20
-113.9340794451946
 30
0.0
 41
1.0
 10
3417.347374689241
 20
-81.77849985243119
 30
0.0
 41
1.0
 10
3428.742353417456
 20
-53.05836839530093
 30
0.0
 41
1.0
 10
3477.081294159758
 20
-8.527027962393731
 30
0.0
 41
1.0
 10
3505.438287043937
 20
16.72656531127359
 30
0.0
 41
1.0
 10
3515.207350727087
 20
-4.919402632433957
 30
0.0
 41
1.0
 10
3420.751725427454
 20
-128.5894693031232
 30
0.0
 41
1.0
 10
3412.343345430571
 20
-238.7609195589903
 30
0.0
 41
1.0
 10
3380.796643392514
 20
-369.4343205357545
 30
0.0
 41
1.0
 10
3337.649626876086
 20
-483.2515465375636
 30
0.0
 41
1.0
 10
3261.742958761974
 20
-610.4040172414461
 30
0.0
 41
1.0
 10
3260.89261721267
 20
-724.4679751153617
 30
0.0
 41
1.0
 10
3241.142858330346
 20
-781.8084778690572
 30
0.0
 41
1.0
 10
3239.718529172042
 20
-785.6349336101775
 30
0.0
 41
1.0
 10
3236.94251141416
 20
-791.0065876378794
 30
0.0
 41
1.0
 10
3234.166493656277
 20
-796.3782416655922
 30
0.0
 41
1.0
 10
3231.390475898388
 20
-801.7498956933014
 30
0.0
 41
1.0
  0
CIRCLE
  5
1B4E
330
1F
100
AcDbEntity
  8
0
100
AcDbCircle
 10
3942.204703749296
 20
500.483089959891
 30
0.0
 40
3.0
  0
CIRCLE
  5
1B4F
330
1F
100
AcDbEntity
  8
0
100
AcDbCircle
 10
3961.627392111197
 20
496.2157729488535
 30
0.0
 40
3.0
  0
CIRCLE
  5
1B50
330
1F
100
AcDbEntity
  8
0
100
AcDbCircle
 10
3963.699748370265
 20
475.6470334716286
 30
0.0
 40
3.0
  0
CIRCLE
  5
1B51
330
1F
100
AcDbEntity
  8
0
100
AcDbCircle
 10
3947.49531834844
 20
463.8795396190034
 30
0.0
 40
3.0
  0
CIRCLE
  5
1B52
330
1F
100
AcDbEntity
  8
0
100
AcDbCircle
 10
3927.160629339826
 20
456.6058046361923
 30
0.0
 40
3.0
  0
CIRCLE
  5
1B53
330
1F
100
AcDbEntity
  8
0
100
AcDbCircle
 10
3908.92519115653
 20
464.7686427219714
 30
0.0
 40
3.0
  0
LWPOLYLINE
  5
1B54
330
1F
100
AcDbEntity
  8
0
100
AcDbPolyline
 90
        8
 70
     1
 43
0.0
 10
3676.175086033997
 20
-79.56103057190649
 10
3658.729034517932
 20
-113.3195152313092
 42
-0.9999999999984694
 10
3655.974394804867
 20
-118.6498022827863
 10
3640.694238590615
 20
-110.7531684386777
 42
-1.0
 10
3643.448878303683
 20
-105.4228813871996
 10
3660.89492981974
 20
-71.66439672779507
 42
-1.0
 10
3663.649569532809
 20
-66.33410967630789
 10
3678.929725747064
 20
-74.23074352042568
 42
-0.9999999999984694
  0
LWPOLYLINE
  5
1B55
330
1F
100
AcDbEntity
  8
0
100
AcDbPolyline
 90
        8
 70
     1
 43
0.0
 10
3858.381579954028
 20
361.4201548822084
 10
3840.93552843796
 20
327.6616702228093
 42
-0.9999999999984694
 10
3838.180888724899
 20
322.3313831713285
 10
3822.900732510646
 20
330.2280170154336
 42
-1.0
 10
3825.655372223708
 20
335.558304066918
 10
3843.101423739769
 20
369.3167887263208
 42
-1.0
 10
3845.856063452837
 20
374.6470757778061
 10
3861.136219667086
 20
366.7504419336974
 42
-0.9999999999999996
  0
LWPOLYLINE
  5
1B56
330
1F
100
AcDbEntity
  8
0
100
AcDbPolyline
 90
        8
 70
     1
 43
0.0
 10
3327.179018918498
 20
-547.3281885532869
 42
-0.9999999999999998
 10
3332.509305969994
 20
-550.0828282663515
 10
3366.267790629379
 20
-567.5288797824123
 42
-0.9999999999998438
 10
3371.598077680861
 20
-570.2835194954659
 10
3363.701443836755
 20
-585.5636757097218
 42
-0.9999999999999998
 10
3358.37115678527
 20
-582.8090359966572
 10
3324.61267212587
 20
-565.3629844806
 42
-1.000001101275515
 10
3319.282385074384
 20
-562.6083447675427
  0
LWPOLYLINE
  5
1B57
330
1F
100
AcDbEntity
  8
0
100
AcDbPolyline
 90
        8
 70
     1
 43
0.0
 10
3444.285043241733
 20
-607.8474255331784
 42
-0.9999999999999998
 10
3449.615330293211
 20
-610.6020652462339
 10
3483.373814952614
 20
-628.0481167622983
 42
-0.9999999999998438
 10
3488.704102004089
 20
-630.8027564753593
 10
3480.807468159979
 20
-646.0829126896133
 42
-0.9999999999999998
 10
3475.47718110849
 20
-643.3282729765505
 10
3441.718696449101
 20
-625.8822214604897
 42
-1.000001101275515
 10
3436.388409397616
 20
-623.1275817474251
  0
LWPOLYLINE
  5
1B58
330
1F
100
AcDbEntity
  8
0
100
AcDbPolyline
 90
        8
 70
     1
 43
0.0
 10
3396.421252888071
 20
-416.7153095042794
 42
-0.9999999999999998
 10
3401.751539939567
 20
-419.4699492173367
 10
3435.510024598956
 20
-436.916000733403
 42
-0.9999999999998438
 10
3440.840311650423
 20
-439.6706404464603
 10
3432.943677806321
 20
-454.9507966607143
 42
-0.9999999999999998
 10
3427.613390754832
 20
-452.1961569476552
 10
3393.854906095436
 20
-434.7501054315907
 42
-1.000001101275515
 10
3388.524619043969
 20
-431.9954657185335
  0
LWPOLYLINE
  5
1B59
330
1F
100
AcDbEntity
  8
0
100
AcDbPolyline
 90
        8
 70
     1
 43
0.0
 10
3508.699565697833
 20
-474.7396328463546
 42
-0.9999999999999998
 10
3514.029852749315
 20
-477.4942725594155
 10
3547.788337408707
 20
-494.9403240754691
 42
-0.9999999999998438
 10
3553.118624460193
 20
-497.69496378853
 10
3545.22199061608
 20
-512.9751200027858
 42
-0.9999999999999998
 10
3539.891703564598
 20
-510.2204802897285
 10
3506.133218905201
 20
-492.7744287736677
 42
-1.000001101275515
 10
3500.802931853716
 20
-490.0197890606068
  0
LWPOLYLINE
  5
1B5A
330
1F
100
AcDbEntity
  8
0
100
AcDbPolyline
 90
        8
 70
     1
 43
0.0
 10
3450.137934715014
 20
-268.8588169318427
 42
-0.9999999999999998
 10
3455.4682217665
 20
-271.6134566449091
 10
3489.226706425889
 20
-289.0595081609681
 42
-0.9999999999998438
 10
3494.556993477374
 20
-291.8141478740253
 10
3486.660359633261
 20
-307.0943040882848
 42
-0.9999999999999998
 10
3481.330072581772
 20
-304.3396643752203
 10
3447.571587922383
 20
-286.8936128591595
 42
-1.000001101275515
 10
3442.241300870909
 20
-284.1389731460986
  0
LWPOLYLINE
  5
1B5B
330
1F
100
AcDbEntity
  8
0
100
AcDbPolyline
 90
        8
 70
     1
 43
0.0
 10
3596.811003287891
 20
-344.6580104133791
 42
-0.9999999999999998
 10
3602.141290339376
 20
-347.41265012644
 10
3635.899774998769
 20
-364.8587016424954
 42
-0.9999999999998438
 10
3641.23006205025
 20
-367.6133413555599
 10
3633.333428206141
 20
-382.8934975698103
 42
-0.9999999999999998
 10
3628.003141154656
 20
-380.1388578567548
 10
3594.244656495259
 20
-362.6928063406958
 42
-1.000001101275515
 10
3588.914369443788
 20
-359.9381666276386
  0
LWPOLYLINE
  5
1B5C
330
1F
100
AcDbEntity
  8
0
100
AcDbPolyline
 90
        8
 70
     1
 43
0.0
 10
3539.926166181144
 20
-95.38890750681094
 42
-0.9999999999999998
 10
3545.256453232621
 20
-98.14354721987275
 10
3579.014937892021
 20
-115.5895987359317
 42
-0.9999999999998438
 10
3584.345224943503
 20
-118.3442384489926
 10
3576.44859109939
 20
-133.6243946632476
 42
-0.9999999999999998
 10
3571.118304047912
 20
-130.8697549501885
 10
3537.359819388508
 20
-113.4237034341277
 42
-1.000001101275515
 10
3532.029532337027
 20
-110.669063721064
  0
LWPOLYLINE
  5
1B5D
330
1F
100
AcDbEntity
  8
0
100
AcDbPolyline
 90
        8
 70
     1
 43
0.0
 10
3707.971401200379
 20
-182.2330255634479
 42
-0.9999999999999998
 10
3713.301688251864
 20
-184.9876652765215
 10
3747.060172911257
 20
-202.4337167925732
 42
-0.9999999999998438
 10
3752.390459962742
 20
-205.1883565056323
 10
3744.493826118629
 20
-220.4685127198882
 42
-0.9999999999999998
 10
3739.163539067141
 20
-217.7138730068291
 10
3705.405054407755
 20
-200.2678214907683
 42
-1.000001101275515
 10
3700.074767356269
 20
-197.5131817777128
  0
LWPOLYLINE
  5
1B5E
330
1F
100
AcDbEntity
  8
0
100
AcDbPolyline
 90
        8
 70
     1
 43
0.0
 10
3569.126909769377
 20
113.8760032524624
 42
-0.9999999999999998
 10
3574.45719682087
 20
111.1213635394024
 10
3608.215681480259
 20
93.67531202334339
 42
-0.9999999999998438
 10
3613.545968531737
 20
90.9206723102825
 10
3605.649334687627
 20
75.64051609602756
 42
-0.9999999999999998
 10
3600.319047636145
 20
78.39515580909119
 10
3566.560562976746
 20
95.84120732514566
 42
-1.000001101275515
 10
3561.230275925271
 20
98.59584703821111
  0
LWPOLYLINE
  5
1B5F
330
1F
100
AcDbEntity
  8
0
100
AcDbPolyline
 90
        8
 70
     1
 43
0.0
 10
3736.079978438026
 20
27.5963059809601
 42
-0.9999999999999998
 10
3741.41026548951
 20
24.84166626789011
 10
3775.168750148907
 20
7.395614751840184
 42
-0.9999999999998438
 10
3780.499037200392
 20
4.64097503877565
 10
3772.602403356279
 20
-10.6391811754811
 42
-0.9999999999999998
 10
3767.27211630479
 20
-7.884541462415654
 10
3733.51363164539
 20
9.56151005364245
 42
-1.000001101275515
 10
3728.183344593919
 20
12.31614976670426
  0
LWPOLYLINE
  5
1B60
330
1F
100
AcDbEntity
  8
0
100
AcDbPolyline
 90
        8
 70
     1
 43
0.0
 10
3615.037571653749
 20
202.7141207772002
 42
-0.9999999999999998
 10
3620.367858705238
 20
199.9594810641401
 10
3654.126343364631
 20
182.5134295480802
 42
-0.9999999999998438
 10
3659.456630416123
 20
179.7587898350202
 10
3651.559996571992
 20
164.4786336207635
 42
-0.9999999999999998
 10
3646.22970952051
 20
167.2332733338244
 10
3612.471224861125
 20
184.6793248498888
 42
-1.000001101275515
 10
3607.140937809628
 20
187.4339645629434
  0
LWPOLYLINE
  5
1B61
330
1F
100
AcDbEntity
  8
0
100
AcDbPolyline
 90
        8
 70
     1
 43
0.0
 10
3783.082806672985
 20
115.870002720555
 42
-0.9999999999999998
 10
3788.413093724467
 20
113.1153630074986
 10
3822.171578383862
 20
95.66931149143966
 42
-0.9999999999998438
 10
3827.501865435352
 20
92.91467177838057
 10
3819.605231591228
 20
77.63451556412656
 42
-0.9999999999999998
 10
3814.274944539749
 20
80.38915527718382
 10
3780.516459880356
 20
97.83520679324283
 42
-1.000001101275515
 10
3775.186172828879
 20
100.5898465063001
  0
LWPOLYLINE
  5
1B62
330
1F
100
AcDbEntity
  8
0
100
AcDbPolyline
 90
        8
 70
     1
 43
0.0
 10
3659.581152647076
 20
312.5203051684912
 42
-0.9999999999999998
 10
3664.911439698557
 20
309.7656654554303
 10
3698.669924357954
 20
292.3196139393713
 42
-0.9999999999998438
 10
3704.000211409442
 20
289.5649742263113
 10
3696.103577565326
 20
274.2848180120545
 42
-0.9999999999999998
 10
3690.773290513833
 20
277.0394577251191
 10
3657.014805854441
 20
294.4855092411781
 42
-1.000001101275515
 10
3651.684518802966
 20
297.2401489542353
  0
LWPOLYLINE
  5
1B63
330
1F
100
AcDbEntity
  8
0
100
AcDbPolyline
 90
        8
 70
     1
 43
0.0
 10
3792.838328934184
 20
243.6543123419342
 42
-0.9999999999999998
 10
3798.168615985666
 20
240.8996726288724
 10
3831.927100645054
 20
223.4536211128143
 42
-0.9999999999998438
 10
3837.257387696543
 20
220.6989813997489
 10
3829.360753852427
 20
205.4188251855012
 42
-0.9999999999999998
 10
3824.030466800938
 20
208.1734648985612
 10
3790.271982141549
 20
225.619516414612
 42
-1.000001101275515
 10
3784.941695090067
 20
228.3741561276811
  0
LWPOLYLINE
  5
1B64
330
1F
100
AcDbEntity
  8
0
100
AcDbPolyline
 90
        8
 70
     1
 43
0.0
 10
3926.095505221278
 20
174.7883195153808
 42
-0.9999999999999998
 10
3931.425792272767
 20
172.0336798023172
 10
3965.184276932156
 20
154.58762828626
 42
-0.9999999999998438
 10
3970.514563983631
 20
151.8329885731946
 10
3962.617930139524
 20
136.5528323589442
 42
-0.9999999999999998
 10
3957.287643088039
 20
139.3074720720051
 10
3923.52915842865
 20
156.753523588065
 42
-1.000001101275515
 10
3918.198871377164
 20
159.5081633011305
  0
LWPOLYLINE
  5
1B65
330
1F
100
AcDbEntity
  8
0
100
AcDbPolyline
 90
        8
 70
     1
 43
0.0
 10
3890.028844198321
 20
443.5620595379933
 10
3882.132210354215
 20
428.2819033237383
 42
-0.9999999999999998
 10
3876.80192330273
 20
431.0365430367983
 10
3843.043438643337
 20
448.4825945528537
 42
-1.000001101275515
 10
3837.713151591849
 20
451.2372342659182
 10
3845.609785435965
 20
466.517390480174
 42
-0.9999999999999998
 10
3850.940072487447
 20
463.7627507671131
 10
3884.698557146843
 20
446.3166992510541
 42
-0.9999999999998438
  0
LWPOLYLINE
  5
1B66
330
1F
100
AcDbEntity
  8
0
100
AcDbPolyline
 90
        8
 70
     1
 43
0.0
 10
3946.398099808038
 20
552.6377807125027
 10
3938.501465963924
 20
537.3576244982505
 42
-0.9999999999999998
 10
3933.171178912428
 20
540.1122642113096
 10
3899.412694253039
 20
557.5583157273686
 42
-1.000001101275515
 10
3894.08240720156
 20
560.3129554404313
 10
3901.979041045674
 20
575.5931116546816
 42
-0.9999999999999998
 10
3907.309328097156
 20
572.8384719416253
 10
3941.067812756545
 20
555.3924204255663
 42
-0.9999999999998438
  0
VIEWPORT
  5
13CE
102
{ACAD_XDICTIONARY
360
13CF
102
}
330
58
100
AcDbEntity
 67
     1
  8
0
 62
     1
100
AcDbViewport
 10
5.249999639556165
 20
3.999999883606678
 30
0.0
 40
23.05742195920059
 41
8.992999745766949
 68
     1
 69
     1
 12
5.249999639556165
 22
3.999999883606678
 13
0.0
 23
0.0
 14
0.5
 24
0.5
 15
0.5
 25
0.5
 16
0.0
 26
0.0
 36
1.0
 17
0.0
 27
0.0
 37
0.0
 42
50.0
 43
0.0
 44
0.0
 45
8.992999745766949
 50
0.0
 51
0.0
 72
  1000
 90
   819232
  1

281
     0
 71
     1
 74
     0
110
0.0
120
0.0
130
0.0
111
1.0
121
0.0
131
0.0
112
0.0
122
1.0
132
0.0
 79
     0
146
0.0
170
     0
 61
     5
348
9F
292
     1
282
     1
141
0.0
142
0.0
 63
   250
421
  3355443
  0
VIEWPORT
  5
13D3
102
{ACAD_XDICTIONARY
360
13D4
102
}
330
58
100
AcDbEntity
 67
     1
  8
0
 62
     1
100
AcDbViewport
 10
5.249999761581421
 20
3.999999761581421
 30
0.0
 40
8.399999618530275
 41
6.399999618530274
 68
     2
 69
     2
 12
1694.341202660577
 22
-552.6570879961018
 13
0.0
 23
0.0
 14
0.5
 24
0.5
 15
0.5
 25
0.5
 16
0.0
 26
0.0
 36
1.0
 17
0.0
 27
0.0
 37
0.0
 42
50.0
 43
0.0
 44
0.0
 45
2632.647265516578
 50
0.0
 51
0.0
 72
  1000
 90
   819296
  1

281
     0
 71
     1
 74
     0
110
0.0
120
0.0
130
0.0
111
1.0
121
0.0
131
0.0
112
0.0
122
1.0
132
0.0
 79
     0
146
0.0
170
     0
 61
     5
348
9F
292
     1
282
     1
141
0.0
142
0.0
 63
   250
421
  3355443
  0
ENDSEC
  0
SECTION
  2
OBJECTS
  0
DICTIONARY
  5
C
330
0
100
AcDbDictionary
281
     1
  3
ACAD_CIP_PREVIOUS_PRODUCT_INFO
350
1A5
  3
ACAD_COLOR
350
73
  3
ACAD_DETAILVIEWSTYLE
350
1AB
  3
ACAD_GROUP
350
D
  3
ACAD_IMAGE_DICT
350
1F7
  3
ACAD_IMAGE_VARS
350
1F9
  3
ACAD_LAYOUT
350
1A
  3
ACAD_MATERIAL
350
72
  3
ACAD_MLEADERSTYLE
350
D7
  3
ACAD_MLINESTYLE
350
17
  3
ACAD_PLOTSETTINGS
350
19
  3
ACAD_PLOTSTYLENAME
350
E
  3
ACAD_RENDER_ACTIVE_RAPIDRT_SETTINGS
350
196C
  3
ACAD_RENDER_ACTIVE_SETTINGS
350
1BF1
  3
ACAD_SCALELIST
350
B6
  3
ACAD_SECTIONVIEWSTYLE
350
1A8
  3
ACAD_TABLESTYLE
350
86
  3
ACAD_VISUALSTYLE
350
99
  3
ACDB_RECOMPOSE_DATA
350
1BB6
  3
AcDbVariableDictionary
350
66
  3
AcDsDecomposeData
350
1BBC
  0
DICTIONARY
  5
18E
330
2
100
AcDbDictionary
280
     1
281
     1
  3
ACAD_LAYERSTATES
360
18F
  0
DICTIONARY
  5
E6
330
10
100
AcDbDictionary
280
     1
281
     1
  0
DICTIONARY
  5
15D
330
1F
100
AcDbDictionary
280
     1
281
     1
  3
ACAD_SORTENTS
360
206
  0
DICTIONARY
  5
13CF
330
13CE
100
AcDbDictionary
280
     1
281
     1
  3
ASDK_XREC_ANNOTATION_SCALE_INFO
360
13D0
  0
DICTIONARY
  5
13D4
330
13D3
100
AcDbDictionary
280
     1
281
     1
  3
ASDK_XREC_ANNOTATION_SCALE_INFO
360
13D5
  0
XRECORD
  5
1A5
102
{ACAD_REACTORS
330
C
102
}
330
C
100
AcDbXrecord
280
     1
300
ACD
300
2017
300
ACD_F_S
  0
DICTIONARY
  5
73
102
{ACAD_REACTORS
330
C
102
}
330
C
100
AcDbDictionary
281
     1
  0
DICTIONARY
  5
1AB
102
{ACAD_REACTORS
330
C
102
}
330
C
100
AcDbDictionary
281
     1
  3
Imperial24
350
1AC
  0
DICTIONARY
  5
D
102
{ACAD_REACTORS
330
C
102
}
330
C
100
AcDbDictionary
281
     1
  0
DICTIONARY
  5
1F7
102
{ACAD_REACTORS
330
C
102
}
330
C
100
AcDbDictionary
281
     1
  3
DSC_1228
350
277
  3
DSC_1235
350
1F8
  0
RASTERVARIABLES
  5
1F9
102
{ACAD_REACTORS
330
C
102
}
330
C
100
AcDbRasterVariables
 90
        0
 70
     1
 71
     1
 72
     5
  0
DICTIONARY
  5
1A
102
{ACAD_REACTORS
330
C
102
}
330
C
100
AcDbDictionary
281
     1
  3
Layout1
350
59
  3
Layout2
350
5E
  3
Model
350
22
  0
DICTIONARY
  5
72
102
{ACAD_REACTORS
330
C
102
}
330
C
100
AcDbDictionary
281
     1
  3
ByBlock
350
97
  3
ByLayer
350
96
  3
Global
350
98
  0
DICTIONARY
  5
D7
102
{ACAD_REACTORS
330
C
102
}
330
C
100
AcDbDictionary
281
     1
  3
Annotative
350
E5
  3
Standard
350
D8
  0
DICTIONARY
  5
17
102
{ACAD_REACTORS
330
C
102
}
330
C
100
AcDbDictionary
281
     1
  3
Standard
350
18
  0
DICTIONARY
  5
19
102
{ACAD_REACTORS
330
C
102
}
330
C
100
AcDbDictionary
281
     1
  0
ACDBDICTIONARYWDFLT
  5
E
102
{ACAD_REACTORS
330
C
102
}
330
C
100
AcDbDictionary
281
     1
  3
Normal
350
F
100
AcDbDictionaryWithDefault
340
F
  0
RAPIDRTRENDERSETTINGS
  5
196C
102
{ACAD_REACTORS
330
C
102
}
330
C
100
AcDbRenderSettings
 90
        2
  1
Medium
290
     1
290
     0
290
     1
290
     1
  1

  1
Applies 5 rendering levels
 90
        0
100
AcDbRapidRTRenderSettings
 90
        3
 70
     0
 90
        5
 90
        1
 70
     1
 70
     2
 40
3.0
 40
3.0
290
     1
  0
MENTALRAYRENDERSETTINGS
  5
1BF1
102
{ACAD_XDICTIONARY
360
1BF2
102
}
102
{ACAD_REACTORS
330
C
102
}
330
C
100
AcDbRenderSettings
 90
        2
  1
Medium
290
     1
290
     1
290
     1
290
     1
  1

  1

 90
        0
100
AcDbMentalRayRenderSettings
 90
        2
 90
        0
 90
        1
 70
     2
 40
3.0
 40
3.0
 40
0.0500000007450581
 40
0.0500000007450581
 40
0.0500000007450581
 40
0.0500000007450581
 70
     0
290
     0
290
     1
 90
        5
 90
        5
 90
        5
290
     0
 90
      500
290
     0
 40
1.0
 90
    10000
 90
        5
 90
        5
 90
        5
290
     0
 90
      200
290
     0
290
     0
290
     0
 40
1.0
 40
1.0
 40
1500.0
 70
     0
 70
     0
 40
10.0
 70
     0
 70
     0
290
     0
  1

 90
       32
 70
     0
 90
     1048
290
     0
 40
1.0
  0
DICTIONARY
  5
B6
102
{ACAD_REACTORS
330
C
102
}
330
C
100
AcDbDictionary
281
     1
  3
A0
350
B7
  3
A1
350
124
  3
A2
350
125
  3
A3
350
126
  3
A4
350
127
  3
A5
350
128
  3
A6
350
129
  3
A7
350
12A
  3
A8
350
12B
  3
A9
350
12C
  3
B0
350
12D
  3
B1
350
12E
  3
B2
350
12F
  3
B3
350
130
  3
B4
350
131
  3
B5
350
132
  3
B6
350
133
  3
B7
350
134
  3
B8
350
135
  3
B9
350
136
  3
C0
350
137
  3
C1
350
138
  3
C2
350
139
  3
C3
350
13A
  3
C4
350
13B
  3
C5
350
13C
  3
C6
350
13D
  3
C7
350
13E
  3
C8
350
13F
  3
C9
350
140
  3
D0
350
141
  3
D1
350
142
  3
D2
350
143
  0
DICTIONARY
  5
1A8
102
{ACAD_REACTORS
330
C
102
}
330
C
100
AcDbDictionary
281
     1
  3
Imperial24
350
1AA
  0
DICTIONARY
  5
86
102
{ACAD_REACTORS
330
C
102
}
330
C
100
AcDbDictionary
281
     1
  3
Standard
350
87
  0
DICTIONARY
  5
99
102
{ACAD_REACTORS
330
C
102
}
330
C
100
AcDbDictionary
281
     1
  3
2dWireframe
350
9F
  3
Basic
350
9E
  3
Brighten
350
A5
  3
ColorChange
350
A9
  3
Conceptual
350
A2
  3
Dim
350
A4
  3
EdgeColorOff
350
175
  3
Facepattern
350
A8
  3
Flat
350
9A
  3
FlatWithEdges
350
9B
  3
Gouraud
350
9C
  3
GouraudWithEdges
350
9D
  3
Hidden
350
A1
  3
JitterOff
350
173
  3
Linepattern
350
A7
  3
OverhangOff
350
174
  3
Realistic
350
A3
  3
Shaded
350
182
  3
Shaded with edges
350
181
  3
Shades of Gray
350
17E
  3
Sketchy
350
17F
  3
Thicken
350
A6
  3
Wireframe
350
A0
  3
X-Ray
350
180
  0
XRECORD
  5
1BB6
102
{ACAD_REACTORS
330
C
102
}
330
C
100
AcDbXrecord
280
     1
 90
        1
330
87
  0
DICTIONARY
  5
66
102
{ACAD_REACTORS
330
C
102
}
330
C
100
AcDbDictionary
281
     1
  3
CANNOSCALE
350
F0
  3
CMLEADERSTYLE
350
EF
  3
CTABLESTYLE
350
89
  3
CVIEWDETAILSTYLE
350
1B7
  3
CVIEWSECTIONSTYLE
350
1B8
  3
DIMASSOC
350
67
  3
HIDETEXT
350
6B
  3
LAYEREVAL
350
14D
  3
LAYERNOTIFY
350
14E
  3
XCLIPFRAME
350
19A0
  0
DICTIONARY
  5
1BBC
102
{ACAD_REACTORS
330
C
102
}
330
C
100
AcDbDictionary
281
     1
  3
AcDsRecords
350
1BBE
  3
AcDsSchemas
350
1BBD
1001
ACAD
1070
     2
  0
DICTIONARY
  5
18F
102
{ACAD_REACTORS
330
18E
102
}
330
18E
100
AcDbDictionary
281
     1
  0
SORTENTSTABLE
  5
206
102
{ACAD_REACTORS
330
15D
102
}
330
15D
100
AcDbSortentsTable
330
1F
  0
XRECORD
  5
13D0
102
{ACAD_REACTORS
330
13CF
102
}
330
13CF
100
AcDbXrecord
280
     1
 90
        1
340
B7
  0
XRECORD
  5
13D5
102
{ACAD_REACTORS
330
13D4
102
}
330
13D4
100
AcDbXrecord
280
     1
 90
        1
340
B7
  0
ACDBDETAILVIEWSTYLE
  5
1AC
102
{ACAD_XDICTIONARY
360
1C6
102
}
102
{ACAD_REACTORS
330
1AB
102
}
330
1AB
100
AcDbModelDocViewStyle
 70
     0
  3
Imperial24
290
     0
100
AcDbDetailViewStyle
 70
     0
 71
     0
 90
        3
 71
     1
340
11
 62
   256
 40
0.24
340
0
 62
   256
 40
0.24
300

 40
0.36
280
     3
 71
     2
340
16
 90
       25
 62
   256
 71
     3
340
11
 62
   256
 40
0.24
 90
        1
 40
0.75
 90
        1
300
%<\AcVar ViewType \f "%tc1">% %<\AcVar ViewDetailId>%\PSCALE %<\AcVar ViewScale \f "%sn">%
 71
     4
340
16
 90
       25
 62
   256
340
16
 90
       25
 62
   256
280
     0
  0
IMAGEDEF
  5
277
102
{ACAD_REACTORS
330
1F7
102
}
330
1F7
100
AcDbRasterImageDef
 90
        0
  1
C:\Users\Nour\Desktop\Bachelor & Master & PHD\Bucks New Uni\Competitions and extra projects\AW Project\AW\dress pics\DSC_1228.JPG
 10
2448.0
 20
3696.0
 11
0.0846666666666667
 21
0.0846666666666667
280
     1
281
     5
  0
IMAGEDEF
  5
1F8
102
{ACAD_REACTORS
330
1F7
102
}
330
1F7
100
AcDbRasterImageDef
 90
        0
  1
C:\Users\Nour\Desktop\Bachelor & Master & PHD\Bucks New Uni\Competitions and extra projects\AW Project\AW\dress pics\DSC_1235.JPG
 10
2448.0
 20
3696.0
 11
0.0846666666666667
 21
0.0846666666666667
280
     1
281
     5
  0
LAYOUT
  5
59
102
{ACAD_REACTORS
330
1A
102
}
330
1A
100
AcDbPlotSettings
  1

  2
None
  4
Letter_(8.50_x_11.00_Inches)
  6

 40
6.349999904632568
 41
6.349999904632568
 42
6.350006103515625
 43
6.350006103515625
 44
215.8999938964844
 45
279.3999938964844
 46
0.0
 47
0.0
 48
0.0
 49
0.0
140
0.0
141
0.0
142
1.0
143
1.0
 70
   688
 72
     0
 73
     1
 74
     5
  7

 75
    16
147
1.0
 76
     0
 77
     2
 78
   300
148
0.0
149
0.0
100
AcDbLayout
  1
Layout1
 70
     1
 71
     1
 10
-0.2500002402958907
 20
-0.2499999962453767
 11
10.74999951940822
 21
8.249999763458733
 12
0.0
 22
0.0
 32
0.0
 14
1.049999952316284
 24
0.7999999523162842
 34
0.0
 15
9.449999570846559
 25
7.199999570846558
 35
0.0
146
0.0
 13
0.0
 23
0.0
 33
0.0
 16
1.0
 26
0.0
 36
0.0
 17
0.0
 27
1.0
 37
0.0
 76
     0
330
58
331
13CE
1001
ACAD_PSEXT
1000
None
1000
None
1000
Not applicable
1000
The layout will not be plotted unless a new plotter configuration name is selected.
1070
     0
  0
LAYOUT
  5
5E
102
{ACAD_REACTORS
330
1A
102
}
330
1A
100
AcDbPlotSettings
  1

  2
None
  4

  6

 40
0.0
 41
0.0
 42
0.0
 43
0.0
 44
0.0
 45
0.0
 46
0.0
 47
0.0
 48
0.0
 49
0.0
140
0.0
141
0.0
142
1.0
143
1.0
 70
   688
 72
     0
 73
     0
 74
     5
  7

 75
    16
147
1.0
 76
     0
 77
     2
 78
   300
148
0.0
149
0.0
100
AcDbLayout
  1
Layout2
 70
     1
 71
     2
 10
0.0
 20
0.0
 11
12.0
 21
9.0
 12
0.0
 22
0.0
 32
0.0
 14
0.0
 24
0.0
 34
0.0
 15
0.0
 25
0.0
 35
0.0
146
0.0
 13
0.0
 23
0.0
 33
0.0
 16
1.0
 26
0.0
 36
0.0
 17
0.0
 27
1.0
 37
0.0
 76
     0
330
5D
  0
LAYOUT
  5
22
102
{ACAD_XDICTIONARY
360
194
102
}
102
{ACAD_REACTORS
330
1A
102
}
330
1A
100
AcDbPlotSettings
  1

  2
none_device
  4
ANSI_A_(8.50_x_11.00_Inches)
  6

 40
6.349999904632568
 41
19.04999923706055
 42
6.350006103515625
 43
19.04998779296875
 44
215.8999938964844
 45
279.3999938964844
 46
0.0
 47
0.0
 48
0.0
 49
0.0
140
0.0
141
0.0
142
1.0
143
2.584895464708373
 70
 11952
 72
     0
 73
     1
 74
     0
  7

 75
     0
147
0.3868628397755418
 76
     0
 77
     2
 78
   300
148
0.0
149
0.0
100
AcDbLayout
  1
Model
 70
     1
 71
     0
 10
0.0
 20
0.0
 11
12.0
 21
9.0
 12
0.0
 22
0.0
 32
0.0
 14
0.0
 24
0.0
 34
0.0
 15
0.0
 25
0.0
 35
0.0
146
0.0
 13
0.0
 23
0.0
 33
0.0
 16
1.0
 26
0.0
 36
0.0
 17
0.0
 27
1.0
 37
0.0
 76
     0
330
1F
331
94
  0
MATERIAL
  5
97
102
{ACAD_XDICTIONARY
360
188
102
}
102
{ACAD_REACTORS
330
72
102
}
330
72
100
AcDbMaterial
  1
ByBlock
 94
       63
  0
MATERIAL
  5
96
102
{ACAD_XDICTIONARY
360
186
102
}
102
{ACAD_REACTORS
330
72
102
}
330
72
100
AcDbMaterial
  1
ByLayer
 94
       63
  0
MATERIAL
  5
98
102
{ACAD_XDICTIONARY
360
110
102
}
102
{ACAD_REACTORS
330
72
102
}
330
72
100
AcDbMaterial
  1
Global
 43
0.0208000000566244
 43
0.0
 43
0.0
 43
0.0
 43
0.0
 43
0.0208000000566244
 43
0.0
 43
0.0
 43
0.0
 43
0.0
 43
1.0
 43
0.0
 43
0.0
 43
0.0
 43
0.0
 43
1.0
 49
0.0208000000566244
 49
0.0
 49
0.0
 49
0.0
 49
0.0
 49
0.0208000000566244
 49
0.0
 49
0.0
 49
0.0
 49
0.0
 49
1.0
 49
0.0
 49
0.0
 49
0.0
 49
0.0
 49
1.0
142
0.0208000000566244
142
0.0
142
0.0
142
0.0
142
0.0
142
0.0208000000566244
142
0.0
142
0.0
142
0.0
142
0.0
142
1.0
142
0.0
142
0.0
142
0.0
142
0.0
142
1.0
144
0.0208000000566244
144
0.0
144
0.0
144
0.0
144
0.0
144
0.0208000000566244
144
0.0
144
0.0
144
0.0
144
0.0
144
1.0
144
0.0
144
0.0
144
0.0
144
0.0
144
1.0
 94
       63
1001
ACAD
1070
    -1
1070
     3
1070
     0
1000

1071
        0
1070
     0
  0
MLEADERSTYLE
  5
E5
102
{ACAD_REACTORS
330
D7
102
}
330
D7
100
AcDbMLeaderStyle
170
     2
171
     1
172
     0
 90
        2
 40
0.0
 41
0.0
173
     1
 91
-1056964608
340
14
 92
       -2
290
     1
 42
0.09
291
     1
 43
0.36
  3
Standard
 44
0.18
300

342
11
174
     1
178
     1
175
     1
176
     0
 93
-1056964608
 45
0.18
292
     0
297
     0
 46
0.18
 94
-1056964608
 47
1.0
 49
1.0
140
1.0
293
     1
141
0.0
294
     1
177
     0
142
1.0
295
     0
296
     1
143
0.125
1001
ACAD_MLEADERVER
1070
     2
  0
MLEADERSTYLE
  5
D8
102
{ACAD_REACTORS
330
D7
102
}
330
D7
100
AcDbMLeaderStyle
170
     2
171
     1
172
     0
 90
        2
 40
0.0
 41
0.0
173
     1
 91
-1056964608
340
14
 92
       -2
290
     1
 42
0.09
291
     1
 43
0.36
  3
Standard
 44
0.18
300

342
11
174
     1
178
     1
175
     1
176
     0
 93
-1056964608
 45
0.18
292
     0
297
     0
 46
0.18
 94
-1056964608
 47
1.0
 49
1.0
140
1.0
293
     1
141
0.0
294
     1
177
     0
142
1.0
295
     0
296
     0
143
0.125
1001
ACAD_MLEADERVER
1070
     2
  0
MLINESTYLE
  5
18
102
{ACAD_REACTORS
330
17
102
}
330
17
100
AcDbMlineStyle
  2
STANDARD
 70
     0
  3

 62
   256
 51
90.0
 52
90.0
 71
     2
 49
0.5
 62
   256
  6
BYLAYER
 49
-0.5
 62
   256
  6
BYLAYER
  0
ACDBPLACEHOLDER
  5
F
102
{ACAD_REACTORS
330
E
102
}
330
E
  0
DICTIONARY
  5
1BF2
330
1BF1
100
AcDbDictionary
280
     1
281
     1
  3
ADSK_XREC_MENTALRAYSETTINGSINFO
360
1BF3
  0
SCALE
  5
B7
102
{ACAD_REACTORS
330
B6
102
}
330
B6
100
AcDbScale
 70
     0
300
1:1
140
1.0
141
1.0
290
     1
  0
SCALE
  5
124
102
{ACAD_REACTORS
330
B6
102
}
330
B6
100
AcDbScale
 70
     0
300
1:2
140
1.0
141
2.0
290
     0
  0
SCALE
  5
125
102
{ACAD_REACTORS
330
B6
102
}
330
B6
100
AcDbScale
 70
     0
300
1:4
140
1.0
141
4.0
290
     0
  0
SCALE
  5
126
102
{ACAD_REACTORS
330
B6
102
}
330
B6
100
AcDbScale
 70
     0
300
1:5
140
1.0
141
5.0
290
     0
  0
SCALE
  5
127
102
{ACAD_REACTORS
330
B6
102
}
330
B6
100
AcDbScale
 70
     0
300
1:8
140
1.0
141
8.0
290
     0
  0
SCALE
  5
128
102
{ACAD_REACTORS
330
B6
102
}
330
B6
100
AcDbScale
 70
     0
300
1:10
140
1.0
141
10.0
290
     0
  0
SCALE
  5
129
102
{ACAD_REACTORS
330
B6
102
}
330
B6
100
AcDbScale
 70
     0
300
1:16
140
1.0
141
16.0
290
     0
  0
SCALE
  5
12A
102
{ACAD_REACTORS
330
B6
102
}
330
B6
100
AcDbScale
 70
     0
300
1:20
140
1.0
141
20.0
290
     0
  0
SCALE
  5
12B
102
{ACAD_REACTORS
330
B6
102
}
330
B6
100
AcDbScale
 70
     0
300
1:30
140
1.0
141
30.0
290
     0
  0
SCALE
  5
12C
102
{ACAD_REACTORS
330
B6
102
}
330
B6
100
AcDbScale
 70
     0
300
1:40
140
1.0
141
40.0
290
     0
  0
SCALE
  5
12D
102
{ACAD_REACTORS
330
B6
102
}
330
B6
100
AcDbScale
 70
     0
300
1:50
140
1.0
141
50.0
290
     0
  0
SCALE
  5
12E
102
{ACAD_REACTORS
330
B6
102
}
330
B6
100
AcDbScale
 70
     0
300
1:100
140
1.0
141
100.0
290
     0
  0
SCALE
  5
12F
102
{ACAD_REACTORS
330
B6
102
}
330
B6
100
AcDbScale
 70
     0
300
2:1
140
2.0
141
1.0
290
     0
  0
SCALE
  5
130
102
{ACAD_REACTORS
330
B6
102
}
330
B6
100
AcDbScale
 70
     0
300
4:1
140
4.0
141
1.0
290
     0
  0
SCALE
  5
131
102
{ACAD_REACTORS
330
B6
102
}
330
B6
100
AcDbScale
 70
     0
300
8:1
140
8.0
141
1.0
290
     0
  0
SCALE
  5
132
102
{ACAD_REACTORS
330
B6
102
}
330
B6
100
AcDbScale
 70
     0
300
10:1
140
10.0
141
1.0
290
     0
  0
SCALE
  5
133
102
{ACAD_REACTORS
330
B6
102
}
330
B6
100
AcDbScale
 70
     0
300
100:1
140
100.0
141
1.0
290
     0
  0
SCALE
  5
134
102
{ACAD_REACTORS
330
B6
102
}
330
B6
100
AcDbScale
 70
     0
300
1/128" = 1'-0"
140
0.0078125
141
12.0
290
     0
  0
SCALE
  5
135
102
{ACAD_REACTORS
330
B6
102
}
330
B6
100
AcDbScale
 70
     0
300
1/64" = 1'-0"
140
0.015625
141
12.0
290
     0
  0
SCALE
  5
136
102
{ACAD_REACTORS
330
B6
102
}
330
B6
100
AcDbScale
 70
     0
300
1/32" = 1'-0"
140
0.03125
141
12.0
290
     0
  0
SCALE
  5
137
102
{ACAD_REACTORS
330
B6
102
}
330
B6
100
AcDbScale
 70
     0
300
1/16" = 1'-0"
140
0.0625
141
12.0
290
     0
  0
SCALE
  5
138
102
{ACAD_REACTORS
330
B6
102
}
330
B6
100
AcDbScale
 70
     0
300
3/32" = 1'-0"
140
0.09375
141
12.0
290
     0
  0
SCALE
  5
139
102
{ACAD_REACTORS
330
B6
102
}
330
B6
100
AcDbScale
 70
     0
300
1/8" = 1'-0"
140
0.125
141
12.0
290
     0
  0
SCALE
  5
13A
102
{ACAD_REACTORS
330
B6
102
}
330
B6
100
AcDbScale
 70
     0
300
3/16" = 1'-0"
140
0.1875
141
12.0
290
     0
  0
SCALE
  5
13B
102
{ACAD_REACTORS
330
B6
102
}
330
B6
100
AcDbScale
 70
     0
300
1/4" = 1'-0"
140
0.25
141
12.0
290
     0
  0
SCALE
  5
13C
102
{ACAD_REACTORS
330
B6
102
}
330
B6
100
AcDbScale
 70
     0
300
3/8" = 1'-0"
140
0.375
141
12.0
290
     0
  0
SCALE
  5
13D
102
{ACAD_REACTORS
330
B6
102
}
330
B6
100
AcDbScale
 70
     0
300
1/2" = 1'-0"
140
0.5
141
12.0
290
     0
  0
SCALE
  5
13E
102
{ACAD_REACTORS
330
B6
102
}
330
B6
100
AcDbScale
 70
     0
300
3/4" = 1'-0"
140
0.75
141
12.0
290
     0
  0
SCALE
  5
13F
102
{ACAD_REACTORS
330
B6
102
}
330
B6
100
AcDbScale
 70
     0
300
1" = 1'-0"
140
1.0
141
12.0
290
     0
  0
SCALE
  5
140
102
{ACAD_REACTORS
330
B6
102
}
330
B6
100
AcDbScale
 70
     0
300
1-1/2" = 1'-0"
140
1.5
141
12.0
290
     0
  0
SCALE
  5
141
102
{ACAD_REACTORS
330
B6
102
}
330
B6
100
AcDbScale
 70
     0
300
3" = 1'-0"
140
3.0
141
12.0
290
     0
  0
SCALE
  5
142
102
{ACAD_REACTORS
330
B6
102
}
330
B6
100
AcDbScale
 70
     0
300
6" = 1'-0"
140
6.0
141
12.0
290
     0
  0
SCALE
  5
143
102
{ACAD_REACTORS
330
B6
102
}
330
B6
100
AcDbScale
 70
     0
300
1'-0" = 1'-0"
140
12.0
141
12.0
290
     0
  0
ACDBSECTIONVIEWSTYLE
  5
1AA
102
{ACAD_XDICTIONARY
360
1C4
102
}
102
{ACAD_REACTORS
330
1A8
102
}
330
1A8
100
AcDbModelDocViewStyle
 70
     0
  3
Imperial24
290
     0
100
AcDbSectionViewStyle
 70
     0
 71
     0
 90
       78
 71
     1
340
11
 62
   256
 40
0.24
340
0
340
0
 62
   256
 40
0.24
300
I, O, Q, S, X, Z
 40
0.48
 90
        3
 40
0.18
 90
        1
 71
     2
340
16
 90
       25
 62
   256
340
16
 90
       50
 62
   256
 40
0.24
 40
0.0
 40
0.24
 71
     3
340
11
 62
   256
 40
0.24
 90
        1
 40
0.75
 90
        1
300
%<\AcVar ViewType \f "%tc1">% %<\AcVar ViewSectionStartId>%-%<\AcVar ViewSectionEndId>%\PSCALE %<\AcVar ViewScale \f "%sn">%
 71
     4
 62
   256
 62
   257
300
ANSI31
 40
1.0
 90
        0
290
     0
290
     0
 90
        6
 40
0.0
 40
1.570796326794896
 40
0.2617993877991494
 40
1.308996938995747
 40
-0.2617993877991494
 40
1.832595714594046
  0
TABLESTYLE
  5
87
102
{ACAD_XDICTIONARY
360
104
102
}
102
{ACAD_REACTORS
330
86
102
}
330
86
100
AcDbTableStyle
  3
Standard
 70
     0
 71
     0
 40
0.06
 41
0.06
280
     0
281
     0
  7
Standard
140
0.18
170
     2
 62
     0
 63
     7
283
     0
 90
      512
 91
        0
  1

274
    -2
284
     1
 64
     0
275
    -2
285
     1
 65
     0
276
    -2
286
     1
 66
     0
277
    -2
287
     1
 67
     0
278
    -2
288
     1
 68
     0
279
    -2
289
     1
 69
     0
  7
Standard
140
0.25
170
     5
 62
     0
 63
     7
283
     0
 90
      512
 91
        0
  1

274
    -2
284
     1
 64
     0
275
    -2
285
     1
 65
     0
276
    -2
286
     1
 66
     0
277
    -2
287
     1
 67
     0
278
    -2
288
     1
 68
     0
279
    -2
289
     1
 69
     0
  7
Standard
140
0.18
170
     5
 62
     0
 63
     7
283
     0
 90
      512
 91
        0
  1

274
    -2
284
     1
 64
     0
275
    -2
285
     1
 65
     0
276
    -2
286
     1
 66
     0
277
    -2
287
     1
 67
     0
278
    -2
288
     1
 68
     0
279
    -2
289
     1
 69
     0
  0
VISUALSTYLE
  5
9F
102
{ACAD_XDICTIONARY
360
1BC9
102
}
102
{ACAD_REACTORS
330
99
102
}
330
99
100
AcDbVisualStyle
  2
2dWireframe
 70
     4
 71
     0
 72
     2
 73
     1
 90
        0
 40
-0.6
 41
-30.0
 62
     5
 63
     7
421
 16777215
 74
     1
 91
        4
 64
     7
 65
   257
 75
     1
175
     1
 42
1.0
 92
        0
 66
   257
 43
1.0
 76
     1
 77
     6
 78
     2
 67
     7
 79
     5
170
     0
171
     0
290
     0
174
     0
 93
        1
 44
0.0
173
     0
291
     0
 45
0.0
1001
ACAD
1000
AcDbSavedByObjectVersion
1070
     0
  0
VISUALSTYLE
  5
9E
102
{ACAD_XDICTIONARY
360
1BC7
102
}
102
{ACAD_REACTORS
330
99
102
}
330
99
100
AcDbVisualStyle
  2
Basic
 70
     7
 71
     1
 72
     0
 73
     1
 90
        0
 40
-0.6
 41
-30.0
 62
     5
 63
     7
421
 16777215
 74
     0
 91
        4
 64
     7
 65
   257
 75
     1
175
     1
 42
1.0
 92
        8
 66
     7
 43
1.0
 76
     1
 77
     6
 78
     2
 67
     7
 79
     5
170
     0
171
     0
290
     0
174
     0
 93
        1
 44
0.0
173
     0
291
     1
 45
0.0
1001
ACAD
1000
AcDbSavedByObjectVersion
1070
     0
  0
VISUALSTYLE
  5
A5
102
{ACAD_XDICTIONARY
360
1BD5
102
}
102
{ACAD_REACTORS
330
99
102
}
330
99
100
AcDbVisualStyle
  2
Brighten
 70
    12
 71
     2
 72
     2
 73
     1
 90
        0
 40
-0.6
 41
-30.0
 62
     5
 63
     7
421
 16777215
 74
     1
 91
        4
 64
     7
 65
   257
 75
     1
175
     1
 42
1.0
 92
        8
 66
     7
 43
1.0
 76
     1
 77
     6
 78
     2
 67
     7
 79
     5
170
     0
171
     0
290
     0
174
     0
 93
        1
 44
50.0
173
     0
291
     1
 45
0.0
1001
ACAD
1000
AcDbSavedByObjectVersion
1070
     0
  0
VISUALSTYLE
  5
A9
102
{ACAD_XDICTIONARY
360
1BDD
102
}
102
{ACAD_REACTORS
330
99
102
}
330
99
100
AcDbVisualStyle
  2
ColorChange
 70
    16
 71
     2
 72
     2
 73
     3
 90
        0
 40
-0.6
 41
-30.0
 62
     5
 63
     8
421
  8421504
 74
     1
 91
        4
 64
     7
 65
   257
 75
     1
175
     1
 42
1.0
 92
        8
 66
     8
424
  8421504
 43
1.0
 76
     1
 77
     6
 78
     2
 67
     7
 79
     5
170
     0
171
     0
290
     0
174
     0
 93
        1
 44
0.0
173
     0
291
     1
 45
0.0
1001
ACAD
1000
AcDbSavedByObjectVersion
1070
     0
  0
VISUALSTYLE
  5
A2
102
{ACAD_XDICTIONARY
360
1BCF
102
}
102
{ACAD_REACTORS
330
99
102
}
330
99
100
AcDbVisualStyle
  2
Conceptual
 70
     9
 71
     3
 72
     2
 73
     1
 90
        0
 40
-0.6
 41
-30.0
 62
     5
 63
     7
421
 16777215
 74
     2
 91
        2
 64
     7
 65
   257
 75
     1
175
     1
 42
40.0
 92
        8
 66
     7
 43
1.0
 76
     1
 77
     6
 78
     2
 67
     7
 79
     3
170
     0
171
     0
290
     0
174
     0
 93
        1
 44
0.0
173
     0
291
     0
 45
0.0
1001
ACAD
1000
AcDbSavedByObjectVersion
1070
     0
  0
VISUALSTYLE
  5
A4
102
{ACAD_XDICTIONARY
360
1BD3
102
}
102
{ACAD_REACTORS
330
99
102
}
330
99
100
AcDbVisualStyle
  2
Dim
 70
    11
 71
     2
 72
     2
 73
     1
 90
        0
 40
-0.6
 41
-30.0
 62
     5
 63
     7
421
 16777215
 74
     1
 91
        4
 64
     7
 65
   257
 75
     1
175
     1
 42
1.0
 92
        8
 66
     7
 43
1.0
 76
     1
 77
     6
 78
     2
 67
     7
 79
     5
170
     0
171
     0
290
     0
174
     0
 93
        1
 44
-50.0
173
     0
291
     1
 45
0.0
1001
ACAD
1000
AcDbSavedByObjectVersion
1070
     0
  0
VISUALSTYLE
  5
175
102
{ACAD_XDICTIONARY
360
1BE3
102
}
102
{ACAD_REACTORS
330
99
102
}
330
99
100
AcDbVisualStyle
  2
EdgeColorOff
 70
    22
 71
     2
 72
     2
 73
     0
 90
        0
 40
-0.6
 41
-30.0
 62
     5
 63
     7
421
 16777215
 74
     1
 91
        4
 64
     7
 65
   257
 75
     1
175
     1
 42
1.0
 92
        8
 66
     7
 43
1.0
 76
     1
 77
     6
 78
     2
 67
     7
 79
     5
170
     0
171
     0
290
     0
174
     0
 93
        1
 44
0.0
173
     0
291
     1
 45
0.0
1001
ACAD
1000
AcDbSavedByObjectVersion
1070
     0
  0
VISUALSTYLE
  5
A8
102
{ACAD_XDICTIONARY
360
1BDB
102
}
102
{ACAD_REACTORS
330
99
102
}
330
99
100
AcDbVisualStyle
  2
Facepattern
 70
    15
 71
     2
 72
     2
 73
     1
 90
        0
 40
-0.6
 41
-30.0
 62
     5
 63
     7
421
 16777215
 74
     1
 91
        4
 64
     7
 65
   257
 75
     1
175
     1
 42
1.0
 92
        8
 66
     7
 43
1.0
 76
     1
 77
     6
 78
     2
 67
     7
 79
     5
170
     0
171
     0
290
     0
174
     0
 93
        1
 44
0.0
173
     0
291
     1
 45
0.0
1001
ACAD
1000
AcDbSavedByObjectVersion
1070
     0
  0
VISUALSTYLE
  5
9A
102
{ACAD_XDICTIONARY
360
1BBF
102
}
102
{ACAD_REACTORS
330
99
102
}
330
99
100
AcDbVisualStyle
  2
Flat
 70
     0
 71
     2
 72
     1
 73
     1
 90
        2
 40
-0.6
 41
30.0
 62
     5
 63
     7
421
 16777215
 74
     0
 91
        0
 64
     7
 65
   257
 75
     1
175
     1
 42
1.0
 92
        8
 66
     7
 43
1.0
 76
     1
 77
     6
 78
     2
 67
     7
 79
     5
170
     0
171
     0
290
     0
174
     0
 93
       13
 44
0.0
173
     0
291
     1
 45
0.0
1001
ACAD
1000
AcDbSavedByObjectVersion
1070
     0
  0
VISUALSTYLE
  5
9B
102
{ACAD_XDICTIONARY
360
1BC1
102
}
102
{ACAD_REACTORS
330
99
102
}
330
99
100
AcDbVisualStyle
  2
FlatWithEdges
 70
     1
 71
     2
 72
     1
 73
     1
 90
        2
 40
-0.6
 41
30.0
 62
     5
 63
     7
421
 16777215
 74
     1
 91
        0
 64
     7
 65
   257
 75
     1
175
     1
 42
1.0
 92
        0
 66
   257
 43
1.0
 76
     1
 77
     6
 78
     2
 67
     7
 79
     5
170
     0
171
     0
290
     0
174
     0
 93
       13
 44
0.0
173
     0
291
     1
 45
0.0
1001
ACAD
1000
AcDbSavedByObjectVersion
1070
     0
  0
VISUALSTYLE
  5
9C
102
{ACAD_XDICTIONARY
360
1BC3
102
}
102
{ACAD_REACTORS
330
99
102
}
330
99
100
AcDbVisualStyle
  2
Gouraud
 70
     2
 71
     2
 72
     2
 73
     1
 90
        2
 40
-0.6
 41
30.0
 62
     5
 63
     7
421
 16777215
 74
     0
 91
        0
 64
     7
 65
   257
 75
     1
175
     1
 42
1.0
 92
        0
 66
     7
 43
1.0
 76
     1
 77
     6
 78
     2
 67
     7
 79
     5
170
     0
171
     0
290
     0
174
     0
 93
       13
 44
0.0
173
     0
291
     1
 45
0.0
1001
ACAD
1000
AcDbSavedByObjectVersion
1070
     0
  0
VISUALSTYLE
  5
9D
102
{ACAD_XDICTIONARY
360
1BC5
102
}
102
{ACAD_REACTORS
330
99
102
}
330
99
100
AcDbVisualStyle
  2
GouraudWithEdges
 70
     3
 71
     2
 72
     2
 73
     1
 90
        2
 40
-0.6
 41
30.0
 62
     5
 63
     7
421
 16777215
 74
     1
 91
        0
 64
     7
 65
   257
 75
     1
175
     1
 42
1.0
 92
        0
 66
   257
 43
1.0
 76
     1
 77
     6
 78
     2
 67
     7
 79
     5
170
     0
171
     0
290
     0
174
     0
 93
       13
 44
0.0
173
     0
291
     1
 45
0.0
1001
ACAD
1000
AcDbSavedByObjectVersion
1070
     0
  0
VISUALSTYLE
  5
A1
102
{ACAD_XDICTIONARY
360
1BCD
102
}
102
{ACAD_REACTORS
330
99
102
}
330
99
100
AcDbVisualStyle
  2
Hidden
 70
     6
 71
     1
 72
     2
 73
     2
 90
        0
 40
-0.6
 41
-30.0
 62
     5
 63
     7
421
 16777215
 74
     2
 91
        2
 64
     7
 65
   257
 75
     2
175
     1
 42
40.0
 92
        0
 66
   257
 43
1.0
 76
     1
 77
     6
 78
     2
 67
     7
 79
     3
170
     0
171
     0
290
     0
174
     0
 93
        1
 44
0.0
173
     0
291
     0
 45
0.0
1001
ACAD
1000
AcDbSavedByObjectVersion
1070
     0
  0
VISUALSTYLE
  5
173
102
{ACAD_XDICTIONARY
360
1BDF
102
}
102
{ACAD_REACTORS
330
99
102
}
330
99
100
AcDbVisualStyle
  2
JitterOff
 70
    20
 71
     2
 72
     2
 73
     0
 90
        0
 40
-0.6
 41
-30.0
 62
     5
 63
     7
421
 16777215
 74
     1
 91
        4
 64
     7
 65
   257
 75
     1
175
     1
 42
1.0
 92
       10
 66
     7
 43
1.0
 76
     1
 77
     6
 78
     2
 67
     7
 79
     5
170
     0
171
     0
290
     0
174
     0
 93
        1
 44
0.0
173
     0
291
     1
 45
0.0
1001
ACAD
1000
AcDbSavedByObjectVersion
1070
     0
  0
VISUALSTYLE
  5
A7
102
{ACAD_XDICTIONARY
360
1BD9
102
}
102
{ACAD_REACTORS
330
99
102
}
330
99
100
AcDbVisualStyle
  2
Linepattern
 70
    14
 71
     2
 72
     2
 73
     1
 90
        0
 40
-0.6
 41
-30.0
 62
     5
 63
     7
421
 16777215
 74
     1
 91
        4
 64
     7
 65
   257
 75
     7
175
     7
 42
1.0
 92
        8
 66
     7
 43
1.0
 76
     1
 77
     6
 78
     2
 67
     7
 79
     5
170
     0
171
     0
290
     0
174
     0
 93
        1
 44
0.0
173
     0
291
     1
 45
0.0
1001
ACAD
1000
AcDbSavedByObjectVersion
1070
     0
  0
VISUALSTYLE
  5
174
102
{ACAD_XDICTIONARY
360
1BE1
102
}
102
{ACAD_REACTORS
330
99
102
}
330
99
100
AcDbVisualStyle
  2
OverhangOff
 70
    21
 71
     2
 72
     2
 73
     0
 90
        0
 40
-0.6
 41
-30.0
 62
     5
 63
     7
421
 16777215
 74
     1
 91
        4
 64
     7
 65
   257
 75
     1
175
     1
 42
1.0
 92
        9
 66
     7
 43
1.0
 76
     1
 77
     6
 78
     2
 67
     7
 79
     5
170
     0
171
     0
290
     0
174
     0
 93
        1
 44
0.0
173
     0
291
     1
 45
0.0
1001
ACAD
1000
AcDbSavedByObjectVersion
1070
     0
  0
VISUALSTYLE
  5
A3
102
{ACAD_XDICTIONARY
360
1BD1
102
}
102
{ACAD_REACTORS
330
99
102
}
330
99
100
AcDbVisualStyle
  2
Realistic
 70
     8
 71
     2
 72
     3
 73
     0
 90
        2
 40
-0.6
 41
30.0
 62
     5
 63
     7
421
 16777215
 74
     0
 91
        0
 64
     7
 65
   257
 75
     1
175
     1
 42
1.0
 92
        8
 66
   257
 43
1.0
 76
     1
 77
     6
 78
     2
 67
     7
 79
     3
170
     0
171
     0
290
     0
174
     0
 93
       13
 44
0.0
173
     0
291
     0
 45
0.0
1001
ACAD
1000
AcDbSavedByObjectVersion
1070
     0
  0
VISUALSTYLE
  5
182
102
{ACAD_XDICTIONARY
360
1BED
102
}
102
{ACAD_REACTORS
330
99
102
}
330
99
100
AcDbVisualStyle
  2
Shaded
 70
    27
 71
     2
 72
     2
 73
     1
 90
        2
 40
-0.6
 41
30.0
 62
     5
 63
     7
421
 16777215
 74
     0
 91
        4
 64
     7
 65
   257
 75
     1
175
     1
 42
1.0
 92
        8
 66
   257
 43
1.0
 76
     1
 77
     6
 78
     2
 67
     8
425
  7895160
 79
     3
170
     0
171
     0
290
     0
174
     0
 93
        5
 44
0.0
173
     0
291
     0
 45
0.0
1001
ACAD
1000
AcDbSavedByObjectVersion
1070
     0
  0
VISUALSTYLE
  5
181
102
{ACAD_XDICTIONARY
360
1BEB
102
}
102
{ACAD_REACTORS
330
99
102
}
330
99
100
AcDbVisualStyle
  2
Shaded with edges
 70
    26
 71
     2
 72
     2
 73
     1
 90
        2
 40
-0.6
 41
30.0
 62
     5
 63
     7
421
 16777215
 74
     1
 91
        2
 64
     7
 65
   257
 75
     2
175
     1
 42
1.0
 92
        8
 66
   257
 43
1.0
 76
     1
 77
     6
 78
     2
 67
     7
 79
     3
170
     0
171
     0
290
     0
174
     0
 93
        5
 44
0.0
173
     0
291
     0
 45
0.0
1001
ACAD
1000
AcDbSavedByObjectVersion
1070
     0
  0
VISUALSTYLE
  5
17E
102
{ACAD_XDICTIONARY
360
1BE5
102
}
102
{ACAD_REACTORS
330
99
102
}
330
99
100
AcDbVisualStyle
  2
Shades of Gray
 70
    23
 71
     2
 72
     2
 73
     3
 90
        0
 40
-0.6
 41
-30.0
 62
     5
 63
     7
421
 16777215
 74
     2
 91
        2
 64
     7
 65
     7
 75
     1
175
     1
 42
40.0
 92
        8
 66
     7
 43
1.0
 76
     1
 77
     6
 78
     2
 67
     7
 79
     3
170
     0
171
     0
290
     0
174
     0
 93
        1
 44
0.0
173
     0
291
     0
 45
0.0
1001
ACAD
1000
AcDbSavedByObjectVersion
1070
     0
  0
VISUALSTYLE
  5
17F
102
{ACAD_XDICTIONARY
360
1BE7
102
}
102
{ACAD_REACTORS
330
99
102
}
330
99
100
AcDbVisualStyle
  2
Sketchy
 70
    24
 71
     1
 72
     2
 73
     2
 90
        0
 40
-0.6
 41
-30.0
 62
     5
 63
     7
421
 16777215
 74
     2
 91
        2
 64
     7
 65
     7
 75
     1
175
     1
 42
40.0
 92
       11
 66
     7
 43
1.0
 76
     1
 77
     6
 78
     2
 67
     7
 79
     6
170
     0
171
     0
290
     0
174
     0
 93
        1
 44
0.0
173
     0
291
     0
 45
0.0
1001
ACAD
1000
AcDbSavedByObjectVersion
1070
     0
  0
VISUALSTYLE
  5
A6
102
{ACAD_XDICTIONARY
360
1BD7
102
}
102
{ACAD_REACTORS
330
99
102
}
330
99
100
AcDbVisualStyle
  2
Thicken
 70
    13
 71
     2
 72
     2
 73
     1
 90
        0
 40
-0.6
 41
-30.0
 62
     5
 63
     7
421
 16777215
 74
     1
 91
        4
 64
     7
 65
   257
 75
     1
175
     1
 42
1.0
 92
       12
 66
     7
 43
1.0
 76
     1
 77
     6
 78
     2
 67
     7
 79
     5
170
     0
171
     0
290
     0
174
     0
 93
        1
 44
0.0
173
     0
291
     1
 45
0.0
1001
ACAD
1000
AcDbSavedByObjectVersion
1070
     0
  0
VISUALSTYLE
  5
A0
102
{ACAD_XDICTIONARY
360
1BCB
102
}
102
{ACAD_REACTORS
330
99
102
}
330
99
100
AcDbVisualStyle
  2
Wireframe
 70
     5
 71
     0
 72
     2
 73
     0
 90
        0
 40
-0.6
 41
-30.0
 62
     5
 63
     7
421
 16777215
 74
     1
 91
        4
 64
     7
 65
   257
 75
     1
175
     1
 42
1.0
 92
        0
 66
   257
 43
1.0
 76
     1
 77
     6
 78
     2
 67
     7
 79
     3
170
     0
171
     0
290
     0
174
     0
 93
        1
 44
0.0
173
     0
291
     0
 45
0.0
1001
ACAD
1000
AcDbSavedByObjectVersion
1070
     0
  0
VISUALSTYLE
  5
180
102
{ACAD_XDICTIONARY
360
1BE9
102
}
102
{ACAD_REACTORS
330
99
102
}
330
99
100
AcDbVisualStyle
  2
X-Ray
 70
    25
 71
     2
 72
     2
 73
     1
 90
        1
 40
0.5
 41
-30.0
 62
     5
 63
     7
421
 16777215
 74
     1
 91
        0
 64
     7
 65
   257
 75
     1
175
     1
 42
1.0
 92
        8
 66
     7
 43
1.0
 76
     1
 77
     6
 78
     2
 67
     7
 79
     3
170
     0
171
     0
290
     0
174
     0
 93
       13
 44
0.0
173
     0
291
     0
 45
0.0
1001
ACAD
1000
AcDbSavedByObjectVersion
1070
     0
  0
DICTIONARYVAR
  5
F0
102
{ACAD_REACTORS
330
66
102
}
330
66
100
DictionaryVariables
280
     0
  1
1:1
  0
DICTIONARYVAR
  5
EF
102
{ACAD_REACTORS
330
66
102
}
330
66
100
DictionaryVariables
280
     0
  1
STANDARD
  0
DICTIONARYVAR
  5
89
102
{ACAD_REACTORS
330
66
102
}
330
66
100
DictionaryVariables
280
     0
  1
STANDARD
  0
DICTIONARYVAR
  5
1B7
102
{ACAD_REACTORS
330
66
102
}
330
66
100
DictionaryVariables
280
     0
  1
Imperial24
  0
DICTIONARYVAR
  5
1B8
102
{ACAD_REACTORS
330
66
102
}
330
66
100
DictionaryVariables
280
     0
  1
Imperial24
  0
DICTIONARYVAR
  5
67
102
{ACAD_REACTORS
330
66
102
}
330
66
100
DictionaryVariables
280
     0
  1
2
  0
DICTIONARYVAR
  5
6B
102
{ACAD_REACTORS
330
66
102
}
330
66
100
DictionaryVariables
280
     0
  1
1
  0
DICTIONARYVAR
  5
14D
102
{ACAD_REACTORS
330
66
102
}
330
66
100
DictionaryVariables
280
     0
  1
0
  0
DICTIONARYVAR
  5
14E
102
{ACAD_REACTORS
330
66
102
}
330
66
100
DictionaryVariables
280
     0
  1
0
  0
DICTIONARYVAR
  5
19A0
102
{ACAD_REACTORS
330
66
102
}
330
66
100
DictionaryVariables
280
     0
  1
2
  0
DICTIONARY
  5
1BBE
102
{ACAD_REACTORS
330
1BBC
102
}
330
1BBC
100
AcDbDictionary
281
     1
  0
DICTIONARY
  5
1BBD
102
{ACAD_REACTORS
330
1BBC
102
}
330
1BBC
100
AcDbDictionary
281
     1
  3
3103214414064
350
1BB7
  3
3103214414080
350
1BB8
  3
3103214414096
350
1BB9
  3
3103214414112
350
1BBA
  3
3103214414128
350
1BBB
  0
DICTIONARY
  5
1C6
330
1AC
100
AcDbDictionary
280
     1
281
     1
  3
ACAD_XREC_ROUNDTRIP
360
1BF0
  0
DICTIONARY
  5
194
330
22
100
AcDbDictionary
280
     1
281
     1
  0
DICTIONARY
  5
188
330
97
100
AcDbDictionary
280
     1
281
     1
  3
FBXASSET
360
189
  0
DICTIONARY
  5
186
330
96
100
AcDbDictionary
280
     1
281
     1
  3
FBXASSET
360
187
  0
DICTIONARY
  5
110
330
98
100
AcDbDictionary
280
     1
281
     1
  3
BUMPTILE
360
112
  3
DIFFUSETILE
360
111
  3
FBXASSET
360
18A
  3
OPACITYTILE
360
113
  3
REFLECTIONTILE
360
114
  0
XRECORD
  5
1BF3
102
{ACAD_REACTORS
330
1BF2
102
}
330
1BF2
100
AcDbXrecord
280
     1
 70
     2
 71
     3
 72
     0
  0
DICTIONARY
  5
1C4
330
1AA
100
AcDbDictionary
280
     1
281
     1
  3
ACAD_XREC_ROUNDTRIP
360
1BEF
  0
DICTIONARY
  5
104
330
87
100
AcDbDictionary
280
     1
281
     1
  3
ACAD_ROUNDTRIP_2008_TABLESTYLE_CELLSTYLEMAP
360
1BB5
  0
DICTIONARY
  5
1BC9
330
9F
100
AcDbDictionary
280
     1
281
     1
  3
ACAD_XREC_ROUNDTRIP
360
1BCA
  0
DICTIONARY
  5
1BC7
330
9E
100
AcDbDictionary
280
     1
281
     1
  3
ACAD_XREC_ROUNDTRIP
360
1BC8
  0
DICTIONARY
  5
1BD5
330
A5
100
AcDbDictionary
280
     1
281
     1
  3
ACAD_XREC_ROUNDTRIP
360
1BD6
  0
DICTIONARY
  5
1BDD
330
A9
100
AcDbDictionary
280
     1
281
     1
  3
ACAD_XREC_ROUNDTRIP
360
1BDE
  0
DICTIONARY
  5
1BCF
330
A2
100
AcDbDictionary
280
     1
281
     1
  3
ACAD_XREC_ROUNDTRIP
360
1BD0
  0
DICTIONARY
  5
1BD3
330
A4
100
AcDbDictionary
280
     1
281
     1
  3
ACAD_XREC_ROUNDTRIP
360
1BD4
  0
DICTIONARY
  5
1BE3
330
175
100
AcDbDictionary
280
     1
281
     1
  3
ACAD_XREC_ROUNDTRIP
360
1BE4
  0
DICTIONARY
  5
1BDB
330
A8
100
AcDbDictionary
280
     1
281
     1
  3
ACAD_XREC_ROUNDTRIP
360
1BDC
  0
DICTIONARY
  5
1BBF
330
9A
100
AcDbDictionary
280
     1
281
     1
  3
ACAD_XREC_ROUNDTRIP
360
1BC0
  0
DICTIONARY
  5
1BC1
330
9B
100
AcDbDictionary
280
     1
281
     1
  3
ACAD_XREC_ROUNDTRIP
360
1BC2
  0
DICTIONARY
  5
1BC3
330
9C
100
AcDbDictionary
280
     1
281
     1
  3
ACAD_XREC_ROUNDTRIP
360
1BC4
  0
DICTIONARY
  5
1BC5
330
9D
100
AcDbDictionary
280
     1
281
     1
  3
ACAD_XREC_ROUNDTRIP
360
1BC6
  0
DICTIONARY
  5
1BCD
330
A1
100
AcDbDictionary
280
     1
281
     1
  3
ACAD_XREC_ROUNDTRIP
360
1BCE
  0
DICTIONARY
  5
1BDF
330
173
100
AcDbDictionary
280
     1
281
     1
  3
ACAD_XREC_ROUNDTRIP
360
1BE0
  0
DICTIONARY
  5
1BD9
330
A7
100
AcDbDictionary
280
     1
281
     1
  3
ACAD_XREC_ROUNDTRIP
360
1BDA
  0
DICTIONARY
  5
1BE1
330
174
100
AcDbDictionary
280
     1
281
     1
  3
ACAD_XREC_ROUNDTRIP
360
1BE2
  0
DICTIONARY
  5
1BD1
330
A3
100
AcDbDictionary
280
     1
281
     1
  3
ACAD_XREC_ROUNDTRIP
360
1BD2
  0
DICTIONARY
  5
1BED
330
182
100
AcDbDictionary
280
     1
281
     1
  3
ACAD_XREC_ROUNDTRIP
360
1BEE
  0
DICTIONARY
  5
1BEB
330
181
100
AcDbDictionary
280
     1
281
     1
  3
ACAD_XREC_ROUNDTRIP
360
1BEC
  0
DICTIONARY
  5
1BE5
330
17E
100
AcDbDictionary
280
     1
281
     1
  3
ACAD_XREC_ROUNDTRIP
360
1BE6
  0
DICTIONARY
  5
1BE7
330
17F
100
AcDbDictionary
280
     1
281
     1
  3
ACAD_XREC_ROUNDTRIP
360
1BE8
  0
DICTIONARY
  5
1BD7
330
A6
100
AcDbDictionary
280
     1
281
     1
  3
ACAD_XREC_ROUNDTRIP
360
1BD8
  0
DICTIONARY
  5
1BCB
330
A0
100
AcDbDictionary
280
     1
281
     1
  3
ACAD_XREC_ROUNDTRIP
360
1BCC
  0
DICTIONARY
  5
1BE9
330
180
100
AcDbDictionary
280
     1
281
     1
  3
ACAD_XREC_ROUNDTRIP
360
1BEA
  0
XRECORD
  5
1BB7
102
{ACAD_REACTORS
330
1BBD
102
}
330
1BBD
100
AcDbXrecord
280
     1
  1
AcDb_Thumbnail_Schema
102
{ATTRRECORD
341
1BB8
  2
AcDbDs::TreatedAsObjectData
280
     1
291
     1
102
ATTRRECORD}
102
{ATTRRECORD
341
1BB9
  2
AcDbDs::Legacy
280
     1
291
     1
102
ATTRRECORD}
  2
AcDbDs::ID
280
    10
 91
        8
102
{ATTRRECORD
341
1BBA
  2
AcDs:Indexable
280
     1
291
     1
102
ATTRRECORD}
102
{ATTRRECORD
341
1BBB
  2
AcDbDs::HandleAttribute
280
     7
282
     1
102
ATTRRECORD}
  2
Thumbnail_Data
280
    15
 91
        0
  0
XRECORD
  5
1BB8
102
{ACAD_REACTORS
330
1BBD
102
}
330
1BBD
100
AcDbXrecord
280
     1
  1
AcDbDs::TreatedAsObjectDataSchema
  2
AcDbDs::TreatedAsObjectData
280
     1
 91
        0
  0
XRECORD
  5
1BB9
102
{ACAD_REACTORS
330
1BBD
102
}
330
1BBD
100
AcDbXrecord
280
     1
  1
AcDbDs::LegacySchema
  2
AcDbDs::Legacy
280
     1
 91
        0
  0
XRECORD
  5
1BBA
102
{ACAD_REACTORS
330
1BBD
102
}
330
1BBD
100
AcDbXrecord
280
     1
  1
AcDbDs::IndexedPropertySchema
  2
AcDs:Indexable
280
     1
 91
        0
  0
XRECORD
  5
1BBB
102
{ACAD_REACTORS
330
1BBD
102
}
330
1BBD
100
AcDbXrecord
280
     1
  1
AcDbDs::HandleAttributeSchema
  2
AcDbDs::HandleAttribute
280
     7
 91
        1
284
     1
  0
XRECORD
  5
1BF0
102
{ACAD_REACTORS
330
1C6
102
}
330
1C6
100
AcDbXrecord
280
     1
102
DISPLAYNAME
  1
Imperial24
102
FLAGS
 90
        0
  0
XRECORD
  5
189
102
{ACAD_REACTORS
330
188
102
}
330
188
100
AcDbXrecord
280
     1
 70
     1
 90
429727718
  1
508B35C9-AEE7-456F-BE74-D52651303AC6
310
504B03040A0000080000B670623B3DEE336E79000000790000001B0000006175746F6465736B2D64657369676E2D7061636B6167652E786D6C3C3F786D6C2076657273696F6E3D22312E302220656E636F64696E673D227574662D3822203F3E3C666F726D6174733E3C666F726D61743E687474703A2F2F736368656D612E
310
6175746F6465736B2E636F6D2F64657369676E2D7061636B6167652F323030393C2F666F726D61743E3C2F666F726D6174733E504B0304140006080800B670623BD486FD9CA0000000F4000000130000005B436F6E74656E745F54797065735D2E786D6C7D8EC10E82300C865F65E91D8A1E8C310C0EEA1BF002731658846E
310
D98AC1B77784ABF1D8FE5FBFBF75BBCE937A534CCEB38643598122B6FEE978D0B0485F9C41B54DDD7D022595594E1A469170414C76A4D9A4D207E29CF43ECE46F218070CC6BECC4078ACAA135ACF422C856C0E68EA1BF5669944DDD7BCDE7B1F8E415D77AECB980613C2E4AC91FC167A2B244592486606FC29C8FD7F045B9A
310
EF7053A7E60B504B0304140006080800B670623B28ED286BEB0000007C01000008000000636F72652E786D6C8D90416EC3201045AF82665B6183218D6D61A254764FD00B204C5C94182C03558F5F9C3852BBEB6A467FFE9B197D71FA9E6FE8CBACC17AD7012D0820E3B41FAD9B3A48F1826B40272956EFE32F1B20A766D3C1
310
268314D3EAD3B24BDABB685CCCAAF3A3D94515828980F42D371D04FD696655A814B3235C8B45E9AB9A4C419F5D8653B2237A1CB163DE672FD6AC209BF3C08E0D1B30EB19C3FC9D72FCC6EB231EFA33EDE96BDD341517E5064B11EDFCBCAF57A3A2194156843498524CAA0FCA5B7268F9E185D42D21A2DCEC7FA0B48CFF8492
310
759155FBBB0F2C80A4F991FB408A72CB22977B50B96EB9C91F504B0304140006080800B670623B55019EA25F0000007C00000007000000636E782E786D6C4DCB3B0E80201045D1AD90E915ED2CF8AC45050C11660C8261F98AB1B07AC9C97D42D718D865D3E909258CFD00CCE24AC6E326A164D74DC0B4128928FF32603847
310
2BA13128B1252AC747C6BAB984FC68F0B87FE8960A5C09FE86CFB69FBA01504B0304140006080800B670623B7BC41AC871010000D40300000C0000006662782F636F72652E786D6CC553ED6E8320147D15C2DF4501B56B6D90A64BBB27D80B50A5CE54C120983EFEAE1F4DD7A56BBA5FF3879273EEE59E7310BE393735EA95
310
ED2AA333CC428A91D2B9292A5D66D8BB63B0C26823B835C67D2BC348CB46657880B1E0A535BE9DA1DC68A7B403549B42CDA0EC3AE530CA6B5864B8CB3F552343E91D5474A7B095F949962A6421D0502778E72C0840D390E18DC5F170E664C205F7BE2A66B62A605A75AC94C522DDEEE3651AEF837817C741F2CE92E02D592D
310
83FD6ECB76EC7595A651C2C9D02CB8AB9A8BBADC2AE954814544691A3016D0E883256BBA58278B17BA5A53CAC9507ED3E4DBE2C9265F691747B3DCA9ADC382819091F8E1162272A8933DE82182932144F88C09DF060D8140C84E1EEA8B8F1340BDCA9DB1093085F157AA97B557309586747CD0EF0B4EA64E983A6E0EAEEFCE
310
889E9EF17847386AA94B30211D2C0FDE0D3AF9A4610EAD5536E8DD1969631B593F67E381C33F5157F17725E5A636F6BF1491F980C8FC7B90E13E8A2F504B0304140006080800B670623B70102A487D0000009D0000000B0000006662782F636E782E786D6C4DCCD10A83201886E15B91FFDC95A5C30335ACCDFB886521330D
310
A76397BF1A1DECE883878F57749FD5A3B74D2F17830472A901D9F088930B8B849267CC01754AA418F3DF0D5018572BE160506249B16C274D761E8BCFBB7A179E27F65CB39A0F14D396184C9921B81F34C3ACA1B4B99ABB6E6F062A25AA5F69DF23ACBE504B0304140006080800B670623B3610CA3329010000120200003100
310
00006662782F42384135303843342D343331462D343546312D424341352D3532343432364645413344462F636F72652E786D6C8D515B6EC32010BC0AE22B55850D0E446E848992B43E412FE000495162B07854397EA176A4F62F3F2C9A9D991D58BEBB8F37F0AD7D30CE76905418026DA553C65E3A98E219B510EC04F7CEC5
310
3F3408EC30EA0E16180A7EF12E4D0B249D8DDAC68C5AA7F4020E21E80881BCE54B0783FCD2E3500D296646B856D320AFC34557A4CAEDCC133C449F0380794839A138B47B86DB2345744D7A44594FD0E1B867883594369BFE63BF7EEF793D0B054FC9A8456E548E63CE46FB674D8A58F068C6477CE9F510B582A2C1F80D1182
310
70F349E816B32D65AFB8DD62CCEB42FF274A937A52948C8DEB66893BCB021484D7734370E5D2E9F608A3EF93F3119479ABA0E50B14B8C298119A43CCC4FCFCECB8A18B6388CEE7EF5D5D4F994BD86CBBA182D76543B9FCAE2FD7B24DF103504B0304140006080800B670623B1B8617914E0100003303000030000000666278
310
2F42384135303843342D343331462D343546312D424341352D3532343432364645413344462F636E782E786D6CD593C16EC32010447F0571AD6CE3D489D20813A9877E410FBD62D82434182CC055F3F75D1292E692438FBD206B7698593D61BEFD1E2DF982108D773D6D6B460938E5B571FB9ECE6957AD29D90A1EBC4F7736
310
4A9C1CA1A759A682EF839FA72269D8C9D92654AD71C72206887E0E0A22CAF926B15E498B01E0AA19451807D01A34B919F16B070157417138917400F2F6FA41FCF0092A45DEE414C19BDC21783E4BD39D891265658C3D8DEA00A3ACE59CBC8678ACB54CB26EEB6BD7839D7E9348BE70AD9C8321B9BCA7F9A4A26C542347DEE0
310
50F09802D22BA6749A800A394DD62899107273365E3C82CFC6A55557BC06C10774B7ABE7AEC3B0F34CF06446280E154026D0542C187BA9DAB6628BF7B6DBB0E5A65B3EB1F58631DE64BBE083F7B65CC218087E22CABB042E51D1F2268F1FE12B3EA24D40D63E9CFE00120194D60B9D5BC67FE6D39CDF37E20AF817881F504B
310
0304140006080800B670623BBFEF2E3B690500003C100000340000006662782F42384135303843342D343331462D343546312D424341352D3532343432364645413344462F6F626A656374732E786D6CAD575D739B3814FD2B0CFB0C98D84E931D4227B6938EA793B6534F3BFB90198F0099B001899144EAECAFDF231018B0
310
D37A3FFC609090EEE7B94757C1FB7D915B2F54C88CB31BDB7727B64559CC938CA53776A576CE956DBD0F03C1B9EA2DB32D460A7A63EB693B0C52C1ABD24C257447AA5C8D66EF177F5832A68CDA569C13296F6C193FD182B8A4523CA1F2D94D88226EBADBBBBEDB2C1C8A4D05299F46424B222853B014F30C52ACC6287F389C
310
D85E1878FA7B18E87FB36AFAF62AAFF667A83F635211161F291B8999FAB3D5DDC5FCDA99CF6653677679E13B8BFBC5CAF1DF4D27CBCBE5F2FAF6EE1A8AA51290642C117467871F101B91C581D77CEA2C36869F3229E68CD1B8F61F1ED6361B89092D294B90C78C4A68EB793D190E7D1D9BDEE7A91E1B95FDE9F3BCEAEFE809
310
6A6D6F9F7D4B79F4275C90E7A04248AA51D5C4C738DAE06F72885AC4796EBE65D22A88A22223B995679120E2D50EB1542F098381188D4EA111AE3DB043FF20AF6F2B4AE3D7D83D65E5AECA730D4D3BAC91BD05FEA992B565D95F549CD6069B90AB2A63EACA38A45E4B6A87D781574F86817E4C2FCCC72690D62E2729520E37
310
9BAF234797BAF6D62B3BFC781FED37BA1E4F2B2F052FA9501A3E80569BB8F6A9A364D4FA67654E6F803383981F82F21591FF84F23D9882BC896C3FDBCF8C162508933B2E0AE4C69DD43F6BD2BE38DDDBF10BF86CB4FA784D37F3AF16075E67EC9030DECA1FC0A55373F5DFF3378C591FA9BDF485C10B0A8C8BA909E5262639
310
A8E72163488806A595734C81CB77D1DE0ED7604A303B76913CEC0272F412782FF88EFF4636D8AA56DF7B322474C4B767303F625997056C7B032C473C592B36CEBD15F3F9FF5233B7ABCDC74D257624A60F8658567497B14CE1EC3C80B76FD02011038F9EE9EB0F2E12387A9C844D3F09855125116D1D731DF8B43D2CF4E0A0
310
79A020C6BE946BCE0B7EA1E1219331CD73C228AF5A2DDD31A4B1DA918CE91350854D40A71723140BFA92E94E62B0626016CEFA5864A50E5977E8753CEDBEE1CBB7F52780D20E17AF0BA0F5F9B02A3AD07DCC732EB6D1EBB661421BE0C39E21BABF0FE16D22EA6929407C8DE596724C88B749B6DB5512BC7B228ADFD7CB7EA6
310
3A22397E690BA8D5D8D4E40CEC8CDA23C2C0B7D5898640101CEC9C6D331CE328CB93CAFBBAC70A642DF70DF95155945B52F08AA973C23469FD69ADEF84F7BB18F983A8F8C90E37F5D35980B2139A1C523540813E824EF83448CF7C72B598CE97D7CEEDDDDD3B6736BFBC771677EF66CE6A7E7139F7A793E9EDF2B2B3A8B624
310
0CDA13AA5F8388264EC4A0129909F3B7F5A16CEDF08128E97D680ACA4B9BE7B7B58BB638F0B00700EF36AE8B32A705658A68F83EE897FC2B41573190D1CCAF0B92D233A47CFEB019D9809933F67DD1A5467F8CF69AD9A5AE859342D45355448C64F968A371DC2D596ADC6E43D93D1B466F877A64E2893E54F23C4B40388995
310
525E5005DA3983ED45412510D3EFCA13737B3863F74BD30F2A12E5B4B5E489A025CE25500DB855B11ACE5BBFA185D35DD48D8DC3CE7DC69F2944DB42AA6F6CF09BCA622ADD08C7A36E7C6AE18000BAB08E040135C2D21C9D75B3A91B77BB746C403F38018DFE6EC939DD92F16B40BC05294B9CDA035AAD6D330AE27FE4786B
310
8E45145EA34A75BE1C263A676A35A8ACC6297337400BF16C54EF515F3F77CB77EB3583889C754FFA29081AA98E2222ADEF05DA3E63D2EDEA8B8756C05A7FB6CABC4A91CBF325398202CC952E70A008A830324BA200D5E5EF8F5F04C75DB4B0EE3340E071C98B823333B83577596BF3849B69F2085AA0FAFA212F26BEFF5877
310
FDE622B28D88A42E49E43326DA82D31E8CB006401E1DA726059ECEC168F97A6599036306A135688F9AD2E61A6EA178F4CD51974A9F2CCB9F36FE5EBD14601068D9C3BF01504B0304140006080000B670623B000000000000000000000000350000006662782F42384135303843342D343331462D343546312D424341352D35
310
32343432364645413344462F76657274696365732E62696E504B0304140006080800B670623BF270F1330600000004000000360000006662782F42384135303843342D343331462D343546312D424341352D3532343432364645413344462F747269616E676C65732E62696E636660600000504B0304140006080000B67062
310
3B000000000000000000000000370000006662782F42384135303843342D343331462D343546312D424341352D3532343432364645413344462F617474726962757465732E62696E504B0304140006080800B670623B08DA0BD19000000041010000360000006662782F42384135303843342D343331462D343546312D4243
310
41352D3532343432364645413344462F6469726563746F72792E786D6C858F410AC3201045AF22B36F53E9A60B35CBEEBAE80D244E44489C6234F4F835464A48035D0DF398FF9F8AF63D0E6CC63039F212F8F9020C7D47C6792B21C5FE7403D62A1188E2E60C98D7234A5830286103A55745067B9D86B8A3CF9C7F90C11DE6
310
07FB144396D7B6A82D282E9A152AD114D5EF2CB866EEE831B8EEA07A7BB5A8D7D61A2BAAEB7FD5F70921FF497D00504B0304140006080800B670623B3B4606F3FE000000A00100003B0000006662782F42384135303843342D343331462D343546312D424341352D3532343432364645413344462F7265736F75726365732F
310
636F72652E786D6C8D504B6E833010BD0A9A6D65B08134808CA354A427E8052C332156828DFCA97AFC9A40A576D7CDCCE87D344F8F9FBEE647F689CE6B6B7A6039850C8DB2A336530F315C4903D94970676DF82583CCC8197B5861107C72362E3BA4AC096842428D1D7107A5F71820538F74F4E0D50D6799CB1892C2DFF345
310
AABB9C306779A2934E701F5C0A906D4FD609C2A1B7D129F4BCD858C163D4E3AED163FAA9AF1A1D88F67CA98E6D35906AA82A52BFB39ABCD5CD915C86331BD86BD3B665CD8BD52C78D0F34F46E550061C419494B6843142CB0F5677F4D0D58717DA7494F26295FF31C565FCA7296A13AA728FBBD93C0896823C09C18BB5AFB4
310
9E65A6BD762BBE01504B010214000A0000080000B670623B3DEE336E79000000790000001B00000000000000000000000000000000006175746F6465736B2D64657369676E2D7061636B6167652E786D6C504B01021400140006080800B670623BD486FD9CA0000000F40000001300000000000000000000000000B2000000
310
5B436F6E74656E745F54797065735D2E786D6C504B01021400140006080800B670623B28ED286BEB0000007C010000080000000000000000000000000083010000636F72652E786D6C504B01021400140006080800B670623B55019EA25F0000007C000000070000000000000000000000000094020000636E782E786D6C50
310
4B01021400140006080800B670623B7BC41AC871010000D40300000C00000000000000000000000000180300006662782F636F72652E786D6C504B01021400140006080800B670623B70102A487D0000009D0000000B00000000000000000000000000B30400006662782F636E782E786D6C504B01021400140006080800B6
310
70623B3610CA3329010000120200003100000000000000000000000000590500006662782F42384135303843342D343331462D343546312D424341352D3532343432364645413344462F636F72652E786D6C504B01021400140006080800B670623B1B8617914E010000330300003000000000000000000000000000D10600
310
006662782F42384135303843342D343331462D343546312D424341352D3532343432364645413344462F636E782E786D6C504B01021400140006080800B670623BBFEF2E3B690500003C10000034000000000000000000000000006D0800006662782F42384135303843342D343331462D343546312D424341352D35323434
310
32364645413344462F6F626A656374732E786D6C504B01021400140006080000B670623B0000000000000000000000003500000000000000000000000000280E00006662782F42384135303843342D343331462D343546312D424341352D3532343432364645413344462F76657274696365732E62696E504B010214001400
310
06080800B670623BF270F133060000000400000036000000000000000000000000007B0E00006662782F42384135303843342D343331462D343546312D424341352D3532343432364645413344462F747269616E676C65732E62696E504B01021400140006080000B670623B00000000000000000000000037000000000000
310
00000000000000D50E00006662782F42384135303843342D343331462D343546312D424341352D3532343432364645413344462F617474726962757465732E62696E504B01021400140006080800B670623B08DA0BD1900000004101000036000000000000000000000000002A0F00006662782F42384135303843342D3433
310
31462D343546312D424341352D3532343432364645413344462F6469726563746F72792E786D6C504B01021400140006080800B670623B3B4606F3FE000000A00100003B000000000000000000000000000E1000006662782F42384135303843342D343331462D343546312D424341352D3532343432364645413344462F72
310
65736F75726365732F636F72652E786D6C504B0506000000000E000E0080040000651100000000
  0
XRECORD
  5
187
102
{ACAD_REACTORS
330
186
102
}
330
186
100
AcDbXrecord
280
     1
 70
     1
 90
429727718
  1
887D55A9-D0DD-414E-B741-A7DCD4DA2B4C
310
504B03040A0000080000B670623B3DEE336E79000000790000001B0000006175746F6465736B2D64657369676E2D7061636B6167652E786D6C3C3F786D6C2076657273696F6E3D22312E302220656E636F64696E673D227574662D3822203F3E3C666F726D6174733E3C666F726D61743E687474703A2F2F736368656D612E
310
6175746F6465736B2E636F6D2F64657369676E2D7061636B6167652F323030393C2F666F726D61743E3C2F666F726D6174733E504B0304140006080800B670623BD486FD9CA0000000F4000000130000005B436F6E74656E745F54797065735D2E786D6C7D8EC10E82300C865F65E91D8A1E8C310C0EEA1BF002731658846E
310
D98AC1B77784ABF1D8FE5FBFBF75BBCE937A534CCEB38643598122B6FEE978D0B0485F9C41B54DDD7D022595594E1A469170414C76A4D9A4D207E29CF43ECE46F218070CC6BECC4078ACAA135ACF422C856C0E68EA1BF5669944DDD7BCDE7B1F8E415D77AECB980613C2E4AC91FC167A2B244592486606FC29C8FD7F045B9A
310
EF7053A7E60B504B0304140006080800B670623BBC1638F5EC0000007C01000008000000636F72652E786D6C8D90416EC3201045AF82665B61836BE2D8C24471DB9CA01740401C94182C03558F5F9C3852BBEB6A467FFE9B197D7EF89E6EE8CB2CC17AD7032D0820E394D7D68D3DA478C67B4007C117EFE32F1B202727D3C3
310
2A83E0E3E2D3BC49CABB685CCCAAF3DA6CA20CC14440EA969B1E82BA98491632C5EC08D76296EA2A4753D06797E194AC468F2356E77DF66CCD02825543D50CACC62D39ED70FDC68EB8FD68F6F8787A6784342D1DDA1D2F5758F068A7E77DB518198D065111D2624A31A93E69DD11D6D5EC85EC3B4278B9DAFF4069D6FF8492
310
75F1B5DADE7D600104CD8FDC0782976B16B9DC83CA75CD4DFC00504B0304140006080800B670623B55019EA25F0000007C00000007000000636E782E786D6C4DCB3B0E80201045D1AD90E915ED2CF8AC45050C11660C8261F98AB1B07AC9C97D42D718D865D3E909258CFD00CCE24AC6E326A164D74DC0B4128928FF326038
310
472BA13128B1252AC747C6BAB984FC68F0B87FE8960A5C09FE86CFB69FBA01504B0304140006080800B670623B3586FFB671010000D40300000C0000006662782F636F72652E786D6CC553ED6E8320147D15C2DF4541A76D6D90A6DDD627D80B50A4CE54C120983EFEAE1F4DD7A55BBA5FF3879273EEE59E7310B6393735EA
310
95ED2AA3731C851423A5A5292A5DE6D8BB63B0C268C39935C67D29C3488B46E578803167A535BE9D2169B453DA01AA4DA16650749D7218C91A1639EEE4876A4428BC838AEE14B6429E44A9C228041AEA38EB9C0501681A32BC313F1ECE8C4C3867DE57C5CC56054CAB8E95B298A7F12E5EEED224C8E87E11242FE936C8DE96
310
AB60BB7F4D295D66D12E5B30323473E6AAE6A24E5A259C2A308F29CD82280A68FC1E256B9AAE93F489AED694323294DF34F9B678B0C957DA3DC7B3DCA9ADC33C022123F1CD2D44E450277AD04338234388F01913BE0D1A0281909D38D4171F27807A259DB1093085F157AA17B557309586747CD0CF0B46A64E983A6E0EAEEF
310
CE881F9EF1FB8E70D44297604238581EBC1B74B249C31C5AAB6CD0BB33D2C636A27ECCC62F0EFF445DC5DF95244D6DEC7F2922F30191F9F720C37DE49F504B0304140006080800B670623B4220A0FF7D0000009D0000000B0000006662782F636E782E786D6C4DCCD10A83201886E15B91FFDCE542CB0335D0EC3E6259C84A
310
C3E9D8E5AF46073BFAE0E1E315DD675BD1DBA5978F41C2FD4600B9F088930F8B849267CC01754AA418F3DF0D50183727E164506249B1EC174D6E1ECB9A0F5D7D785E68DB8151CD286E5A5363CA6B8A39E90D36D40E96B086F55A43A544F52B1D7B86D517504B0304140006080800B670623B2FA3FEDE290100001202000031
310
0000006662782F45374635344235342D363743322D343832342D383044432D4334454645303536354442422F636F72652E786D6C8D515B6EC32010BC0AE22B55850D2E386E848994D7097A0117488A1283C5A3CAF10BB523B57FF961D1ECCCECC0F2ED7DBC816FED8371B687A4C210682B9D32F6D2C314CFA883602BB8772E
310
FEA141608751F7B0C050F08B77695A20E96CD43666D43AA5177008414708E42D5F7A18E4971E876A483133C2B59A06791D2EBA22556E679EE021FA1C00CC43CA09C5717D6274C7286AD7FB06D1AEA1A8C3873DDAD3E3E98859CB0EBB1DAF67A1E02919B5C88DCA71CCD968FFAC49110B1ECDF8882FBD1EA256503418BF2342
310
106E3E08DD60B6A1EC15771B8C795DE8FF4469524F8A92B1F1AD59E2CEB20005E1F5DC105CB9F4797B84D1F7C9F908CABC55D0F2050A5C61CC1AD2F27A26E6E767C7962E8E213A9FBF7775FDCC5CC266DB960A5E970DE5F2BBBE5CCB36C50F504B0304140006080800B670623B1B8617914E01000033030000300000006662
310
782F45374635344235342D363743322D343832342D383044432D4334454645303536354442422F636E782E786D6CD593C16EC32010447F0571AD6CE3D489D20813A9877E410FBD62D82434182CC055F3F75D1292E692438FBD206B7698593D61BEFD1E2DF982108D773D6D6B460938E5B571FB9ECE6957AD29D90A1EBC4F77
310
364A9C1CA1A759A682EF839FA72269D8C9D92654AD71C72206887E0E0A22CAF926B15E498B01E0AA19451807D01A34B919F16B070157417138917400F2F6FA41FCF0092A45DEE414C19BDC21783E4BD39D891265658C3D8DEA00A3ACE59CBC8678ACB54CB26EEB6BD7839D7E9348BE70AD9C8321B9BCA7F9A4A26C542347DE
310
E050F09802D22BA6749A800A394DD62899107273365E3C82CFC6A55557BC06C10774B7ABE7AEC3B0F34CF06446280E154026D0542C187BA9DAB6628BF7B6DBB0E5A65B3EB1F58631DE64BBE083F7B65CC218087E22CABB042E51D1F2268F1FE12B3EA24D40D63E9CFE00120194D60B9D5BC67FE6D39CDF37E20AF817881F50
310
4B0304140006080800B670623B29652116630500003C100000340000006662782F45374635344235342D363743322D343832342D383044432D4334454645303536354442422F6F626A656374732E786D6CAD575D739B3814FD2B0CFB0C989834C90EA1639B24E3E9A6EDD4D3CE3E64C623834CD8006224913AFDF57B040203
310
B65BEF871F0C12D2FD3CF7E8CA7FBFCB33E3957291B2E2D674ED8969D02262715A24B76625B7D6B569BC0F7CCE98EC2D338D82E4F4D654D366E0279C55A59E8AE99654991CCDDECFFF3444440B6A1A514684B83545F44C7362934AB2988A173B2692D8C97667BB76B3702836E1A47C1E092D09A78584A5982F20C5688C7287
310
C389E904BEA3BE07BEFAD7ABA6A75739B53F43FD69212429A20365233153D70BEF2E2E6FAC4BCF9B5ADEBB0BD79ADFCF43CBBD9A4E16EF168B9BD9DD0D140BC921495BC2E9D60C1E101B9E46BED37CEA2CD6861F3329624541A3DA7F7858DBAC25C6B4A4458C3CA654405BCFEBC970E8AAD8F43E4FD558ABEC4F9FE7557F47
310
4F506B7BFBEC5BCA367FC105710E2AB8A00A554D7CB4A30DFE26FBA86D18CBF4B75418399194A72433B274C3097F33032C554B027F2046A1932B842B0FCCC0DDCBEBDB8AD2F835768F59B9ADB24C41D30C6A64AF817F2A456D59FA83F2E3DA60137255A585BCD60EC9B7929AC18DEFD49381AF1ED30BFDB109A4B1CD488294
310
C3CDE6EBC8D185AABD6568061FEE37BB95AAC7E3CA4BCE4ACAA5820FA0D526AE7DAA2869B5EE5999531BE0CC20E6FBA07C41E43FA27CF7A6206F3CDD793B4F6B919C1462CB788EDCD893FA674CDA17AB7B3B7C019F8D561FAEE966FED562DFE98C1D12C6A9FC015C2A35D7FF3D7FC398F591DA4B5FE0BFA2C0189FEA50AE22
310
92817A1ED3020951A03432862970F976B33383259812CC8E5D240BBA801CBCF8CE2BBEE3BF910DB6AAD5F79E05123AE2DB33981FB1ACCB02B69D00CB014FD68AB573A7627EF9BFD4CC2C5C7D58557C4B22FAA88925A4DBB44825CECE3D78FB060D1231F0E885BE7D673C86A3874958F593906B5502D1563157814FDAC3420D
310
F69A070A22EC4B98E23CFF171A1E5311D12C23056555ABA53B8614563B92D17D02AAB009E8F46284624E5F53D5490C560CCCC2591FF1B45421EB0EBD8EA7ED13BE7C5D7E0428CD60FEF60779EB13E6664FF711CB185F6FDED60D139A001FF60CD1FD6D086F1D51474901E26B2CB794A343BC8ED3EDB612E0DD2351FCB65CF4
310
33D511C9E14B5B40ADC6A6263DB0336A8F700DDF56271A024E70B0B3629DE21847591E55DED73D56206AB927E46FAABC5C939C55853C274C93D69FD6FA4E78BF8B11DF898C9ECD60553FAD39283BA6F18984AA23E8884F83F45C5F5F859797B31B2B9C84A1E5B9DE9D35BFF25C6B76152E422F9C5DCC3D847F5801ED09D5AF
310
41441327A25FF15487F9EB725FB666F048A4701E9A827292E6F97569A32DF61DEC01C0BB8DCBBCCC684E0B49147C1FD54BF685A0AB18C868E6973949E819523E3DAC463660E68C7D9F55A9D1EFA3BD7A76A16AE1A810F95CE59B82A4D968A376DC2E8B44BBDD86B27B368CDE0ED548C7137DA860591A83706223A12CA712B4
310
7306DBF39C0A20A6DF95C7FAF670C6EED7A61F946493D1D6926782963813403548A78AE470DEF80D2D9CEAA26E4D1C76F60BFE74219A06527D6B82DF641A51616F703CAAC6A7160E08A00BEB4810A0274592A1B36E3675E36E978A0DE80727A0D6DF2D39A75BD27E0D8837276589537B40ABB56D5A41F48F1C6FCD3188C4EB
310
A6929D2FFB89CE995A4D00AE813BDD032DC48B56BD437DFDDC2DD7AED70C2272D63DE9A72068A45A92F0A4BE17A8A06B9366E16707AD80B1FC649459952097E74BB23805982B55E0401150A165964402AA8BDF9F3E7386BB686EDCA780C0D382E5392BF460A6EFB2C6EA1937D3F809B440D5F5435C4C5CF7A9EEFAF54564BD
310
2182DA24162F98680B4E7930C21A0079709CEAEB99A372305ABE0C0D7D6078105A83F6A0296DAEE1068A47DD1C55A9F4C9B2FC69E3EFD44B81028E963DF81B504B0304140006080000B670623B000000000000000000000000350000006662782F45374635344235342D363743322D343832342D383044432D433445464530
310
3536354442422F76657274696365732E62696E504B0304140006080800B670623BF270F1330600000004000000360000006662782F45374635344235342D363743322D343832342D383044432D4334454645303536354442422F747269616E676C65732E62696E636660600000504B0304140006080000B670623B00000000
310
0000000000000000370000006662782F45374635344235342D363743322D343832342D383044432D4334454645303536354442422F617474726962757465732E62696E504B0304140006080800B670623B08DA0BD19000000041010000360000006662782F45374635344235342D363743322D343832342D383044432D4334
310
454645303536354442422F6469726563746F72792E786D6C858F410AC3201045AF22B36F53E9A60B35CBEEBAE80D244E44489C6234F4F835464A48035D0DF398FF9F8AF63D0E6CC63039F212F8F9020C7D47C6792B21C5FE7403D62A1188E2E60C98D7234A5830286103A55745067B9D86B8A3CF9C7F90C11DE607FB144396
310
D7B6A82D282E9A152AD114D5EF2CB866EEE831B8EEA07A7BB5A8D7D61A2BAAEB7FD5F70921FF497D00504B0304140006080800B670623B6378F24DFF000000A00100003B0000006662782F45374635344235342D363743322D343832342D383044432D4334454645303536354442422F7265736F75726365732F636F72652E
310
786D6C8D504B6E833010BD0A9A6D65B0094E42641C85B639412F6099496225D8C89FAAC7AF09546A77DDCC8CDE47F3F4C4F16B7C149FE88371B603565228D06A37187BED20C50BD9437194C23B177FC9A0B06AC40E6618A4B87A97A615D2CE46B431A3D60DB8822A048C50E8473E3A08FA86A32A558A5911EEE5A4F45D5DB1
310
6465A6B34E8A107D0E502C4FE609D26370C96B0CA25A58295232C3AA3143FE692E063D485EF7F5AEE71BD2D2F39634AFFC44DAF7DD9E9CCE6F9CD25DCBFA762BAAD92C4534E34F46ED51451C40D694B6843142EB0FD61C283F34FC85EE0F948A6A96FF31A569F8A729191B37F51A77B105902C0779125254735F793DCBCC7B
310
EE567E03504B010214000A0000080000B670623B3DEE336E79000000790000001B00000000000000000000000000000000006175746F6465736B2D64657369676E2D7061636B6167652E786D6C504B01021400140006080800B670623BD486FD9CA0000000F40000001300000000000000000000000000B20000005B436F6E
310
74656E745F54797065735D2E786D6C504B01021400140006080800B670623BBC1638F5EC0000007C010000080000000000000000000000000083010000636F72652E786D6C504B01021400140006080800B670623B55019EA25F0000007C000000070000000000000000000000000095020000636E782E786D6C504B010214
310
00140006080800B670623B3586FFB671010000D40300000C00000000000000000000000000190300006662782F636F72652E786D6C504B01021400140006080800B670623B4220A0FF7D0000009D0000000B00000000000000000000000000B40400006662782F636E782E786D6C504B01021400140006080800B670623B2F
310
A3FEDE290100001202000031000000000000000000000000005A0500006662782F45374635344235342D363743322D343832342D383044432D4334454645303536354442422F636F72652E786D6C504B01021400140006080800B670623B1B8617914E010000330300003000000000000000000000000000D2060000666278
310
2F45374635344235342D363743322D343832342D383044432D4334454645303536354442422F636E782E786D6C504B01021400140006080800B670623B29652116630500003C10000034000000000000000000000000006E0800006662782F45374635344235342D363743322D343832342D383044432D4334454645303536
310
354442422F6F626A656374732E786D6C504B01021400140006080000B670623B0000000000000000000000003500000000000000000000000000230E00006662782F45374635344235342D363743322D343832342D383044432D4334454645303536354442422F76657274696365732E62696E504B01021400140006080800
310
B670623BF270F13306000000040000003600000000000000000000000000760E00006662782F45374635344235342D363743322D343832342D383044432D4334454645303536354442422F747269616E676C65732E62696E504B01021400140006080000B670623B0000000000000000000000003700000000000000000000
310
000000D00E00006662782F45374635344235342D363743322D343832342D383044432D4334454645303536354442422F617474726962757465732E62696E504B01021400140006080800B670623B08DA0BD190000000410100003600000000000000000000000000250F00006662782F45374635344235342D363743322D34
310
3832342D383044432D4334454645303536354442422F6469726563746F72792E786D6C504B01021400140006080800B670623B6378F24DFF000000A00100003B00000000000000000000000000091000006662782F45374635344235342D363743322D343832342D383044432D4334454645303536354442422F7265736F75
310
726365732F636F72652E786D6C504B0506000000000E000E0080040000611100000000
  0
XRECORD
  5
112
102
{ACAD_REACTORS
330
110
102
}
330
110
100
AcDbXrecord
280
     1
270
     1
271
     1
  0
XRECORD
  5
111
102
{ACAD_REACTORS
330
110
102
}
330
110
100
AcDbXrecord
280
     1
270
     1
271
     1
  0
XRECORD
  5
18A
102
{ACAD_REACTORS
330
110
102
}
330
110
100
AcDbXrecord
280
     1
 70
     0
 90
1778669749
  1
9BF507EE-FAF7-4A99-A33D-4EE51894BC40
310
504B03040A0000080000B670623B3DEE336E79000000790000001B0000006175746F6465736B2D64657369676E2D7061636B6167652E786D6C3C3F786D6C2076657273696F6E3D22312E302220656E636F64696E673D227574662D3822203F3E3C666F726D6174733E3C666F726D61743E687474703A2F2F736368656D612E
310
6175746F6465736B2E636F6D2F64657369676E2D7061636B6167652F323030393C2F666F726D61743E3C2F666F726D6174733E504B0304140006080800B670623BD486FD9CA0000000F4000000130000005B436F6E74656E745F54797065735D2E786D6C7D8EC10E82300C865F65E91D8A1E8C310C0EEA1BF002731658846E
310
D98AC1B77784ABF1D8FE5FBFBF75BBCE937A534CCEB38643598122B6FEE978D0B0485F9C41B54DDD7D022595594E1A469170414C76A4D9A4D207E29CF43ECE46F218070CC6BECC4078ACAA135ACF422C856C0E68EA1BF5669944DDD7BCDE7B1F8E415D77AECB980613C2E4AC91FC167A2B244592486606FC29C8FD7F045B9A
310
EF7053A7E60B504B0304140006080800B670623BCA089DFFEC0000007C01000008000000636F72652E786D6C8D90416E83301045AF62CDB632D8402020E32882F604BD80653BC44AB011B6AB1EBF262152BBEB6A467FFE9B197D76FA9EEFE84BAFDE38DB03CD08206DA553C64E3DC470C1474027CE56E7C22F1B202B66DDC3
310
260367D3EAE2B24BD2D9A06D48AA754AEFA2F05E0740F29E9A1EBCBCEA59642286E4F0B76C11F226269DD15797E0188D42CF2346A57DE662F40ABCAEC77628C6120F654571D50C04B7F5B9C1E3997CD4F550BE3745C3F20DE62C98F9755FAE5A04AD801784B498524C8A4F5A75E4D055873772EC0861F966FF03C545FD138A
310
C686B2D8DF7D621E384D8F3C069CE55B16A93C824A75CB8DFF00504B0304140006080800B670623B55019EA25F0000007C00000007000000636E782E786D6C4DCB3B0E80201045D1AD90E915ED2CF8AC45050C11660C8261F98AB1B07AC9C97D42D718D865D3E909258CFD00CCE24AC6E326A164D74DC0B4128928FF326038
310
472BA13128B1252AC747C6BAB984FC68F0B87FE8960A5C09FE86CFB69FBA01504B0304140006080800B670623B68FC0B7272010000D40300000C0000006662782F636F72652E786D6CC5535B6E833010BC8AE5DF0A6C1E8124328E22D29EA01770C0A128602363A31CBFCB234A53A555FA553EC09AD9F5CE8C31DB5DDA060D
310
D2F4B556190E7C8A9154852E6B5565D8D993B7C668C799D1DA7E29C3488956667884316795D1AE5BA0422B2B950554E9522EA0E87B69312A1A5864B82F3E642B7CE12C54F467BF13C55954D20F7CA0A18EB3DE1A1080E621E31BF3D3F1C2C88C73E65C5D2E6C5DC2B4FA544B8379921C36797888BC3C8A032F4E73EA6D927D
310
EA1DF6F42D49F2E8350D5346C666CE6CDD5ED515460A2B4BCC434A375E1078347C0FE22D5D6DE3D50B5D6F2965642CBF6B725DF96493AB958DC245EEDCD6631E809089F8E61622B2A81703E8219C913144F84C09DF070D8140C8561C9BAB8F3340832CAC363130A576376A108D933095FA747AD0CF0B46E64E983A6D0EAE1F
310
CE089F9EF1FB8E70D44255604258581E9D1D75B259C3125A278D37D80B52DAB4A279CEC62F0EFF44DDC43F9454E8469BFF5244960322CBEF41C6FBC83F01504B0304140006080800B670623B0F71DDB67E0000009D0000000B0000006662782F636E782E786D6C4DCCD10A83201886E15B91FFDCA54DB73F502386BB8F5816
310
32D3703976F9ABD1C18E3E78F87855FB990379BBFCF2296AE02706C4C5471A7C9C349475A408A4352AA7B4FEDD80C47E761A7606A3A69CCA72D0E0C6BE8475D3E0E3F3409428EA6B27A84079A782899AA2EC1A7AE3ECCC2FD858CB2D544655BFD2B67BD87C01504B0304140006080800B670623BE134B4FB28010000120200
310
00310000006662782F38353834323741342D343835462D343034322D383541392D4331303331363839454531452F636F72652E786D6C8D515B6EC32010BC0AE22B55850D0EA424C24451959EA0172086A42831583CAA1CBF503B52FB971F16CDCECC0EACD8DFC71BF836215AEF7A481A0C817183D7D65D7A98D3197108F652
310
04EFD31F1A044E8DA6871586525C82CFD3020DDE25E352419DD76601558C264130DCCAA58771F832A36A544E8511AFCDA486ABBA988634A55D7852C4144A00300FA927949C71DABD1D28A29C7D208A6987383B6CD13BC16BB2E1DBE3911C453B0BA5C8D9EA456E758963CFD684674DAA588A64C747FC2118958C86B2C3788B
310
0841B8FB247487D98EB257CC77188BB6D2FF89F2A49F1465EBD2BA5BE2CEB2082511EDDC9042FB7CBA3DC298FBE4430275DE2A9AE1054ADC60CC08E3A29D89E5F9C5714317C7987C28DFBBBA9E0A97B0D97643A568EB864AF95D5FA9759BF207504B0304140006080800B670623B1B8617914E010000330300003000000066
310
62782F38353834323741342D343835462D343034322D383541392D4331303331363839454531452F636E782E786D6CD593C16EC32010447F0571AD6CE3D489D20813A9877E410FBD62D82434182CC055F3F75D1292E692438FBD206B7698593D61BEFD1E2DF982108D773D6D6B460938E5B571FB9ECE6957AD29D90A1EBC4F
310
77364A9C1CA1A759A682EF839FA72269D8C9D92654AD71C72206887E0E0A22CAF926B15E498B01E0AA19451807D01A34B919F16B070157417138917400F2F6FA41FCF0092A45DEE414C19BDC21783E4BD39D891265658C3D8DEA00A3ACE59CBC8678ACB54CB26EEB6BD7839D7E9348BE70AD9C8321B9BCA7F9A4A26C542347
310
DEE050F09802D22BA6749A800A394DD62899107273365E3C82CFC6A55557BC06C10774B7ABE7AEC3B0F34CF06446280E154026D0542C187BA9DAB6628BF7B6DBB0E5A65B3EB1F58631DE64BBE083F7B65CC218087E22CABB042E51D1F2268F1FE12B3EA24D40D63E9CFE00120194D60B9D5BC67FE6D39CDF37E20AF817881F
310
504B0304140006080800B670623B5933D422630500003B100000340000006662782F38353834323741342D343835462D343034322D383541392D4331303331363839454531452F6F626A656374732E786D6CAD575B6FA33814FE2B887D0642934E9B156594264D158D3A534DD4D13E548A0C38942D60649B4EBABF7E3F8321
310
40924EF6928780CDF1B97EE762EFF32E4B8D37CA45C2F21BD3B547A641F39045491EDF98A5DC5AD7A6F1D9F73863B243661A39C9E88DA9B64DDF8B392B0BBD15D12D295339D85DDEFE618890E6D434C2940871638AF08566C426A5641115AF764424B1E3EDCE76ED9AB0CF36E6A47819302D08A7B984A6D8CFC1C5A89572FB
310
CB91E9F89EA3BEFB9EFAD754E3D3544E654F5F7E920B49F2F040D880CDD89D2CEE2E2EA7D6E56432B6269F2E5CEB7679BBB0DCABF168FE693E9FCEEEA6102C240727AD09A75BD3BF876F78127A4EFDA9D5582B7E4CA590E5390D2BFB6161A5B3E618D182E611E2985001691DAB47FDA5AB7CD3F93C566B2DB2BB7D9E55DD13
310
1D468DEECDB3AB290BFE8409E21C54704115AA6AFF68436BFC8DF65E0B184BF5B74418199194272435D224E084BF9B3E481589EFF5D828747285706581E9BB7B7E5D5D911ABFC6EE312DB7659A2A689A7E85EC0DF04FA5A8344BFEA2FCB834E8845895492EAFB541F2BDA0A63FF59C6AD3F7D4637CA13FD68E34B629891172
310
98597F1D183A57B9B75A98FE9765B05BAB7C3C2EBCE0ACA05C2AF8005A4DE09AA7F29216EB9E15397500C6F47CBE77CA7778FE2BD277AF0AE2C693DD6437D1522427B9D8329E2136F6A8FA19A3E6C56ADF0E5F50CF06D48734EDCEBF22F69C56D97EC138153F804B85E6FABFC7AFEFB32E523BE1F3BD372418E363EDCA7548
310
52949E8724474014288D94610BB57C1BEC4C7F854A89CA8E5324F55B871CBC78CE1BBEE3BFE68D6A5589EF3C730474506FCFA8FCF0659516D0ED04580EEA6425581B77CAE797FF4BCECC16EB2FEB926F49481F746159D06D922712BD730FDEAE42BD40F42C7AA5EF3F198F60E86110D6DD20645A9480B795CF95E3E3A659A8
310
C55E724F408873315335CFFB8584874484344D494E59D94869DB90C26A5B64F49C802CAC1D3ABE18A098D3B7444D123D8A9E5AE8F5214F0AE5B2B6E9B575DA3E61CBD3EA2B4009FA940524DD1305FB6A1FB294F14DF0BEA90BA109ECE1481FDC3FFAE8D60E75141700BE82725371B4873751B2DD960265F788137FACE6DD40
310
B575E4F0A5C99F46629D92131467A41EE11ABD8D4CCC039CA0AFB37C93A08B232B8F0AEFCA1E0A1015DF13FC83322B362463652ECF71D3A8B1A7D1BE65DE1D62C44F22C317D35F574FEB16153BA2D13E543D10A80E74C4A65E78A6B7CBCBD1D5DD9DB59C2DAFACC96C3AB566E3F1C29ADCDD5DBAD7D3C9ED7C822ED74F80A6
310
41755310DE4443F44A9E68373FADF6596BFA0F440AE7BECE2727AE9F4F2B1B53B1E7E00CF0DD1E5C65454A339A4BA2D0FBA05ED2EF0443458F47BDBFCA484CCFE0F2ED7E3DD0013B679C7B5499467F0ECEEADDB9CA85A34CE44B99053949D2C1416DB85DE4B136BB7165FBAC0B7AB3542BED4F8CA182A549847A1319316519
310
95A83A67147B9E5101C47487F2485F1ECE38FD568F839204296D3479219888530154036E6528FBFBC66F98E0D4107563A2D7D9AFF8D389681A08F58D89F22693900A3B407754734FC51C10C010D6D640809EE4718AC1BA3ED4AEDB53CA37283F68805A7E4B72CEB0A4EDEAD5DD8C14059A76AFAA56BA6901E13F32BC51C720
310
12AF41295B5BF61BAD3195181FB506E6B40F4C10AF5AF40EF9F5B159AE5DD1F43C72D635E94310D45C2D49785C5D0B94D3B54AB3C5A38349C0587D338AB48C11CBF339599C02CCA54A70A008A8D03C0B2201D5F9EFCF8F9CE12A9A19CB0410789EB32C63B95ECCF455D658BFE0621A3DA32C5075FB101723D77DAE867E7D0F
310
D90444509B44E2151B4DC2290B065803200FBAA9BE9D392A0603F2D5C2D00D6302A615680F66D2FA166E2079D4C551A54AB758161FCEFD4E450A14704CECFEDF504B0304140006080000B670623B000000000000000000000000350000006662782F38353834323741342D343835462D343034322D383541392D4331303331
310
363839454531452F76657274696365732E62696E504B0304140006080800B670623BF270F1330600000004000000360000006662782F38353834323741342D343835462D343034322D383541392D4331303331363839454531452F747269616E676C65732E62696E636660600000504B0304140006080000B670623B000000
310
000000000000000000370000006662782F38353834323741342D343835462D343034322D383541392D4331303331363839454531452F617474726962757465732E62696E504B0304140006080800B670623B08DA0BD19000000041010000360000006662782F38353834323741342D343835462D343034322D383541392D43
310
31303331363839454531452F6469726563746F72792E786D6C858F410AC3201045AF22B36F53E9A60B35CBEEBAE80D244E44489C6234F4F835464A48035D0DF398FF9F8AF63D0E6CC63039F212F8F9020C7D47C6792B21C5FE7403D62A1188E2E60C98D7234A5830286103A55745067B9D86B8A3CF9C7F90C11DE607FB1443
310
96D7B6A82D282E9A152AD114D5EF2CB866EEE831B8EEA07A7BB5A8D7D61A2BAAEB7FD5F70921FF497D00504B0304140006080800B670623BD9A3B367FE000000A00100003B0000006662782F38353834323741342D343835462D343034322D383541392D4331303331363839454531452F7265736F75726365732F636F7265
310
2E786D6C8D504B6E833010BD0A9A6D65B01D0201194711694FD00B586642AD043BF2A7EAF16B122AB5BB6E6646EFA3797AE2F8B5DC8A4FF4C1383B002B291468B59B8C9D0748F1420E501CA5F0CEC55F3228AC5A708015062966EFD27D83B4B3116DCCA875136EA00A012314FA968F0182FEC045952AC5AC08D7F2AEF455CD
310
58B232D3592745883E07289E4FD609D26370C96B0CA27AB252A464A64D63A6FCD35C0C7A904D73EE467EE664DCD58CD4ED4849D79C5A723ED1B7A61977AF2D6F45B59AA58866F9C9A83DAA8813484E6947182394BFB3BAA7FBBEDEBFD0434FA9A856F91F53BA4FFF342563E38E6F719FB60092E5200F428A6AED2BAF479979
310
AFDDCA6F504B010214000A0000080000B670623B3DEE336E79000000790000001B00000000000000000000000000000000006175746F6465736B2D64657369676E2D7061636B6167652E786D6C504B01021400140006080800B670623BD486FD9CA0000000F40000001300000000000000000000000000B20000005B436F6E
310
74656E745F54797065735D2E786D6C504B01021400140006080800B670623BCA089DFFEC0000007C010000080000000000000000000000000083010000636F72652E786D6C504B01021400140006080800B670623B55019EA25F0000007C000000070000000000000000000000000095020000636E782E786D6C504B010214
310
00140006080800B670623B68FC0B7272010000D40300000C00000000000000000000000000190300006662782F636F72652E786D6C504B01021400140006080800B670623B0F71DDB67E0000009D0000000B00000000000000000000000000B50400006662782F636E782E786D6C504B01021400140006080800B670623BE1
310
34B4FB280100001202000031000000000000000000000000005C0500006662782F38353834323741342D343835462D343034322D383541392D4331303331363839454531452F636F72652E786D6C504B01021400140006080800B670623B1B8617914E010000330300003000000000000000000000000000D3060000666278
310
2F38353834323741342D343835462D343034322D383541392D4331303331363839454531452F636E782E786D6C504B01021400140006080800B670623B5933D422630500003B10000034000000000000000000000000006F0800006662782F38353834323741342D343835462D343034322D383541392D4331303331363839
310
454531452F6F626A656374732E786D6C504B01021400140006080000B670623B0000000000000000000000003500000000000000000000000000240E00006662782F38353834323741342D343835462D343034322D383541392D4331303331363839454531452F76657274696365732E62696E504B01021400140006080800
310
B670623BF270F13306000000040000003600000000000000000000000000770E00006662782F38353834323741342D343835462D343034322D383541392D4331303331363839454531452F747269616E676C65732E62696E504B01021400140006080000B670623B0000000000000000000000003700000000000000000000
310
000000D10E00006662782F38353834323741342D343835462D343034322D383541392D4331303331363839454531452F617474726962757465732E62696E504B01021400140006080800B670623B08DA0BD190000000410100003600000000000000000000000000260F00006662782F38353834323741342D343835462D34
310
3034322D383541392D4331303331363839454531452F6469726563746F72792E786D6C504B01021400140006080800B670623BD9A3B367FE000000A00100003B000000000000000000000000000A1000006662782F38353834323741342D343835462D343034322D383541392D4331303331363839454531452F7265736F75
310
726365732F636F72652E786D6C504B0506000000000E000E0080040000611100000000
  0
XRECORD
  5
113
102
{ACAD_REACTORS
330
110
102
}
330
110
100
AcDbXrecord
280
     1
270
     1
271
     1
  0
XRECORD
  5
114
102
{ACAD_REACTORS
330
110
102
}
330
110
100
AcDbXrecord
280
     1
270
     1
271
     1
  0
XRECORD
  5
1BEF
102
{ACAD_REACTORS
330
1C4
102
}
330
1C4
100
AcDbXrecord
280
     1
102
DISPLAYNAME
  1
Imperial24
102
FLAGS
 90
        0
  0
CELLSTYLEMAP
  5
1BB5
102
{ACAD_REACTORS
330
104
102
}
330
104
100
AcDbCellStyleMap
 90
        3
300
CELLSTYLE
  1
TABLEFORMAT_BEGIN
 90
        5
170
     1
 91
        0
 92
    32768
 62
   257
 93
        1
300
CONTENTFORMAT
  1
CONTENTFORMAT_BEGIN
 90
        0
 91
        0
 92
      512
 93
        0
300

 40
0.0
140
1.0
 94
        5
 62
     0
340
11
144
0.25
309
CONTENTFORMAT_END
171
     1
301
MARGIN
  1
CELLMARGIN_BEGIN
 40
0.06
 40
0.06
 40
0.06
 40
0.06
 40
0.18
 40
0.18
309
CELLMARGIN_END
 94
        6
 95
        1
302
GRIDFORMAT
  1
GRIDFORMAT_BEGIN
 90
        0
 91
        1
 62
     0
 92
       -2
340
0
 93
        0
 40
0.045
309
GRIDFORMAT_END
 95
        2
302
GRIDFORMAT
  1
GRIDFORMAT_BEGIN
 90
        0
 91
        1
 62
     0
 92
       -2
340
0
 93
        0
 40
0.045
309
GRIDFORMAT_END
 95
        4
302
GRIDFORMAT
  1
GRIDFORMAT_BEGIN
 90
        0
 91
        1
 62
     0
 92
       -2
340
0
 93
        0
 40
0.045
309
GRIDFORMAT_END
 95
        8
302
GRIDFORMAT
  1
GRIDFORMAT_BEGIN
 90
        0
 91
        1
 62
     0
 92
       -2
340
0
 93
        0
 40
0.045
309
GRIDFORMAT_END
 95
       16
302
GRIDFORMAT
  1
GRIDFORMAT_BEGIN
 90
        0
 91
        1
 62
     0
 92
       -2
340
0
 93
        0
 40
0.045
309
GRIDFORMAT_END
 95
       32
302
GRIDFORMAT
  1
GRIDFORMAT_BEGIN
 90
        0
 91
        1
 62
     0
 92
       -2
340
0
 93
        0
 40
0.045
309
GRIDFORMAT_END
309
TABLEFORMAT_END
  1
CELLSTYLE_BEGIN
 90
        1
 91
        1
300
_TITLE
309
CELLSTYLE_END
300
CELLSTYLE
  1
TABLEFORMAT_BEGIN
 90
        5
170
     1
 91
        0
 92
        0
 62
   257
 93
        1
300
CONTENTFORMAT
  1
CONTENTFORMAT_BEGIN
 90
        0
 91
        0
 92
      512
 93
        0
300

 40
0.0
140
1.0
 94
        5
 62
     0
340
11
144
0.18
309
CONTENTFORMAT_END
171
     1
301
MARGIN
  1
CELLMARGIN_BEGIN
 40
0.06
 40
0.06
 40
0.06
 40
0.06
 40
0.18
 40
0.18
309
CELLMARGIN_END
 94
        6
 95
        1
302
GRIDFORMAT
  1
GRIDFORMAT_BEGIN
 90
        0
 91
        1
 62
     0
 92
       -2
340
0
 93
        0
 40
0.045
309
GRIDFORMAT_END
 95
        2
302
GRIDFORMAT
  1
GRIDFORMAT_BEGIN
 90
        0
 91
        1
 62
     0
 92
       -2
340
0
 93
        0
 40
0.045
309
GRIDFORMAT_END
 95
        4
302
GRIDFORMAT
  1
GRIDFORMAT_BEGIN
 90
        0
 91
        1
 62
     0
 92
       -2
340
0
 93
        0
 40
0.045
309
GRIDFORMAT_END
 95
        8
302
GRIDFORMAT
  1
GRIDFORMAT_BEGIN
 90
        0
 91
        1
 62
     0
 92
       -2
340
0
 93
        0
 40
0.045
309
GRIDFORMAT_END
 95
       16
302
GRIDFORMAT
  1
GRIDFORMAT_BEGIN
 90
        0
 91
        1
 62
     0
 92
       -2
340
0
 93
        0
 40
0.045
309
GRIDFORMAT_END
 95
       32
302
GRIDFORMAT
  1
GRIDFORMAT_BEGIN
 90
        0
 91
        1
 62
     0
 92
       -2
340
0
 93
        0
 40
0.045
309
GRIDFORMAT_END
309
TABLEFORMAT_END
  1
CELLSTYLE_BEGIN
 90
        2
 91
        1
300
_HEADER
309
CELLSTYLE_END
300
CELLSTYLE
  1
TABLEFORMAT_BEGIN
 90
        5
170
     1
 91
        0
 92
        0
 62
   257
 93
        1
300
CONTENTFORMAT
  1
CONTENTFORMAT_BEGIN
 90
        0
 91
        0
 92
      512
 93
        0
300

 40
0.0
140
1.0
 94
        2
 62
     0
340
11
144
0.18
309
CONTENTFORMAT_END
171
     1
301
MARGIN
  1
CELLMARGIN_BEGIN
 40
0.06
 40
0.06
 40
0.06
 40
0.06
 40
0.18
 40
0.18
309
CELLMARGIN_END
 94
        6
 95
        1
302
GRIDFORMAT
  1
GRIDFORMAT_BEGIN
 90
        0
 91
        1
 62
     0
 92
       -2
340
0
 93
        0
 40
0.045
309
GRIDFORMAT_END
 95
        2
302
GRIDFORMAT
  1
GRIDFORMAT_BEGIN
 90
        0
 91
        1
 62
     0
 92
       -2
340
0
 93
        0
 40
0.045
309
GRIDFORMAT_END
 95
        4
302
GRIDFORMAT
  1
GRIDFORMAT_BEGIN
 90
        0
 91
        1
 62
     0
 92
       -2
340
0
 93
        0
 40
0.045
309
GRIDFORMAT_END
 95
        8
302
GRIDFORMAT
  1
GRIDFORMAT_BEGIN
 90
        0
 91
        1
 62
     0
 92
       -2
340
0
 93
        0
 40
0.045
309
GRIDFORMAT_END
 95
       16
302
GRIDFORMAT
  1
GRIDFORMAT_BEGIN
 90
        0
 91
        1
 62
     0
 92
       -2
340
0
 93
        0
 40
0.045
309
GRIDFORMAT_END
 95
       32
302
GRIDFORMAT
  1
GRIDFORMAT_BEGIN
 90
        0
 91
        1
 62
     0
 92
       -2
340
0
 93
        0
 40
0.045
309
GRIDFORMAT_END
309
TABLEFORMAT_END
  1
CELLSTYLE_BEGIN
 90
        3
 91
        2
300
_DATA
309
CELLSTYLE_END
  0
XRECORD
  5
1BCA
102
{ACAD_REACTORS
330
1BC9
102
}
330
1BC9
100
AcDbXrecord
280
     1
102
RTVSPost2010Prop28
280
     1
102
RTVSPost2010PropOp28
 70
     1
102
RTVSPost2010Prop29
280
     1
102
RTVSPost2010PropOp29
 70
     1
102
RTVSPost2010Prop30
280
     0
102
RTVSPost2010PropOp30
 70
     1
102
RTVSPost2010Prop31
280
     0
102
RTVSPost2010PropOp31
 70
     1
102
RTVSPost2010Prop32
280
     0
102
RTVSPost2010PropOp32
 70
     1
102
RTVSPost2010Prop33
280
     0
102
RTVSPost2010PropOp33
 70
     1
102
RTVSPost2010Prop34
280
     0
102
RTVSPost2010PropOp34
 70
     1
102
RTVSPost2010Prop35
280
     0
102
RTVSPost2010PropOp35
 70
     1
102
RTVSPost2010Prop36
280
     0
102
RTVSPost2010PropOp36
 70
     1
102
RTVSPost2010Prop37
 90
       50
102
RTVSPost2010PropOp37
 70
     1
102
RTVSPost2010Prop38
140
0.0
102
RTVSPost2010PropOp38
 70
     1
102
RTVSPost2010Prop39
140
1.0
102
RTVSPost2010PropOp39
 70
     1
102
RTVSPost2010Prop40
 90
        0
102
RTVSPost2010PropOp40
 70
     1
102
RTVSPost2010Prop41ColorIndex
 90
       18
102
RTVSPost2010Prop41ColorRGB
 90
        0
102
RTVSPost2010PropOp41
 70
     1
102
RTVSPost2010Prop42
 90
       50
102
RTVSPost2010PropOp42
 70
     1
102
RTVSPost2010Prop43
 90
        3
102
RTVSPost2010PropOp43
 70
     1
102
RTVSPost2010Prop44ColorIndex
 90
        5
102
RTVSPost2010Prop44ColorRGB
 90
      255
102
RTVSPost2010PropOp44
 70
     1
102
RTVSPost2010Prop45
280
     0
102
RTVSPost2010PropOp45
 70
     1
102
RTVSPost2010Prop46
 90
       50
102
RTVSPost2010PropOp46
 70
     1
102
RTVSPost2010Prop47
 90
       50
102
RTVSPost2010PropOp47
 70
     1
102
RTVSPost2010Prop48
 90
       50
102
RTVSPost2010PropOp48
 70
     1
102
RTVSPost2010Prop49
280
     0
102
RTVSPost2010PropOp49
 70
     1
102
RTVSPost2010Prop50
 90
       50
102
RTVSPost2010PropOp50
 70
     1
102
RTVSPost2010Prop51ColorIndex
 90
      256
102
RTVSPost2010Prop51ColorRGB
 90
-16777216
102
RTVSPost2010PropOp51
 70
     0
102
RTVSPost2010Prop52
140
1.0
102
RTVSPost2010PropOp52
 70
     0
102
RTVSPost2010Prop53
 90
        2
102
RTVSPost2010PropOp53
 70
     1
102
RTVSPost2010Prop54
  1
strokes_ogs.tif
102
RTVSPost2010PropOp54
 70
     1
102
RTVSPost2010Prop55
280
     0
102
RTVSPost2010PropOp55
 70
     1
102
RTVSPost2010Prop56
140
1.0
102
RTVSPost2010PropOp56
 70
     1
102
RTVSPost2010Prop57
140
1.0
102
RTVSPost2010PropOp57
 70
     1
102
RTVSPropertyOp0
 70
     1
102
RTVSPropertyOp1
 70
     1
102
RTVSPropertyOp2
 70
     1
102
RTVSPropertyOp3
 70
     1
102
RTVSPropertyOp4
 70
     1
102
RTVSPropertyOp5
 70
     1
102
RTVSPropertyOp6
 70
     1
102
RTVSPropertyOp7
 70
     1
102
RTVSPropertyOp8
 70
     1
102
RTVSPropertyOp9
 70
     1
102
RTVSPropertyOp10
 70
     1
102
RTVSPropertyOp11
 70
     1
102
RTVSPropertyOp12
 70
     1
102
RTVSPropertyOp13
 70
     1
102
RTVSPropertyOp14
 70
     1
102
RTVSPropertyOp15
 70
     1
102
RTVSPropertyOp16
 70
     1
102
RTVSPropertyOp17
 70
     1
102
RTVSPropertyOp18
 70
     1
102
RTVSPropertyOp19
 70
     1
102
RTVSPropertyOp20
 70
     1
102
RTVSPropertyOp21
 70
     1
102
RTVSPropertyOp22
 70
     1
102
RTVSPropertyOp23
 70
     1
102
RTVSPropertyOp24
 70
     1
102
RTVSPropertyOp25
 70
     1
102
RTVSPropertyOp26
 70
     1
102
RTVSPropertyOp27
 70
     1
102
RTVSPropertyOp28
 70
     1
102
RTVSPropertyOp29
 70
     1
102
RTVSPropertyOp30
 70
     1
102
RTVSPropertyOp31
 70
     1
102
RTVSPropertyOp32
 70
     1
102
RTVSPropertyOp33
 70
     1
102
RTVSPropertyOp34
 70
     1
102
RTVSPropertyOp35
 70
     1
102
RTVSPropertyOp36
 70
     1
102
RTVSPropertyOp37
 70
     1
102
RTVSPropertyOp38
 70
     1
102
RTVSPropertyOp39
 70
     1
102
RTVSPropertyOp40
 70
     1
102
RTVSPropertyOp41
 70
     1
102
RTVSPropertyOp42
 70
     1
102
RTVSPropertyOp43
 70
     1
102
RTVSPropertyOp44
 70
     1
102
RTVSPropertyOp45
 70
     1
102
RTVSPropertyOp46
 70
     1
102
RTVSPropertyOp47
 70
     1
102
RTVSPropertyOp48
 70
     1
102
RTVSPropertyOp49
 70
     1
102
RTVSPropertyOp50
 70
     1
102
RTVSPropertyOp51
 70
     0
102
RTVSPropertyOp52
 70
     0
102
RTVSPropertyOp53
 70
     1
102
RTVSPropertyOp54
 70
     1
102
RTVSPropertyOp55
 70
     1
102
RTVSPropertyOp56
 70
     1
102
RTVSPropertyOp57
 70
     1
102
RTVSPropertyOp58
 70
     1
102
RTVSPropertyOp59
 70
     1
102
RTVSPropertyOp60
 70
     1
102
RTVSPropertyOp61
 70
     1
102
RTVSPropertyOp62
 70
     1
  0
XRECORD
  5
1BC8
102
{ACAD_REACTORS
330
1BC7
102
}
330
1BC7
100
AcDbXrecord
280
     1
102
RTVSPost2010Prop28
280
     0
102
RTVSPost2010PropOp28
 70
     1
102
RTVSPost2010Prop29
280
     1
102
RTVSPost2010PropOp29
 70
     1
102
RTVSPost2010Prop30
280
     1
102
RTVSPost2010PropOp30
 70
     1
102
RTVSPost2010Prop31
280
     0
102
RTVSPost2010PropOp31
 70
     1
102
RTVSPost2010Prop32
280
     0
102
RTVSPost2010PropOp32
 70
     1
102
RTVSPost2010Prop33
280
     0
102
RTVSPost2010PropOp33
 70
     1
102
RTVSPost2010Prop34
280
     0
102
RTVSPost2010PropOp34
 70
     1
102
RTVSPost2010Prop35
280
     0
102
RTVSPost2010PropOp35
 70
     1
102
RTVSPost2010Prop36
280
     0
102
RTVSPost2010PropOp36
 70
     1
102
RTVSPost2010Prop37
 90
       50
102
RTVSPost2010PropOp37
 70
     1
102
RTVSPost2010Prop38
140
0.0
102
RTVSPost2010PropOp38
 70
     1
102
RTVSPost2010Prop39
140
1.0
102
RTVSPost2010PropOp39
 70
     1
102
RTVSPost2010Prop40
 90
        0
102
RTVSPost2010PropOp40
 70
     1
102
RTVSPost2010Prop41ColorIndex
 90
       18
102
RTVSPost2010Prop41ColorRGB
 90
        0
102
RTVSPost2010PropOp41
 70
     1
102
RTVSPost2010Prop42
 90
       50
102
RTVSPost2010PropOp42
 70
     1
102
RTVSPost2010Prop43
 90
        3
102
RTVSPost2010PropOp43
 70
     1
102
RTVSPost2010Prop44ColorIndex
 90
        5
102
RTVSPost2010Prop44ColorRGB
 90
      255
102
RTVSPost2010PropOp44
 70
     1
102
RTVSPost2010Prop45
280
     0
102
RTVSPost2010PropOp45
 70
     1
102
RTVSPost2010Prop46
 90
       50
102
RTVSPost2010PropOp46
 70
     1
102
RTVSPost2010Prop47
 90
       50
102
RTVSPost2010PropOp47
 70
     1
102
RTVSPost2010Prop48
 90
       50
102
RTVSPost2010PropOp48
 70
     1
102
RTVSPost2010Prop49
280
     0
102
RTVSPost2010PropOp49
 70
     1
102
RTVSPost2010Prop50
 90
       50
102
RTVSPost2010PropOp50
 70
     1
102
RTVSPost2010Prop51ColorIndex
 90
      256
102
RTVSPost2010Prop51ColorRGB
 90
-16777216
102
RTVSPost2010PropOp51
 70
     0
102
RTVSPost2010Prop52
140
1.0
102
RTVSPost2010PropOp52
 70
     0
102
RTVSPost2010Prop53
 90
        2
102
RTVSPost2010PropOp53
 70
     1
102
RTVSPost2010Prop54
  1
strokes_ogs.tif
102
RTVSPost2010PropOp54
 70
     1
102
RTVSPost2010Prop55
280
     0
102
RTVSPost2010PropOp55
 70
     1
102
RTVSPost2010Prop56
140
1.0
102
RTVSPost2010PropOp56
 70
     1
102
RTVSPost2010Prop57
140
1.0
102
RTVSPost2010PropOp57
 70
     1
102
RTVSPropertyOp0
 70
     1
102
RTVSPropertyOp1
 70
     1
102
RTVSPropertyOp2
 70
     1
102
RTVSPropertyOp3
 70
     1
102
RTVSPropertyOp4
 70
     1
102
RTVSPropertyOp5
 70
     1
102
RTVSPropertyOp6
 70
     1
102
RTVSPropertyOp7
 70
     1
102
RTVSPropertyOp8
 70
     1
102
RTVSPropertyOp9
 70
     1
102
RTVSPropertyOp10
 70
     1
102
RTVSPropertyOp11
 70
     1
102
RTVSPropertyOp12
 70
     1
102
RTVSPropertyOp13
 70
     1
102
RTVSPropertyOp14
 70
     1
102
RTVSPropertyOp15
 70
     1
102
RTVSPropertyOp16
 70
     1
102
RTVSPropertyOp17
 70
     1
102
RTVSPropertyOp18
 70
     1
102
RTVSPropertyOp19
 70
     1
102
RTVSPropertyOp20
 70
     1
102
RTVSPropertyOp21
 70
     1
102
RTVSPropertyOp22
 70
     1
102
RTVSPropertyOp23
 70
     1
102
RTVSPropertyOp24
 70
     1
102
RTVSPropertyOp25
 70
     1
102
RTVSPropertyOp26
 70
     1
102
RTVSPropertyOp27
 70
     1
102
RTVSPropertyOp28
 70
     1
102
RTVSPropertyOp29
 70
     1
102
RTVSPropertyOp30
 70
     1
102
RTVSPropertyOp31
 70
     1
102
RTVSPropertyOp32
 70
     1
102
RTVSPropertyOp33
 70
     1
102
RTVSPropertyOp34
 70
     1
102
RTVSPropertyOp35
 70
     1
102
RTVSPropertyOp36
 70
     1
102
RTVSPropertyOp37
 70
     1
102
RTVSPropertyOp38
 70
     1
102
RTVSPropertyOp39
 70
     1
102
RTVSPropertyOp40
 70
     1
102
RTVSPropertyOp41
 70
     1
102
RTVSPropertyOp42
 70
     1
102
RTVSPropertyOp43
 70
     1
102
RTVSPropertyOp44
 70
     1
102
RTVSPropertyOp45
 70
     1
102
RTVSPropertyOp46
 70
     1
102
RTVSPropertyOp47
 70
     1
102
RTVSPropertyOp48
 70
     1
102
RTVSPropertyOp49
 70
     1
102
RTVSPropertyOp50
 70
     1
102
RTVSPropertyOp51
 70
     0
102
RTVSPropertyOp52
 70
     0
102
RTVSPropertyOp53
 70
     1
102
RTVSPropertyOp54
 70
     1
102
RTVSPropertyOp55
 70
     1
102
RTVSPropertyOp56
 70
     1
102
RTVSPropertyOp57
 70
     1
102
RTVSPropertyOp58
 70
     1
102
RTVSPropertyOp59
 70
     1
102
RTVSPropertyOp60
 70
     1
102
RTVSPropertyOp61
 70
     1
102
RTVSPropertyOp62
 70
     1
  0
XRECORD
  5
1BD6
102
{ACAD_REACTORS
330
1BD5
102
}
330
1BD5
100
AcDbXrecord
280
     1
102
RTVSPost2010Prop28
280
     0
102
RTVSPost2010PropOp28
 70
     1
102
RTVSPost2010Prop29
280
     1
102
RTVSPost2010PropOp29
 70
     1
102
RTVSPost2010Prop30
280
     1
102
RTVSPost2010PropOp30
 70
     1
102
RTVSPost2010Prop31
280
     0
102
RTVSPost2010PropOp31
 70
     1
102
RTVSPost2010Prop32
280
     0
102
RTVSPost2010PropOp32
 70
     1
102
RTVSPost2010Prop33
280
     0
102
RTVSPost2010PropOp33
 70
     1
102
RTVSPost2010Prop34
280
     0
102
RTVSPost2010PropOp34
 70
     1
102
RTVSPost2010Prop35
280
     0
102
RTVSPost2010PropOp35
 70
     1
102
RTVSPost2010Prop36
280
     0
102
RTVSPost2010PropOp36
 70
     1
102
RTVSPost2010Prop37
 90
       50
102
RTVSPost2010PropOp37
 70
     1
102
RTVSPost2010Prop38
140
0.0
102
RTVSPost2010PropOp38
 70
     1
102
RTVSPost2010Prop39
140
1.0
102
RTVSPost2010PropOp39
 70
     1
102
RTVSPost2010Prop40
 90
        0
102
RTVSPost2010PropOp40
 70
     1
102
RTVSPost2010Prop41ColorIndex
 90
       18
102
RTVSPost2010Prop41ColorRGB
 90
        0
102
RTVSPost2010PropOp41
 70
     1
102
RTVSPost2010Prop42
 90
       50
102
RTVSPost2010PropOp42
 70
     1
102
RTVSPost2010Prop43
 90
        3
102
RTVSPost2010PropOp43
 70
     1
102
RTVSPost2010Prop44ColorIndex
 90
        5
102
RTVSPost2010Prop44ColorRGB
 90
      255
102
RTVSPost2010PropOp44
 70
     1
102
RTVSPost2010Prop45
280
     0
102
RTVSPost2010PropOp45
 70
     1
102
RTVSPost2010Prop46
 90
       50
102
RTVSPost2010PropOp46
 70
     1
102
RTVSPost2010Prop47
 90
       50
102
RTVSPost2010PropOp47
 70
     1
102
RTVSPost2010Prop48
 90
       50
102
RTVSPost2010PropOp48
 70
     1
102
RTVSPost2010Prop49
280
     0
102
RTVSPost2010PropOp49
 70
     1
102
RTVSPost2010Prop50
 90
       50
102
RTVSPost2010PropOp50
 70
     1
102
RTVSPost2010Prop51ColorIndex
 90
      256
102
RTVSPost2010Prop51ColorRGB
 90
-16777216
102
RTVSPost2010PropOp51
 70
     0
102
RTVSPost2010Prop52
140
1.0
102
RTVSPost2010PropOp52
 70
     0
102
RTVSPost2010Prop53
 90
        2
102
RTVSPost2010PropOp53
 70
     1
102
RTVSPost2010Prop54
  1
strokes_ogs.tif
102
RTVSPost2010PropOp54
 70
     1
102
RTVSPost2010Prop55
280
     0
102
RTVSPost2010PropOp55
 70
     1
102
RTVSPost2010Prop56
140
1.0
102
RTVSPost2010PropOp56
 70
     1
102
RTVSPost2010Prop57
140
1.0
102
RTVSPost2010PropOp57
 70
     1
102
RTVSPropertyOp0
 70
     1
102
RTVSPropertyOp1
 70
     1
102
RTVSPropertyOp2
 70
     1
102
RTVSPropertyOp3
 70
     1
102
RTVSPropertyOp4
 70
     1
102
RTVSPropertyOp5
 70
     1
102
RTVSPropertyOp6
 70
     1
102
RTVSPropertyOp7
 70
     1
102
RTVSPropertyOp8
 70
     1
102
RTVSPropertyOp9
 70
     1
102
RTVSPropertyOp10
 70
     1
102
RTVSPropertyOp11
 70
     1
102
RTVSPropertyOp12
 70
     1
102
RTVSPropertyOp13
 70
     1
102
RTVSPropertyOp14
 70
     1
102
RTVSPropertyOp15
 70
     1
102
RTVSPropertyOp16
 70
     1
102
RTVSPropertyOp17
 70
     1
102
RTVSPropertyOp18
 70
     1
102
RTVSPropertyOp19
 70
     1
102
RTVSPropertyOp20
 70
     1
102
RTVSPropertyOp21
 70
     1
102
RTVSPropertyOp22
 70
     1
102
RTVSPropertyOp23
 70
     1
102
RTVSPropertyOp24
 70
     1
102
RTVSPropertyOp25
 70
     1
102
RTVSPropertyOp26
 70
     1
102
RTVSPropertyOp27
 70
     1
102
RTVSPropertyOp28
 70
     1
102
RTVSPropertyOp29
 70
     1
102
RTVSPropertyOp30
 70
     1
102
RTVSPropertyOp31
 70
     1
102
RTVSPropertyOp32
 70
     1
102
RTVSPropertyOp33
 70
     1
102
RTVSPropertyOp34
 70
     1
102
RTVSPropertyOp35
 70
     1
102
RTVSPropertyOp36
 70
     1
102
RTVSPropertyOp37
 70
     1
102
RTVSPropertyOp38
 70
     1
102
RTVSPropertyOp39
 70
     1
102
RTVSPropertyOp40
 70
     1
102
RTVSPropertyOp41
 70
     1
102
RTVSPropertyOp42
 70
     1
102
RTVSPropertyOp43
 70
     1
102
RTVSPropertyOp44
 70
     1
102
RTVSPropertyOp45
 70
     1
102
RTVSPropertyOp46
 70
     1
102
RTVSPropertyOp47
 70
     1
102
RTVSPropertyOp48
 70
     1
102
RTVSPropertyOp49
 70
     1
102
RTVSPropertyOp50
 70
     1
102
RTVSPropertyOp51
 70
     0
102
RTVSPropertyOp52
 70
     0
102
RTVSPropertyOp53
 70
     1
102
RTVSPropertyOp54
 70
     1
102
RTVSPropertyOp55
 70
     1
102
RTVSPropertyOp56
 70
     1
102
RTVSPropertyOp57
 70
     1
102
RTVSPropertyOp58
 70
     1
102
RTVSPropertyOp59
 70
     1
102
RTVSPropertyOp60
 70
     1
102
RTVSPropertyOp61
 70
     1
102
RTVSPropertyOp62
 70
     1
  0
XRECORD
  5
1BDE
102
{ACAD_REACTORS
330
1BDD
102
}
330
1BDD
100
AcDbXrecord
280
     1
102
RTVSPost2010Prop28
280
     0
102
RTVSPost2010PropOp28
 70
     1
102
RTVSPost2010Prop29
280
     1
102
RTVSPost2010PropOp29
 70
     1
102
RTVSPost2010Prop30
280
     1
102
RTVSPost2010PropOp30
 70
     1
102
RTVSPost2010Prop31
280
     0
102
RTVSPost2010PropOp31
 70
     1
102
RTVSPost2010Prop32
280
     0
102
RTVSPost2010PropOp32
 70
     1
102
RTVSPost2010Prop33
280
     0
102
RTVSPost2010PropOp33
 70
     1
102
RTVSPost2010Prop34
280
     0
102
RTVSPost2010PropOp34
 70
     1
102
RTVSPost2010Prop35
280
     0
102
RTVSPost2010PropOp35
 70
     1
102
RTVSPost2010Prop36
280
     0
102
RTVSPost2010PropOp36
 70
     1
102
RTVSPost2010Prop37
 90
       50
102
RTVSPost2010PropOp37
 70
     1
102
RTVSPost2010Prop38
140
0.0
102
RTVSPost2010PropOp38
 70
     1
102
RTVSPost2010Prop39
140
1.0
102
RTVSPost2010PropOp39
 70
     1
102
RTVSPost2010Prop40
 90
        0
102
RTVSPost2010PropOp40
 70
     1
102
RTVSPost2010Prop41ColorIndex
 90
       18
102
RTVSPost2010Prop41ColorRGB
 90
        0
102
RTVSPost2010PropOp41
 70
     1
102
RTVSPost2010Prop42
 90
       50
102
RTVSPost2010PropOp42
 70
     1
102
RTVSPost2010Prop43
 90
        3
102
RTVSPost2010PropOp43
 70
     1
102
RTVSPost2010Prop44ColorIndex
 90
        5
102
RTVSPost2010Prop44ColorRGB
 90
      255
102
RTVSPost2010PropOp44
 70
     1
102
RTVSPost2010Prop45
280
     0
102
RTVSPost2010PropOp45
 70
     1
102
RTVSPost2010Prop46
 90
       50
102
RTVSPost2010PropOp46
 70
     1
102
RTVSPost2010Prop47
 90
       50
102
RTVSPost2010PropOp47
 70
     1
102
RTVSPost2010Prop48
 90
       50
102
RTVSPost2010PropOp48
 70
     1
102
RTVSPost2010Prop49
280
     0
102
RTVSPost2010PropOp49
 70
     1
102
RTVSPost2010Prop50
 90
       50
102
RTVSPost2010PropOp50
 70
     1
102
RTVSPost2010Prop51ColorIndex
 90
      256
102
RTVSPost2010Prop51ColorRGB
 90
-16777216
102
RTVSPost2010PropOp51
 70
     0
102
RTVSPost2010Prop52
140
1.0
102
RTVSPost2010PropOp52
 70
     0
102
RTVSPost2010Prop53
 90
        2
102
RTVSPost2010PropOp53
 70
     1
102
RTVSPost2010Prop54
  1
strokes_ogs.tif
102
RTVSPost2010PropOp54
 70
     1
102
RTVSPost2010Prop55
280
     0
102
RTVSPost2010PropOp55
 70
     1
102
RTVSPost2010Prop56
140
1.0
102
RTVSPost2010PropOp56
 70
     1
102
RTVSPost2010Prop57
140
1.0
102
RTVSPost2010PropOp57
 70
     1
102
RTVSPropertyOp0
 70
     1
102
RTVSPropertyOp1
 70
     1
102
RTVSPropertyOp2
 70
     1
102
RTVSPropertyOp3
 70
     1
102
RTVSPropertyOp4
 70
     1
102
RTVSPropertyOp5
 70
     1
102
RTVSPropertyOp6
 70
     1
102
RTVSPropertyOp7
 70
     1
102
RTVSPropertyOp8
 70
     1
102
RTVSPropertyOp9
 70
     1
102
RTVSPropertyOp10
 70
     1
102
RTVSPropertyOp11
 70
     1
102
RTVSPropertyOp12
 70
     1
102
RTVSPropertyOp13
 70
     1
102
RTVSPropertyOp14
 70
     1
102
RTVSPropertyOp15
 70
     1
102
RTVSPropertyOp16
 70
     1
102
RTVSPropertyOp17
 70
     1
102
RTVSPropertyOp18
 70
     1
102
RTVSPropertyOp19
 70
     1
102
RTVSPropertyOp20
 70
     1
102
RTVSPropertyOp21
 70
     1
102
RTVSPropertyOp22
 70
     1
102
RTVSPropertyOp23
 70
     1
102
RTVSPropertyOp24
 70
     1
102
RTVSPropertyOp25
 70
     1
102
RTVSPropertyOp26
 70
     1
102
RTVSPropertyOp27
 70
     1
102
RTVSPropertyOp28
 70
     1
102
RTVSPropertyOp29
 70
     1
102
RTVSPropertyOp30
 70
     1
102
RTVSPropertyOp31
 70
     1
102
RTVSPropertyOp32
 70
     1
102
RTVSPropertyOp33
 70
     1
102
RTVSPropertyOp34
 70
     1
102
RTVSPropertyOp35
 70
     1
102
RTVSPropertyOp36
 70
     1
102
RTVSPropertyOp37
 70
     1
102
RTVSPropertyOp38
 70
     1
102
RTVSPropertyOp39
 70
     1
102
RTVSPropertyOp40
 70
     1
102
RTVSPropertyOp41
 70
     1
102
RTVSPropertyOp42
 70
     1
102
RTVSPropertyOp43
 70
     1
102
RTVSPropertyOp44
 70
     1
102
RTVSPropertyOp45
 70
     1
102
RTVSPropertyOp46
 70
     1
102
RTVSPropertyOp47
 70
     1
102
RTVSPropertyOp48
 70
     1
102
RTVSPropertyOp49
 70
     1
102
RTVSPropertyOp50
 70
     1
102
RTVSPropertyOp51
 70
     0
102
RTVSPropertyOp52
 70
     0
102
RTVSPropertyOp53
 70
     1
102
RTVSPropertyOp54
 70
     1
102
RTVSPropertyOp55
 70
     1
102
RTVSPropertyOp56
 70
     1
102
RTVSPropertyOp57
 70
     1
102
RTVSPropertyOp58
 70
     1
102
RTVSPropertyOp59
 70
     1
102
RTVSPropertyOp60
 70
     1
102
RTVSPropertyOp61
 70
     1
102
RTVSPropertyOp62
 70
     1
  0
XRECORD
  5
1BD0
102
{ACAD_REACTORS
330
1BCF
102
}
330
1BCF
100
AcDbXrecord
280
     1
102
RTVSPost2010Prop28
280
     0
102
RTVSPost2010PropOp28
 70
     1
102
RTVSPost2010Prop29
280
     1
102
RTVSPost2010PropOp29
 70
     1
102
RTVSPost2010Prop30
280
     1
102
RTVSPost2010PropOp30
 70
     1
102
RTVSPost2010Prop31
280
     0
102
RTVSPost2010PropOp31
 70
     1
102
RTVSPost2010Prop32
280
     0
102
RTVSPost2010PropOp32
 70
     1
102
RTVSPost2010Prop33
280
     0
102
RTVSPost2010PropOp33
 70
     1
102
RTVSPost2010Prop34
280
     0
102
RTVSPost2010PropOp34
 70
     1
102
RTVSPost2010Prop35
280
     0
102
RTVSPost2010PropOp35
 70
     1
102
RTVSPost2010Prop36
280
     0
102
RTVSPost2010PropOp36
 70
     1
102
RTVSPost2010Prop37
 90
       50
102
RTVSPost2010PropOp37
 70
     1
102
RTVSPost2010Prop38
140
0.0
102
RTVSPost2010PropOp38
 70
     1
102
RTVSPost2010Prop39
140
1.0
102
RTVSPost2010PropOp39
 70
     1
102
RTVSPost2010Prop40
 90
        0
102
RTVSPost2010PropOp40
 70
     1
102
RTVSPost2010Prop41ColorIndex
 90
       18
102
RTVSPost2010Prop41ColorRGB
 90
        0
102
RTVSPost2010PropOp41
 70
     1
102
RTVSPost2010Prop42
 90
       50
102
RTVSPost2010PropOp42
 70
     1
102
RTVSPost2010Prop43
 90
        3
102
RTVSPost2010PropOp43
 70
     1
102
RTVSPost2010Prop44ColorIndex
 90
        5
102
RTVSPost2010Prop44ColorRGB
 90
      255
102
RTVSPost2010PropOp44
 70
     1
102
RTVSPost2010Prop45
280
     0
102
RTVSPost2010PropOp45
 70
     1
102
RTVSPost2010Prop46
 90
       50
102
RTVSPost2010PropOp46
 70
     1
102
RTVSPost2010Prop47
 90
       50
102
RTVSPost2010PropOp47
 70
     1
102
RTVSPost2010Prop48
 90
       50
102
RTVSPost2010PropOp48
 70
     1
102
RTVSPost2010Prop49
280
     0
102
RTVSPost2010PropOp49
 70
     1
102
RTVSPost2010Prop50
 90
       50
102
RTVSPost2010PropOp50
 70
     1
102
RTVSPost2010Prop51ColorIndex
 90
      256
102
RTVSPost2010Prop51ColorRGB
 90
-16777216
102
RTVSPost2010PropOp51
 70
     0
102
RTVSPost2010Prop52
140
1.0
102
RTVSPost2010PropOp52
 70
     0
102
RTVSPost2010Prop53
 90
        2
102
RTVSPost2010PropOp53
 70
     1
102
RTVSPost2010Prop54
  1
strokes_ogs.tif
102
RTVSPost2010PropOp54
 70
     1
102
RTVSPost2010Prop55
280
     0
102
RTVSPost2010PropOp55
 70
     1
102
RTVSPost2010Prop56
140
1.0
102
RTVSPost2010PropOp56
 70
     1
102
RTVSPost2010Prop57
140
1.0
102
RTVSPost2010PropOp57
 70
     1
102
RTVSPropertyOp0
 70
     1
102
RTVSPropertyOp1
 70
     1
102
RTVSPropertyOp2
 70
     1
102
RTVSPropertyOp3
 70
     1
102
RTVSPropertyOp4
 70
     1
102
RTVSPropertyOp5
 70
     1
102
RTVSPropertyOp6
 70
     1
102
RTVSPropertyOp7
 70
     1
102
RTVSPropertyOp8
 70
     1
102
RTVSPropertyOp9
 70
     1
102
RTVSPropertyOp10
 70
     1
102
RTVSPropertyOp11
 70
     1
102
RTVSPropertyOp12
 70
     1
102
RTVSPropertyOp13
 70
     1
102
RTVSPropertyOp14
 70
     1
102
RTVSPropertyOp15
 70
     1
102
RTVSPropertyOp16
 70
     1
102
RTVSPropertyOp17
 70
     1
102
RTVSPropertyOp18
 70
     1
102
RTVSPropertyOp19
 70
     1
102
RTVSPropertyOp20
 70
     1
102
RTVSPropertyOp21
 70
     1
102
RTVSPropertyOp22
 70
     1
102
RTVSPropertyOp23
 70
     1
102
RTVSPropertyOp24
 70
     1
102
RTVSPropertyOp25
 70
     1
102
RTVSPropertyOp26
 70
     1
102
RTVSPropertyOp27
 70
     1
102
RTVSPropertyOp28
 70
     1
102
RTVSPropertyOp29
 70
     1
102
RTVSPropertyOp30
 70
     1
102
RTVSPropertyOp31
 70
     1
102
RTVSPropertyOp32
 70
     1
102
RTVSPropertyOp33
 70
     1
102
RTVSPropertyOp34
 70
     1
102
RTVSPropertyOp35
 70
     1
102
RTVSPropertyOp36
 70
     1
102
RTVSPropertyOp37
 70
     1
102
RTVSPropertyOp38
 70
     1
102
RTVSPropertyOp39
 70
     1
102
RTVSPropertyOp40
 70
     1
102
RTVSPropertyOp41
 70
     1
102
RTVSPropertyOp42
 70
     1
102
RTVSPropertyOp43
 70
     1
102
RTVSPropertyOp44
 70
     1
102
RTVSPropertyOp45
 70
     1
102
RTVSPropertyOp46
 70
     1
102
RTVSPropertyOp47
 70
     1
102
RTVSPropertyOp48
 70
     1
102
RTVSPropertyOp49
 70
     1
102
RTVSPropertyOp50
 70
     1
102
RTVSPropertyOp51
 70
     0
102
RTVSPropertyOp52
 70
     0
102
RTVSPropertyOp53
 70
     1
102
RTVSPropertyOp54
 70
     1
102
RTVSPropertyOp55
 70
     1
102
RTVSPropertyOp56
 70
     1
102
RTVSPropertyOp57
 70
     1
102
RTVSPropertyOp58
 70
     1
102
RTVSPropertyOp59
 70
     1
102
RTVSPropertyOp60
 70
     1
102
RTVSPropertyOp61
 70
     1
102
RTVSPropertyOp62
 70
     1
  0
XRECORD
  5
1BD4
102
{ACAD_REACTORS
330
1BD3
102
}
330
1BD3
100
AcDbXrecord
280
     1
102
RTVSPost2010Prop28
280
     0
102
RTVSPost2010PropOp28
 70
     1
102
RTVSPost2010Prop29
280
     1
102
RTVSPost2010PropOp29
 70
     1
102
RTVSPost2010Prop30
280
     1
102
RTVSPost2010PropOp30
 70
     1
102
RTVSPost2010Prop31
280
     0
102
RTVSPost2010PropOp31
 70
     1
102
RTVSPost2010Prop32
280
     0
102
RTVSPost2010PropOp32
 70
     1
102
RTVSPost2010Prop33
280
     0
102
RTVSPost2010PropOp33
 70
     1
102
RTVSPost2010Prop34
280
     0
102
RTVSPost2010PropOp34
 70
     1
102
RTVSPost2010Prop35
280
     0
102
RTVSPost2010PropOp35
 70
     1
102
RTVSPost2010Prop36
280
     0
102
RTVSPost2010PropOp36
 70
     1
102
RTVSPost2010Prop37
 90
       50
102
RTVSPost2010PropOp37
 70
     1
102
RTVSPost2010Prop38
140
0.0
102
RTVSPost2010PropOp38
 70
     1
102
RTVSPost2010Prop39
140
1.0
102
RTVSPost2010PropOp39
 70
     1
102
RTVSPost2010Prop40
 90
        0
102
RTVSPost2010PropOp40
 70
     1
102
RTVSPost2010Prop41ColorIndex
 90
       18
102
RTVSPost2010Prop41ColorRGB
 90
        0
102
RTVSPost2010PropOp41
 70
     1
102
RTVSPost2010Prop42
 90
       50
102
RTVSPost2010PropOp42
 70
     1
102
RTVSPost2010Prop43
 90
        3
102
RTVSPost2010PropOp43
 70
     1
102
RTVSPost2010Prop44ColorIndex
 90
        5
102
RTVSPost2010Prop44ColorRGB
 90
      255
102
RTVSPost2010PropOp44
 70
     1
102
RTVSPost2010Prop45
280
     0
102
RTVSPost2010PropOp45
 70
     1
102
RTVSPost2010Prop46
 90
       50
102
RTVSPost2010PropOp46
 70
     1
102
RTVSPost2010Prop47
 90
       50
102
RTVSPost2010PropOp47
 70
     1
102
RTVSPost2010Prop48
 90
       50
102
RTVSPost2010PropOp48
 70
     1
102
RTVSPost2010Prop49
280
     0
102
RTVSPost2010PropOp49
 70
     1
102
RTVSPost2010Prop50
 90
       50
102
RTVSPost2010PropOp50
 70
     1
102
RTVSPost2010Prop51ColorIndex
 90
      256
102
RTVSPost2010Prop51ColorRGB
 90
-16777216
102
RTVSPost2010PropOp51
 70
     0
102
RTVSPost2010Prop52
140
1.0
102
RTVSPost2010PropOp52
 70
     0
102
RTVSPost2010Prop53
 90
        2
102
RTVSPost2010PropOp53
 70
     1
102
RTVSPost2010Prop54
  1
strokes_ogs.tif
102
RTVSPost2010PropOp54
 70
     1
102
RTVSPost2010Prop55
280
     0
102
RTVSPost2010PropOp55
 70
     1
102
RTVSPost2010Prop56
140
1.0
102
RTVSPost2010PropOp56
 70
     1
102
RTVSPost2010Prop57
140
1.0
102
RTVSPost2010PropOp57
 70
     1
102
RTVSPropertyOp0
 70
     1
102
RTVSPropertyOp1
 70
     1
102
RTVSPropertyOp2
 70
     1
102
RTVSPropertyOp3
 70
     1
102
RTVSPropertyOp4
 70
     1
102
RTVSPropertyOp5
 70
     1
102
RTVSPropertyOp6
 70
     1
102
RTVSPropertyOp7
 70
     1
102
RTVSPropertyOp8
 70
     1
102
RTVSPropertyOp9
 70
     1
102
RTVSPropertyOp10
 70
     1
102
RTVSPropertyOp11
 70
     1
102
RTVSPropertyOp12
 70
     1
102
RTVSPropertyOp13
 70
     1
102
RTVSPropertyOp14
 70
     1
102
RTVSPropertyOp15
 70
     1
102
RTVSPropertyOp16
 70
     1
102
RTVSPropertyOp17
 70
     1
102
RTVSPropertyOp18
 70
     1
102
RTVSPropertyOp19
 70
     1
102
RTVSPropertyOp20
 70
     1
102
RTVSPropertyOp21
 70
     1
102
RTVSPropertyOp22
 70
     1
102
RTVSPropertyOp23
 70
     1
102
RTVSPropertyOp24
 70
     1
102
RTVSPropertyOp25
 70
     1
102
RTVSPropertyOp26
 70
     1
102
RTVSPropertyOp27
 70
     1
102
RTVSPropertyOp28
 70
     1
102
RTVSPropertyOp29
 70
     1
102
RTVSPropertyOp30
 70
     1
102
RTVSPropertyOp31
 70
     1
102
RTVSPropertyOp32
 70
     1
102
RTVSPropertyOp33
 70
     1
102
RTVSPropertyOp34
 70
     1
102
RTVSPropertyOp35
 70
     1
102
RTVSPropertyOp36
 70
     1
102
RTVSPropertyOp37
 70
     1
102
RTVSPropertyOp38
 70
     1
102
RTVSPropertyOp39
 70
     1
102
RTVSPropertyOp40
 70
     1
102
RTVSPropertyOp41
 70
     1
102
RTVSPropertyOp42
 70
     1
102
RTVSPropertyOp43
 70
     1
102
RTVSPropertyOp44
 70
     1
102
RTVSPropertyOp45
 70
     1
102
RTVSPropertyOp46
 70
     1
102
RTVSPropertyOp47
 70
     1
102
RTVSPropertyOp48
 70
     1
102
RTVSPropertyOp49
 70
     1
102
RTVSPropertyOp50
 70
     1
102
RTVSPropertyOp51
 70
     0
102
RTVSPropertyOp52
 70
     0
102
RTVSPropertyOp53
 70
     1
102
RTVSPropertyOp54
 70
     1
102
RTVSPropertyOp55
 70
     1
102
RTVSPropertyOp56
 70
     1
102
RTVSPropertyOp57
 70
     1
102
RTVSPropertyOp58
 70
     1
102
RTVSPropertyOp59
 70
     1
102
RTVSPropertyOp60
 70
     1
102
RTVSPropertyOp61
 70
     1
102
RTVSPropertyOp62
 70
     1
  0
XRECORD
  5
1BE4
102
{ACAD_REACTORS
330
1BE3
102
}
330
1BE3
100
AcDbXrecord
280
     1
102
RTVSPost2010Prop28
280
     0
102
RTVSPost2010PropOp28
 70
     1
102
RTVSPost2010Prop29
280
     1
102
RTVSPost2010PropOp29
 70
     1
102
RTVSPost2010Prop30
280
     1
102
RTVSPost2010PropOp30
 70
     1
102
RTVSPost2010Prop31
280
     0
102
RTVSPost2010PropOp31
 70
     1
102
RTVSPost2010Prop32
280
     0
102
RTVSPost2010PropOp32
 70
     1
102
RTVSPost2010Prop33
280
     0
102
RTVSPost2010PropOp33
 70
     1
102
RTVSPost2010Prop34
280
     0
102
RTVSPost2010PropOp34
 70
     1
102
RTVSPost2010Prop35
280
     0
102
RTVSPost2010PropOp35
 70
     1
102
RTVSPost2010Prop36
280
     0
102
RTVSPost2010PropOp36
 70
     1
102
RTVSPost2010Prop37
 90
       50
102
RTVSPost2010PropOp37
 70
     1
102
RTVSPost2010Prop38
140
0.0
102
RTVSPost2010PropOp38
 70
     1
102
RTVSPost2010Prop39
140
1.0
102
RTVSPost2010PropOp39
 70
     1
102
RTVSPost2010Prop40
 90
        0
102
RTVSPost2010PropOp40
 70
     1
102
RTVSPost2010Prop41ColorIndex
 90
       18
102
RTVSPost2010Prop41ColorRGB
 90
        0
102
RTVSPost2010PropOp41
 70
     1
102
RTVSPost2010Prop42
 90
       50
102
RTVSPost2010PropOp42
 70
     1
102
RTVSPost2010Prop43
 90
        3
102
RTVSPost2010PropOp43
 70
     1
102
RTVSPost2010Prop44ColorIndex
 90
        5
102
RTVSPost2010Prop44ColorRGB
 90
      255
102
RTVSPost2010PropOp44
 70
     1
102
RTVSPost2010Prop45
280
     0
102
RTVSPost2010PropOp45
 70
     1
102
RTVSPost2010Prop46
 90
       50
102
RTVSPost2010PropOp46
 70
     1
102
RTVSPost2010Prop47
 90
       50
102
RTVSPost2010PropOp47
 70
     1
102
RTVSPost2010Prop48
 90
       50
102
RTVSPost2010PropOp48
 70
     1
102
RTVSPost2010Prop49
280
     0
102
RTVSPost2010PropOp49
 70
     1
102
RTVSPost2010Prop50
 90
       50
102
RTVSPost2010PropOp50
 70
     1
102
RTVSPost2010Prop51ColorIndex
 90
      256
102
RTVSPost2010Prop51ColorRGB
 90
-16777216
102
RTVSPost2010PropOp51
 70
     0
102
RTVSPost2010Prop52
140
1.0
102
RTVSPost2010PropOp52
 70
     0
102
RTVSPost2010Prop53
 90
        2
102
RTVSPost2010PropOp53
 70
     1
102
RTVSPost2010Prop54
  1
strokes_ogs.tif
102
RTVSPost2010PropOp54
 70
     1
102
RTVSPost2010Prop55
280
     0
102
RTVSPost2010PropOp55
 70
     1
102
RTVSPost2010Prop56
140
1.0
102
RTVSPost2010PropOp56
 70
     1
102
RTVSPost2010Prop57
140
1.0
102
RTVSPost2010PropOp57
 70
     1
102
RTVSPropertyOp0
 70
     0
102
RTVSPropertyOp1
 70
     0
102
RTVSPropertyOp2
 70
     0
102
RTVSPropertyOp3
 70
     0
102
RTVSPropertyOp4
 70
     0
102
RTVSPropertyOp5
 70
     0
102
RTVSPropertyOp6
 70
     0
102
RTVSPropertyOp7
 70
     0
102
RTVSPropertyOp8
 70
     0
102
RTVSPropertyOp9
 70
     0
102
RTVSPropertyOp10
 70
     0
102
RTVSPropertyOp11
 70
     0
102
RTVSPropertyOp12
 70
     0
102
RTVSPropertyOp13
 70
     0
102
RTVSPropertyOp14
 70
     2
102
RTVSPropertyOp15
 70
     0
102
RTVSPropertyOp16
 70
     0
102
RTVSPropertyOp17
 70
     0
102
RTVSPropertyOp18
 70
     0
102
RTVSPropertyOp19
 70
     0
102
RTVSPropertyOp20
 70
     0
102
RTVSPropertyOp21
 70
     0
102
RTVSPropertyOp22
 70
     0
102
RTVSPropertyOp23
 70
     0
102
RTVSPropertyOp24
 70
     0
102
RTVSPropertyOp25
 70
     0
102
RTVSPropertyOp26
 70
     0
102
RTVSPropertyOp27
 70
     0
102
RTVSPropertyOp28
 70
     1
102
RTVSPropertyOp29
 70
     1
102
RTVSPropertyOp30
 70
     1
102
RTVSPropertyOp31
 70
     1
102
RTVSPropertyOp32
 70
     1
102
RTVSPropertyOp33
 70
     1
102
RTVSPropertyOp34
 70
     1
102
RTVSPropertyOp35
 70
     1
102
RTVSPropertyOp36
 70
     1
102
RTVSPropertyOp37
 70
     1
102
RTVSPropertyOp38
 70
     1
102
RTVSPropertyOp39
 70
     1
102
RTVSPropertyOp40
 70
     1
102
RTVSPropertyOp41
 70
     1
102
RTVSPropertyOp42
 70
     1
102
RTVSPropertyOp43
 70
     1
102
RTVSPropertyOp44
 70
     1
102
RTVSPropertyOp45
 70
     1
102
RTVSPropertyOp46
 70
     1
102
RTVSPropertyOp47
 70
     1
102
RTVSPropertyOp48
 70
     1
102
RTVSPropertyOp49
 70
     1
102
RTVSPropertyOp50
 70
     1
102
RTVSPropertyOp51
 70
     0
102
RTVSPropertyOp52
 70
     0
102
RTVSPropertyOp53
 70
     1
102
RTVSPropertyOp54
 70
     1
102
RTVSPropertyOp55
 70
     1
102
RTVSPropertyOp56
 70
     1
102
RTVSPropertyOp57
 70
     1
102
RTVSPropertyOp58
 70
     1
102
RTVSPropertyOp59
 70
     1
102
RTVSPropertyOp60
 70
     1
102
RTVSPropertyOp61
 70
     1
102
RTVSPropertyOp62
 70
     1
  0
XRECORD
  5
1BDC
102
{ACAD_REACTORS
330
1BDB
102
}
330
1BDB
100
AcDbXrecord
280
     1
102
RTVSPost2010Prop28
280
     0
102
RTVSPost2010PropOp28
 70
     1
102
RTVSPost2010Prop29
280
     1
102
RTVSPost2010PropOp29
 70
     1
102
RTVSPost2010Prop30
280
     1
102
RTVSPost2010PropOp30
 70
     1
102
RTVSPost2010Prop31
280
     0
102
RTVSPost2010PropOp31
 70
     1
102
RTVSPost2010Prop32
280
     0
102
RTVSPost2010PropOp32
 70
     1
102
RTVSPost2010Prop33
280
     0
102
RTVSPost2010PropOp33
 70
     1
102
RTVSPost2010Prop34
280
     0
102
RTVSPost2010PropOp34
 70
     1
102
RTVSPost2010Prop35
280
     0
102
RTVSPost2010PropOp35
 70
     1
102
RTVSPost2010Prop36
280
     0
102
RTVSPost2010PropOp36
 70
     1
102
RTVSPost2010Prop37
 90
       50
102
RTVSPost2010PropOp37
 70
     1
102
RTVSPost2010Prop38
140
0.0
102
RTVSPost2010PropOp38
 70
     1
102
RTVSPost2010Prop39
140
1.0
102
RTVSPost2010PropOp39
 70
     1
102
RTVSPost2010Prop40
 90
        0
102
RTVSPost2010PropOp40
 70
     1
102
RTVSPost2010Prop41ColorIndex
 90
       18
102
RTVSPost2010Prop41ColorRGB
 90
        0
102
RTVSPost2010PropOp41
 70
     1
102
RTVSPost2010Prop42
 90
       50
102
RTVSPost2010PropOp42
 70
     1
102
RTVSPost2010Prop43
 90
        3
102
RTVSPost2010PropOp43
 70
     1
102
RTVSPost2010Prop44ColorIndex
 90
        5
102
RTVSPost2010Prop44ColorRGB
 90
      255
102
RTVSPost2010PropOp44
 70
     1
102
RTVSPost2010Prop45
280
     0
102
RTVSPost2010PropOp45
 70
     1
102
RTVSPost2010Prop46
 90
       50
102
RTVSPost2010PropOp46
 70
     1
102
RTVSPost2010Prop47
 90
       50
102
RTVSPost2010PropOp47
 70
     1
102
RTVSPost2010Prop48
 90
       50
102
RTVSPost2010PropOp48
 70
     1
102
RTVSPost2010Prop49
280
     0
102
RTVSPost2010PropOp49
 70
     1
102
RTVSPost2010Prop50
 90
       50
102
RTVSPost2010PropOp50
 70
     1
102
RTVSPost2010Prop51ColorIndex
 90
      256
102
RTVSPost2010Prop51ColorRGB
 90
-16777216
102
RTVSPost2010PropOp51
 70
     0
102
RTVSPost2010Prop52
140
1.0
102
RTVSPost2010PropOp52
 70
     0
102
RTVSPost2010Prop53
 90
        2
102
RTVSPost2010PropOp53
 70
     1
102
RTVSPost2010Prop54
  1
strokes_ogs.tif
102
RTVSPost2010PropOp54
 70
     1
102
RTVSPost2010Prop55
280
     0
102
RTVSPost2010PropOp55
 70
     1
102
RTVSPost2010Prop56
140
1.0
102
RTVSPost2010PropOp56
 70
     1
102
RTVSPost2010Prop57
140
1.0
102
RTVSPost2010PropOp57
 70
     1
102
RTVSPropertyOp0
 70
     1
102
RTVSPropertyOp1
 70
     1
102
RTVSPropertyOp2
 70
     1
102
RTVSPropertyOp3
 70
     1
102
RTVSPropertyOp4
 70
     1
102
RTVSPropertyOp5
 70
     1
102
RTVSPropertyOp6
 70
     1
102
RTVSPropertyOp7
 70
     1
102
RTVSPropertyOp8
 70
     1
102
RTVSPropertyOp9
 70
     1
102
RTVSPropertyOp10
 70
     1
102
RTVSPropertyOp11
 70
     1
102
RTVSPropertyOp12
 70
     1
102
RTVSPropertyOp13
 70
     1
102
RTVSPropertyOp14
 70
     1
102
RTVSPropertyOp15
 70
     1
102
RTVSPropertyOp16
 70
     1
102
RTVSPropertyOp17
 70
     1
102
RTVSPropertyOp18
 70
     1
102
RTVSPropertyOp19
 70
     1
102
RTVSPropertyOp20
 70
     1
102
RTVSPropertyOp21
 70
     1
102
RTVSPropertyOp22
 70
     1
102
RTVSPropertyOp23
 70
     1
102
RTVSPropertyOp24
 70
     1
102
RTVSPropertyOp25
 70
     1
102
RTVSPropertyOp26
 70
     1
102
RTVSPropertyOp27
 70
     1
102
RTVSPropertyOp28
 70
     1
102
RTVSPropertyOp29
 70
     1
102
RTVSPropertyOp30
 70
     1
102
RTVSPropertyOp31
 70
     1
102
RTVSPropertyOp32
 70
     1
102
RTVSPropertyOp33
 70
     1
102
RTVSPropertyOp34
 70
     1
102
RTVSPropertyOp35
 70
     1
102
RTVSPropertyOp36
 70
     1
102
RTVSPropertyOp37
 70
     1
102
RTVSPropertyOp38
 70
     1
102
RTVSPropertyOp39
 70
     1
102
RTVSPropertyOp40
 70
     1
102
RTVSPropertyOp41
 70
     1
102
RTVSPropertyOp42
 70
     1
102
RTVSPropertyOp43
 70
     1
102
RTVSPropertyOp44
 70
     1
102
RTVSPropertyOp45
 70
     1
102
RTVSPropertyOp46
 70
     1
102
RTVSPropertyOp47
 70
     1
102
RTVSPropertyOp48
 70
     1
102
RTVSPropertyOp49
 70
     1
102
RTVSPropertyOp50
 70
     1
102
RTVSPropertyOp51
 70
     0
102
RTVSPropertyOp52
 70
     0
102
RTVSPropertyOp53
 70
     1
102
RTVSPropertyOp54
 70
     1
102
RTVSPropertyOp55
 70
     1
102
RTVSPropertyOp56
 70
     1
102
RTVSPropertyOp57
 70
     1
102
RTVSPropertyOp58
 70
     1
102
RTVSPropertyOp59
 70
     1
102
RTVSPropertyOp60
 70
     1
102
RTVSPropertyOp61
 70
     1
102
RTVSPropertyOp62
 70
     1
  0
XRECORD
  5
1BC0
102
{ACAD_REACTORS
330
1BBF
102
}
330
1BBF
100
AcDbXrecord
280
     1
102
RTVSPost2010Prop28
280
     0
102
RTVSPost2010PropOp28
 70
     1
102
RTVSPost2010Prop29
280
     1
102
RTVSPost2010PropOp29
 70
     1
102
RTVSPost2010Prop30
280
     1
102
RTVSPost2010PropOp30
 70
     1
102
RTVSPost2010Prop31
280
     0
102
RTVSPost2010PropOp31
 70
     1
102
RTVSPost2010Prop32
280
     0
102
RTVSPost2010PropOp32
 70
     1
102
RTVSPost2010Prop33
280
     0
102
RTVSPost2010PropOp33
 70
     1
102
RTVSPost2010Prop34
280
     0
102
RTVSPost2010PropOp34
 70
     1
102
RTVSPost2010Prop35
280
     0
102
RTVSPost2010PropOp35
 70
     1
102
RTVSPost2010Prop36
280
     0
102
RTVSPost2010PropOp36
 70
     1
102
RTVSPost2010Prop37
 90
       50
102
RTVSPost2010PropOp37
 70
     1
102
RTVSPost2010Prop38
140
0.0
102
RTVSPost2010PropOp38
 70
     1
102
RTVSPost2010Prop39
140
1.0
102
RTVSPost2010PropOp39
 70
     1
102
RTVSPost2010Prop40
 90
        0
102
RTVSPost2010PropOp40
 70
     1
102
RTVSPost2010Prop41ColorIndex
 90
       18
102
RTVSPost2010Prop41ColorRGB
 90
        0
102
RTVSPost2010PropOp41
 70
     1
102
RTVSPost2010Prop42
 90
       50
102
RTVSPost2010PropOp42
 70
     1
102
RTVSPost2010Prop43
 90
        3
102
RTVSPost2010PropOp43
 70
     1
102
RTVSPost2010Prop44ColorIndex
 90
        5
102
RTVSPost2010Prop44ColorRGB
 90
      255
102
RTVSPost2010PropOp44
 70
     1
102
RTVSPost2010Prop45
280
     0
102
RTVSPost2010PropOp45
 70
     1
102
RTVSPost2010Prop46
 90
       50
102
RTVSPost2010PropOp46
 70
     1
102
RTVSPost2010Prop47
 90
       50
102
RTVSPost2010PropOp47
 70
     1
102
RTVSPost2010Prop48
 90
       50
102
RTVSPost2010PropOp48
 70
     1
102
RTVSPost2010Prop49
280
     0
102
RTVSPost2010PropOp49
 70
     1
102
RTVSPost2010Prop50
 90
       50
102
RTVSPost2010PropOp50
 70
     1
102
RTVSPost2010Prop51ColorIndex
 90
      256
102
RTVSPost2010Prop51ColorRGB
 90
-16777216
102
RTVSPost2010PropOp51
 70
     0
102
RTVSPost2010Prop52
140
1.0
102
RTVSPost2010PropOp52
 70
     0
102
RTVSPost2010Prop53
 90
        2
102
RTVSPost2010PropOp53
 70
     1
102
RTVSPost2010Prop54
  1
strokes_ogs.tif
102
RTVSPost2010PropOp54
 70
     1
102
RTVSPost2010Prop55
280
     0
102
RTVSPost2010PropOp55
 70
     1
102
RTVSPost2010Prop56
140
1.0
102
RTVSPost2010PropOp56
 70
     1
102
RTVSPost2010Prop57
140
1.0
102
RTVSPost2010PropOp57
 70
     1
102
RTVSPropertyOp0
 70
     1
102
RTVSPropertyOp1
 70
     1
102
RTVSPropertyOp2
 70
     1
102
RTVSPropertyOp3
 70
     1
102
RTVSPropertyOp4
 70
     1
102
RTVSPropertyOp5
 70
     1
102
RTVSPropertyOp6
 70
     1
102
RTVSPropertyOp7
 70
     1
102
RTVSPropertyOp8
 70
     1
102
RTVSPropertyOp9
 70
     1
102
RTVSPropertyOp10
 70
     1
102
RTVSPropertyOp11
 70
     1
102
RTVSPropertyOp12
 70
     1
102
RTVSPropertyOp13
 70
     1
102
RTVSPropertyOp14
 70
     1
102
RTVSPropertyOp15
 70
     1
102
RTVSPropertyOp16
 70
     1
102
RTVSPropertyOp17
 70
     1
102
RTVSPropertyOp18
 70
     1
102
RTVSPropertyOp19
 70
     1
102
RTVSPropertyOp20
 70
     1
102
RTVSPropertyOp21
 70
     1
102
RTVSPropertyOp22
 70
     1
102
RTVSPropertyOp23
 70
     1
102
RTVSPropertyOp24
 70
     1
102
RTVSPropertyOp25
 70
     1
102
RTVSPropertyOp26
 70
     1
102
RTVSPropertyOp27
 70
     1
102
RTVSPropertyOp28
 70
     1
102
RTVSPropertyOp29
 70
     1
102
RTVSPropertyOp30
 70
     1
102
RTVSPropertyOp31
 70
     1
102
RTVSPropertyOp32
 70
     1
102
RTVSPropertyOp33
 70
     1
102
RTVSPropertyOp34
 70
     1
102
RTVSPropertyOp35
 70
     1
102
RTVSPropertyOp36
 70
     1
102
RTVSPropertyOp37
 70
     1
102
RTVSPropertyOp38
 70
     1
102
RTVSPropertyOp39
 70
     1
102
RTVSPropertyOp40
 70
     1
102
RTVSPropertyOp41
 70
     1
102
RTVSPropertyOp42
 70
     1
102
RTVSPropertyOp43
 70
     1
102
RTVSPropertyOp44
 70
     1
102
RTVSPropertyOp45
 70
     1
102
RTVSPropertyOp46
 70
     1
102
RTVSPropertyOp47
 70
     1
102
RTVSPropertyOp48
 70
     1
102
RTVSPropertyOp49
 70
     1
102
RTVSPropertyOp50
 70
     1
102
RTVSPropertyOp51
 70
     0
102
RTVSPropertyOp52
 70
     0
102
RTVSPropertyOp53
 70
     1
102
RTVSPropertyOp54
 70
     1
102
RTVSPropertyOp55
 70
     1
102
RTVSPropertyOp56
 70
     1
102
RTVSPropertyOp57
 70
     1
102
RTVSPropertyOp58
 70
     1
102
RTVSPropertyOp59
 70
     1
102
RTVSPropertyOp60
 70
     1
102
RTVSPropertyOp61
 70
     1
102
RTVSPropertyOp62
 70
     1
  0
XRECORD
  5
1BC2
102
{ACAD_REACTORS
330
1BC1
102
}
330
1BC1
100
AcDbXrecord
280
     1
102
RTVSPost2010Prop28
280
     0
102
RTVSPost2010PropOp28
 70
     1
102
RTVSPost2010Prop29
280
     1
102
RTVSPost2010PropOp29
 70
     1
102
RTVSPost2010Prop30
280
     1
102
RTVSPost2010PropOp30
 70
     1
102
RTVSPost2010Prop31
280
     0
102
RTVSPost2010PropOp31
 70
     1
102
RTVSPost2010Prop32
280
     0
102
RTVSPost2010PropOp32
 70
     1
102
RTVSPost2010Prop33
280
     0
102
RTVSPost2010PropOp33
 70
     1
102
RTVSPost2010Prop34
280
     0
102
RTVSPost2010PropOp34
 70
     1
102
RTVSPost2010Prop35
280
     0
102
RTVSPost2010PropOp35
 70
     1
102
RTVSPost2010Prop36
280
     0
102
RTVSPost2010PropOp36
 70
     1
102
RTVSPost2010Prop37
 90
       50
102
RTVSPost2010PropOp37
 70
     1
102
RTVSPost2010Prop38
140
0.0
102
RTVSPost2010PropOp38
 70
     1
102
RTVSPost2010Prop39
140
1.0
102
RTVSPost2010PropOp39
 70
     1
102
RTVSPost2010Prop40
 90
        0
102
RTVSPost2010PropOp40
 70
     1
102
RTVSPost2010Prop41ColorIndex
 90
       18
102
RTVSPost2010Prop41ColorRGB
 90
        0
102
RTVSPost2010PropOp41
 70
     1
102
RTVSPost2010Prop42
 90
       50
102
RTVSPost2010PropOp42
 70
     1
102
RTVSPost2010Prop43
 90
        3
102
RTVSPost2010PropOp43
 70
     1
102
RTVSPost2010Prop44ColorIndex
 90
        5
102
RTVSPost2010Prop44ColorRGB
 90
      255
102
RTVSPost2010PropOp44
 70
     1
102
RTVSPost2010Prop45
280
     0
102
RTVSPost2010PropOp45
 70
     1
102
RTVSPost2010Prop46
 90
       50
102
RTVSPost2010PropOp46
 70
     1
102
RTVSPost2010Prop47
 90
       50
102
RTVSPost2010PropOp47
 70
     1
102
RTVSPost2010Prop48
 90
       50
102
RTVSPost2010PropOp48
 70
     1
102
RTVSPost2010Prop49
280
     0
102
RTVSPost2010PropOp49
 70
     1
102
RTVSPost2010Prop50
 90
       50
102
RTVSPost2010PropOp50
 70
     1
102
RTVSPost2010Prop51ColorIndex
 90
      256
102
RTVSPost2010Prop51ColorRGB
 90
-16777216
102
RTVSPost2010PropOp51
 70
     0
102
RTVSPost2010Prop52
140
1.0
102
RTVSPost2010PropOp52
 70
     0
102
RTVSPost2010Prop53
 90
        2
102
RTVSPost2010PropOp53
 70
     1
102
RTVSPost2010Prop54
  1
strokes_ogs.tif
102
RTVSPost2010PropOp54
 70
     1
102
RTVSPost2010Prop55
280
     0
102
RTVSPost2010PropOp55
 70
     1
102
RTVSPost2010Prop56
140
1.0
102
RTVSPost2010PropOp56
 70
     1
102
RTVSPost2010Prop57
140
1.0
102
RTVSPost2010PropOp57
 70
     1
102
RTVSPropertyOp0
 70
     1
102
RTVSPropertyOp1
 70
     1
102
RTVSPropertyOp2
 70
     1
102
RTVSPropertyOp3
 70
     1
102
RTVSPropertyOp4
 70
     1
102
RTVSPropertyOp5
 70
     1
102
RTVSPropertyOp6
 70
     1
102
RTVSPropertyOp7
 70
     1
102
RTVSPropertyOp8
 70
     1
102
RTVSPropertyOp9
 70
     1
102
RTVSPropertyOp10
 70
     1
102
RTVSPropertyOp11
 70
     1
102
RTVSPropertyOp12
 70
     1
102
RTVSPropertyOp13
 70
     1
102
RTVSPropertyOp14
 70
     1
102
RTVSPropertyOp15
 70
     1
102
RTVSPropertyOp16
 70
     1
102
RTVSPropertyOp17
 70
     1
102
RTVSPropertyOp18
 70
     1
102
RTVSPropertyOp19
 70
     1
102
RTVSPropertyOp20
 70
     1
102
RTVSPropertyOp21
 70
     1
102
RTVSPropertyOp22
 70
     1
102
RTVSPropertyOp23
 70
     1
102
RTVSPropertyOp24
 70
     1
102
RTVSPropertyOp25
 70
     1
102
RTVSPropertyOp26
 70
     1
102
RTVSPropertyOp27
 70
     1
102
RTVSPropertyOp28
 70
     1
102
RTVSPropertyOp29
 70
     1
102
RTVSPropertyOp30
 70
     1
102
RTVSPropertyOp31
 70
     1
102
RTVSPropertyOp32
 70
     1
102
RTVSPropertyOp33
 70
     1
102
RTVSPropertyOp34
 70
     1
102
RTVSPropertyOp35
 70
     1
102
RTVSPropertyOp36
 70
     1
102
RTVSPropertyOp37
 70
     1
102
RTVSPropertyOp38
 70
     1
102
RTVSPropertyOp39
 70
     1
102
RTVSPropertyOp40
 70
     1
102
RTVSPropertyOp41
 70
     1
102
RTVSPropertyOp42
 70
     1
102
RTVSPropertyOp43
 70
     1
102
RTVSPropertyOp44
 70
     1
102
RTVSPropertyOp45
 70
     1
102
RTVSPropertyOp46
 70
     1
102
RTVSPropertyOp47
 70
     1
102
RTVSPropertyOp48
 70
     1
102
RTVSPropertyOp49
 70
     1
102
RTVSPropertyOp50
 70
     1
102
RTVSPropertyOp51
 70
     0
102
RTVSPropertyOp52
 70
     0
102
RTVSPropertyOp53
 70
     1
102
RTVSPropertyOp54
 70
     1
102
RTVSPropertyOp55
 70
     1
102
RTVSPropertyOp56
 70
     1
102
RTVSPropertyOp57
 70
     1
102
RTVSPropertyOp58
 70
     1
102
RTVSPropertyOp59
 70
     1
102
RTVSPropertyOp60
 70
     1
102
RTVSPropertyOp61
 70
     1
102
RTVSPropertyOp62
 70
     1
  0
XRECORD
  5
1BC4
102
{ACAD_REACTORS
330
1BC3
102
}
330
1BC3
100
AcDbXrecord
280
     1
102
RTVSPost2010Prop28
280
     0
102
RTVSPost2010PropOp28
 70
     1
102
RTVSPost2010Prop29
280
     1
102
RTVSPost2010PropOp29
 70
     1
102
RTVSPost2010Prop30
280
     1
102
RTVSPost2010PropOp30
 70
     1
102
RTVSPost2010Prop31
280
     0
102
RTVSPost2010PropOp31
 70
     1
102
RTVSPost2010Prop32
280
     0
102
RTVSPost2010PropOp32
 70
     1
102
RTVSPost2010Prop33
280
     0
102
RTVSPost2010PropOp33
 70
     1
102
RTVSPost2010Prop34
280
     0
102
RTVSPost2010PropOp34
 70
     1
102
RTVSPost2010Prop35
280
     0
102
RTVSPost2010PropOp35
 70
     1
102
RTVSPost2010Prop36
280
     0
102
RTVSPost2010PropOp36
 70
     1
102
RTVSPost2010Prop37
 90
       50
102
RTVSPost2010PropOp37
 70
     1
102
RTVSPost2010Prop38
140
0.0
102
RTVSPost2010PropOp38
 70
     1
102
RTVSPost2010Prop39
140
1.0
102
RTVSPost2010PropOp39
 70
     1
102
RTVSPost2010Prop40
 90
        0
102
RTVSPost2010PropOp40
 70
     1
102
RTVSPost2010Prop41ColorIndex
 90
       18
102
RTVSPost2010Prop41ColorRGB
 90
        0
102
RTVSPost2010PropOp41
 70
     1
102
RTVSPost2010Prop42
 90
       50
102
RTVSPost2010PropOp42
 70
     1
102
RTVSPost2010Prop43
 90
        3
102
RTVSPost2010PropOp43
 70
     1
102
RTVSPost2010Prop44ColorIndex
 90
        5
102
RTVSPost2010Prop44ColorRGB
 90
      255
102
RTVSPost2010PropOp44
 70
     1
102
RTVSPost2010Prop45
280
     0
102
RTVSPost2010PropOp45
 70
     1
102
RTVSPost2010Prop46
 90
       50
102
RTVSPost2010PropOp46
 70
     1
102
RTVSPost2010Prop47
 90
       50
102
RTVSPost2010PropOp47
 70
     1
102
RTVSPost2010Prop48
 90
       50
102
RTVSPost2010PropOp48
 70
     1
102
RTVSPost2010Prop49
280
     0
102
RTVSPost2010PropOp49
 70
     1
102
RTVSPost2010Prop50
 90
       50
102
RTVSPost2010PropOp50
 70
     1
102
RTVSPost2010Prop51ColorIndex
 90
      256
102
RTVSPost2010Prop51ColorRGB
 90
-16777216
102
RTVSPost2010PropOp51
 70
     0
102
RTVSPost2010Prop52
140
1.0
102
RTVSPost2010PropOp52
 70
     0
102
RTVSPost2010Prop53
 90
        2
102
RTVSPost2010PropOp53
 70
     1
102
RTVSPost2010Prop54
  1
strokes_ogs.tif
102
RTVSPost2010PropOp54
 70
     1
102
RTVSPost2010Prop55
280
     0
102
RTVSPost2010PropOp55
 70
     1
102
RTVSPost2010Prop56
140
1.0
102
RTVSPost2010PropOp56
 70
     1
102
RTVSPost2010Prop57
140
1.0
102
RTVSPost2010PropOp57
 70
     1
102
RTVSPropertyOp0
 70
     1
102
RTVSPropertyOp1
 70
     1
102
RTVSPropertyOp2
 70
     1
102
RTVSPropertyOp3
 70
     1
102
RTVSPropertyOp4
 70
     1
102
RTVSPropertyOp5
 70
     1
102
RTVSPropertyOp6
 70
     1
102
RTVSPropertyOp7
 70
     1
102
RTVSPropertyOp8
 70
     1
102
RTVSPropertyOp9
 70
     1
102
RTVSPropertyOp10
 70
     1
102
RTVSPropertyOp11
 70
     1
102
RTVSPropertyOp12
 70
     1
102
RTVSPropertyOp13
 70
     1
102
RTVSPropertyOp14
 70
     1
102
RTVSPropertyOp15
 70
     1
102
RTVSPropertyOp16
 70
     1
102
RTVSPropertyOp17
 70
     1
102
RTVSPropertyOp18
 70
     1
102
RTVSPropertyOp19
 70
     1
102
RTVSPropertyOp20
 70
     1
102
RTVSPropertyOp21
 70
     1
102
RTVSPropertyOp22
 70
     1
102
RTVSPropertyOp23
 70
     1
102
RTVSPropertyOp24
 70
     1
102
RTVSPropertyOp25
 70
     1
102
RTVSPropertyOp26
 70
     1
102
RTVSPropertyOp27
 70
     1
102
RTVSPropertyOp28
 70
     1
102
RTVSPropertyOp29
 70
     1
102
RTVSPropertyOp30
 70
     1
102
RTVSPropertyOp31
 70
     1
102
RTVSPropertyOp32
 70
     1
102
RTVSPropertyOp33
 70
     1
102
RTVSPropertyOp34
 70
     1
102
RTVSPropertyOp35
 70
     1
102
RTVSPropertyOp36
 70
     1
102
RTVSPropertyOp37
 70
     1
102
RTVSPropertyOp38
 70
     1
102
RTVSPropertyOp39
 70
     1
102
RTVSPropertyOp40
 70
     1
102
RTVSPropertyOp41
 70
     1
102
RTVSPropertyOp42
 70
     1
102
RTVSPropertyOp43
 70
     1
102
RTVSPropertyOp44
 70
     1
102
RTVSPropertyOp45
 70
     1
102
RTVSPropertyOp46
 70
     1
102
RTVSPropertyOp47
 70
     1
102
RTVSPropertyOp48
 70
     1
102
RTVSPropertyOp49
 70
     1
102
RTVSPropertyOp50
 70
     1
102
RTVSPropertyOp51
 70
     0
102
RTVSPropertyOp52
 70
     0
102
RTVSPropertyOp53
 70
     1
102
RTVSPropertyOp54
 70
     1
102
RTVSPropertyOp55
 70
     1
102
RTVSPropertyOp56
 70
     1
102
RTVSPropertyOp57
 70
     1
102
RTVSPropertyOp58
 70
     1
102
RTVSPropertyOp59
 70
     1
102
RTVSPropertyOp60
 70
     1
102
RTVSPropertyOp61
 70
     1
102
RTVSPropertyOp62
 70
     1
  0
XRECORD
  5
1BC6
102
{ACAD_REACTORS
330
1BC5
102
}
330
1BC5
100
AcDbXrecord
280
     1
102
RTVSPost2010Prop28
280
     0
102
RTVSPost2010PropOp28
 70
     1
102
RTVSPost2010Prop29
280
     1
102
RTVSPost2010PropOp29
 70
     1
102
RTVSPost2010Prop30
280
     1
102
RTVSPost2010PropOp30
 70
     1
102
RTVSPost2010Prop31
280
     0
102
RTVSPost2010PropOp31
 70
     1
102
RTVSPost2010Prop32
280
     0
102
RTVSPost2010PropOp32
 70
     1
102
RTVSPost2010Prop33
280
     0
102
RTVSPost2010PropOp33
 70
     1
102
RTVSPost2010Prop34
280
     0
102
RTVSPost2010PropOp34
 70
     1
102
RTVSPost2010Prop35
280
     0
102
RTVSPost2010PropOp35
 70
     1
102
RTVSPost2010Prop36
280
     0
102
RTVSPost2010PropOp36
 70
     1
102
RTVSPost2010Prop37
 90
       50
102
RTVSPost2010PropOp37
 70
     1
102
RTVSPost2010Prop38
140
0.0
102
RTVSPost2010PropOp38
 70
     1
102
RTVSPost2010Prop39
140
1.0
102
RTVSPost2010PropOp39
 70
     1
102
RTVSPost2010Prop40
 90
        0
102
RTVSPost2010PropOp40
 70
     1
102
RTVSPost2010Prop41ColorIndex
 90
       18
102
RTVSPost2010Prop41ColorRGB
 90
        0
102
RTVSPost2010PropOp41
 70
     1
102
RTVSPost2010Prop42
 90
       50
102
RTVSPost2010PropOp42
 70
     1
102
RTVSPost2010Prop43
 90
        3
102
RTVSPost2010PropOp43
 70
     1
102
RTVSPost2010Prop44ColorIndex
 90
        5
102
RTVSPost2010Prop44ColorRGB
 90
      255
102
RTVSPost2010PropOp44
 70
     1
102
RTVSPost2010Prop45
280
     0
102
RTVSPost2010PropOp45
 70
     1
102
RTVSPost2010Prop46
 90
       50
102
RTVSPost2010PropOp46
 70
     1
102
RTVSPost2010Prop47
 90
       50
102
RTVSPost2010PropOp47
 70
     1
102
RTVSPost2010Prop48
 90
       50
102
RTVSPost2010PropOp48
 70
     1
102
RTVSPost2010Prop49
280
     0
102
RTVSPost2010PropOp49
 70
     1
102
RTVSPost2010Prop50
 90
       50
102
RTVSPost2010PropOp50
 70
     1
102
RTVSPost2010Prop51ColorIndex
 90
      256
102
RTVSPost2010Prop51ColorRGB
 90
-16777216
102
RTVSPost2010PropOp51
 70
     0
102
RTVSPost2010Prop52
140
1.0
102
RTVSPost2010PropOp52
 70
     0
102
RTVSPost2010Prop53
 90
        2
102
RTVSPost2010PropOp53
 70
     1
102
RTVSPost2010Prop54
  1
strokes_ogs.tif
102
RTVSPost2010PropOp54
 70
     1
102
RTVSPost2010Prop55
280
     0
102
RTVSPost2010PropOp55
 70
     1
102
RTVSPost2010Prop56
140
1.0
102
RTVSPost2010PropOp56
 70
     1
102
RTVSPost2010Prop57
140
1.0
102
RTVSPost2010PropOp57
 70
     1
102
RTVSPropertyOp0
 70
     1
102
RTVSPropertyOp1
 70
     1
102
RTVSPropertyOp2
 70
     1
102
RTVSPropertyOp3
 70
     1
102
RTVSPropertyOp4
 70
     1
102
RTVSPropertyOp5
 70
     1
102
RTVSPropertyOp6
 70
     1
102
RTVSPropertyOp7
 70
     1
102
RTVSPropertyOp8
 70
     1
102
RTVSPropertyOp9
 70
     1
102
RTVSPropertyOp10
 70
     1
102
RTVSPropertyOp11
 70
     1
102
RTVSPropertyOp12
 70
     1
102
RTVSPropertyOp13
 70
     1
102
RTVSPropertyOp14
 70
     1
102
RTVSPropertyOp15
 70
     1
102
RTVSPropertyOp16
 70
     1
102
RTVSPropertyOp17
 70
     1
102
RTVSPropertyOp18
 70
     1
102
RTVSPropertyOp19
 70
     1
102
RTVSPropertyOp20
 70
     1
102
RTVSPropertyOp21
 70
     1
102
RTVSPropertyOp22
 70
     1
102
RTVSPropertyOp23
 70
     1
102
RTVSPropertyOp24
 70
     1
102
RTVSPropertyOp25
 70
     1
102
RTVSPropertyOp26
 70
     1
102
RTVSPropertyOp27
 70
     1
102
RTVSPropertyOp28
 70
     1
102
RTVSPropertyOp29
 70
     1
102
RTVSPropertyOp30
 70
     1
102
RTVSPropertyOp31
 70
     1
102
RTVSPropertyOp32
 70
     1
102
RTVSPropertyOp33
 70
     1
102
RTVSPropertyOp34
 70
     1
102
RTVSPropertyOp35
 70
     1
102
RTVSPropertyOp36
 70
     1
102
RTVSPropertyOp37
 70
     1
102
RTVSPropertyOp38
 70
     1
102
RTVSPropertyOp39
 70
     1
102
RTVSPropertyOp40
 70
     1
102
RTVSPropertyOp41
 70
     1
102
RTVSPropertyOp42
 70
     1
102
RTVSPropertyOp43
 70
     1
102
RTVSPropertyOp44
 70
     1
102
RTVSPropertyOp45
 70
     1
102
RTVSPropertyOp46
 70
     1
102
RTVSPropertyOp47
 70
     1
102
RTVSPropertyOp48
 70
     1
102
RTVSPropertyOp49
 70
     1
102
RTVSPropertyOp50
 70
     1
102
RTVSPropertyOp51
 70
     0
102
RTVSPropertyOp52
 70
     0
102
RTVSPropertyOp53
 70
     1
102
RTVSPropertyOp54
 70
     1
102
RTVSPropertyOp55
 70
     1
102
RTVSPropertyOp56
 70
     1
102
RTVSPropertyOp57
 70
     1
102
RTVSPropertyOp58
 70
     1
102
RTVSPropertyOp59
 70
     1
102
RTVSPropertyOp60
 70
     1
102
RTVSPropertyOp61
 70
     1
102
RTVSPropertyOp62
 70
     1
  0
XRECORD
  5
1BCE
102
{ACAD_REACTORS
330
1BCD
102
}
330
1BCD
100
AcDbXrecord
280
     1
102
RTVSPost2010Prop28
280
     0
102
RTVSPost2010PropOp28
 70
     1
102
RTVSPost2010Prop29
280
     1
102
RTVSPost2010PropOp29
 70
     1
102
RTVSPost2010Prop30
280
     1
102
RTVSPost2010PropOp30
 70
     1
102
RTVSPost2010Prop31
280
     0
102
RTVSPost2010PropOp31
 70
     1
102
RTVSPost2010Prop32
280
     0
102
RTVSPost2010PropOp32
 70
     1
102
RTVSPost2010Prop33
280
     0
102
RTVSPost2010PropOp33
 70
     1
102
RTVSPost2010Prop34
280
     0
102
RTVSPost2010PropOp34
 70
     1
102
RTVSPost2010Prop35
280
     0
102
RTVSPost2010PropOp35
 70
     1
102
RTVSPost2010Prop36
280
     0
102
RTVSPost2010PropOp36
 70
     1
102
RTVSPost2010Prop37
 90
       50
102
RTVSPost2010PropOp37
 70
     1
102
RTVSPost2010Prop38
140
0.0
102
RTVSPost2010PropOp38
 70
     1
102
RTVSPost2010Prop39
140
1.0
102
RTVSPost2010PropOp39
 70
     1
102
RTVSPost2010Prop40
 90
        0
102
RTVSPost2010PropOp40
 70
     1
102
RTVSPost2010Prop41ColorIndex
 90
       18
102
RTVSPost2010Prop41ColorRGB
 90
        0
102
RTVSPost2010PropOp41
 70
     1
102
RTVSPost2010Prop42
 90
       50
102
RTVSPost2010PropOp42
 70
     1
102
RTVSPost2010Prop43
 90
        3
102
RTVSPost2010PropOp43
 70
     1
102
RTVSPost2010Prop44ColorIndex
 90
        5
102
RTVSPost2010Prop44ColorRGB
 90
      255
102
RTVSPost2010PropOp44
 70
     1
102
RTVSPost2010Prop45
280
     0
102
RTVSPost2010PropOp45
 70
     1
102
RTVSPost2010Prop46
 90
       50
102
RTVSPost2010PropOp46
 70
     1
102
RTVSPost2010Prop47
 90
       50
102
RTVSPost2010PropOp47
 70
     1
102
RTVSPost2010Prop48
 90
       50
102
RTVSPost2010PropOp48
 70
     1
102
RTVSPost2010Prop49
280
     0
102
RTVSPost2010PropOp49
 70
     1
102
RTVSPost2010Prop50
 90
       50
102
RTVSPost2010PropOp50
 70
     1
102
RTVSPost2010Prop51ColorIndex
 90
      256
102
RTVSPost2010Prop51ColorRGB
 90
-16777216
102
RTVSPost2010PropOp51
 70
     0
102
RTVSPost2010Prop52
140
1.0
102
RTVSPost2010PropOp52
 70
     0
102
RTVSPost2010Prop53
 90
        2
102
RTVSPost2010PropOp53
 70
     1
102
RTVSPost2010Prop54
  1
strokes_ogs.tif
102
RTVSPost2010PropOp54
 70
     1
102
RTVSPost2010Prop55
280
     0
102
RTVSPost2010PropOp55
 70
     1
102
RTVSPost2010Prop56
140
1.0
102
RTVSPost2010PropOp56
 70
     1
102
RTVSPost2010Prop57
140
1.0
102
RTVSPost2010PropOp57
 70
     1
102
RTVSPropertyOp0
 70
     1
102
RTVSPropertyOp1
 70
     1
102
RTVSPropertyOp2
 70
     1
102
RTVSPropertyOp3
 70
     1
102
RTVSPropertyOp4
 70
     1
102
RTVSPropertyOp5
 70
     1
102
RTVSPropertyOp6
 70
     1
102
RTVSPropertyOp7
 70
     1
102
RTVSPropertyOp8
 70
     1
102
RTVSPropertyOp9
 70
     1
102
RTVSPropertyOp10
 70
     1
102
RTVSPropertyOp11
 70
     1
102
RTVSPropertyOp12
 70
     1
102
RTVSPropertyOp13
 70
     1
102
RTVSPropertyOp14
 70
     1
102
RTVSPropertyOp15
 70
     1
102
RTVSPropertyOp16
 70
     1
102
RTVSPropertyOp17
 70
     1
102
RTVSPropertyOp18
 70
     1
102
RTVSPropertyOp19
 70
     1
102
RTVSPropertyOp20
 70
     1
102
RTVSPropertyOp21
 70
     1
102
RTVSPropertyOp22
 70
     1
102
RTVSPropertyOp23
 70
     1
102
RTVSPropertyOp24
 70
     1
102
RTVSPropertyOp25
 70
     1
102
RTVSPropertyOp26
 70
     1
102
RTVSPropertyOp27
 70
     1
102
RTVSPropertyOp28
 70
     1
102
RTVSPropertyOp29
 70
     1
102
RTVSPropertyOp30
 70
     1
102
RTVSPropertyOp31
 70
     1
102
RTVSPropertyOp32
 70
     1
102
RTVSPropertyOp33
 70
     1
102
RTVSPropertyOp34
 70
     1
102
RTVSPropertyOp35
 70
     1
102
RTVSPropertyOp36
 70
     1
102
RTVSPropertyOp37
 70
     1
102
RTVSPropertyOp38
 70
     1
102
RTVSPropertyOp39
 70
     1
102
RTVSPropertyOp40
 70
     1
102
RTVSPropertyOp41
 70
     1
102
RTVSPropertyOp42
 70
     1
102
RTVSPropertyOp43
 70
     1
102
RTVSPropertyOp44
 70
     1
102
RTVSPropertyOp45
 70
     1
102
RTVSPropertyOp46
 70
     1
102
RTVSPropertyOp47
 70
     1
102
RTVSPropertyOp48
 70
     1
102
RTVSPropertyOp49
 70
     1
102
RTVSPropertyOp50
 70
     1
102
RTVSPropertyOp51
 70
     0
102
RTVSPropertyOp52
 70
     0
102
RTVSPropertyOp53
 70
     1
102
RTVSPropertyOp54
 70
     1
102
RTVSPropertyOp55
 70
     1
102
RTVSPropertyOp56
 70
     1
102
RTVSPropertyOp57
 70
     1
102
RTVSPropertyOp58
 70
     1
102
RTVSPropertyOp59
 70
     1
102
RTVSPropertyOp60
 70
     1
102
RTVSPropertyOp61
 70
     1
102
RTVSPropertyOp62
 70
     1
  0
XRECORD
  5
1BE0
102
{ACAD_REACTORS
330
1BDF
102
}
330
1BDF
100
AcDbXrecord
280
     1
102
RTVSPost2010Prop28
280
     0
102
RTVSPost2010PropOp28
 70
     1
102
RTVSPost2010Prop29
280
     1
102
RTVSPost2010PropOp29
 70
     1
102
RTVSPost2010Prop30
280
     1
102
RTVSPost2010PropOp30
 70
     1
102
RTVSPost2010Prop31
280
     0
102
RTVSPost2010PropOp31
 70
     1
102
RTVSPost2010Prop32
280
     0
102
RTVSPost2010PropOp32
 70
     1
102
RTVSPost2010Prop33
280
     0
102
RTVSPost2010PropOp33
 70
     1
102
RTVSPost2010Prop34
280
     0
102
RTVSPost2010PropOp34
 70
     1
102
RTVSPost2010Prop35
280
     0
102
RTVSPost2010PropOp35
 70
     1
102
RTVSPost2010Prop36
280
     0
102
RTVSPost2010PropOp36
 70
     1
102
RTVSPost2010Prop37
 90
       50
102
RTVSPost2010PropOp37
 70
     1
102
RTVSPost2010Prop38
140
0.0
102
RTVSPost2010PropOp38
 70
     1
102
RTVSPost2010Prop39
140
1.0
102
RTVSPost2010PropOp39
 70
     1
102
RTVSPost2010Prop40
 90
        0
102
RTVSPost2010PropOp40
 70
     1
102
RTVSPost2010Prop41ColorIndex
 90
       18
102
RTVSPost2010Prop41ColorRGB
 90
        0
102
RTVSPost2010PropOp41
 70
     1
102
RTVSPost2010Prop42
 90
       50
102
RTVSPost2010PropOp42
 70
     1
102
RTVSPost2010Prop43
 90
        3
102
RTVSPost2010PropOp43
 70
     1
102
RTVSPost2010Prop44ColorIndex
 90
        5
102
RTVSPost2010Prop44ColorRGB
 90
      255
102
RTVSPost2010PropOp44
 70
     1
102
RTVSPost2010Prop45
280
     0
102
RTVSPost2010PropOp45
 70
     1
102
RTVSPost2010Prop46
 90
       50
102
RTVSPost2010PropOp46
 70
     1
102
RTVSPost2010Prop47
 90
       50
102
RTVSPost2010PropOp47
 70
     1
102
RTVSPost2010Prop48
 90
       50
102
RTVSPost2010PropOp48
 70
     1
102
RTVSPost2010Prop49
280
     0
102
RTVSPost2010PropOp49
 70
     1
102
RTVSPost2010Prop50
 90
       50
102
RTVSPost2010PropOp50
 70
     1
102
RTVSPost2010Prop51ColorIndex
 90
      256
102
RTVSPost2010Prop51ColorRGB
 90
-16777216
102
RTVSPost2010PropOp51
 70
     0
102
RTVSPost2010Prop52
140
1.0
102
RTVSPost2010PropOp52
 70
     0
102
RTVSPost2010Prop53
 90
        2
102
RTVSPost2010PropOp53
 70
     1
102
RTVSPost2010Prop54
  1
strokes_ogs.tif
102
RTVSPost2010PropOp54
 70
     1
102
RTVSPost2010Prop55
280
     0
102
RTVSPost2010PropOp55
 70
     1
102
RTVSPost2010Prop56
140
1.0
102
RTVSPost2010PropOp56
 70
     1
102
RTVSPost2010Prop57
140
1.0
102
RTVSPost2010PropOp57
 70
     1
102
RTVSPropertyOp0
 70
     0
102
RTVSPropertyOp1
 70
     0
102
RTVSPropertyOp2
 70
     0
102
RTVSPropertyOp3
 70
     0
102
RTVSPropertyOp4
 70
     0
102
RTVSPropertyOp5
 70
     0
102
RTVSPropertyOp6
 70
     0
102
RTVSPropertyOp7
 70
     0
102
RTVSPropertyOp8
 70
     0
102
RTVSPropertyOp9
 70
     0
102
RTVSPropertyOp10
 70
     0
102
RTVSPropertyOp11
 70
     0
102
RTVSPropertyOp12
 70
     0
102
RTVSPropertyOp13
 70
     0
102
RTVSPropertyOp14
 70
     2
102
RTVSPropertyOp15
 70
     0
102
RTVSPropertyOp16
 70
     0
102
RTVSPropertyOp17
 70
     0
102
RTVSPropertyOp18
 70
     0
102
RTVSPropertyOp19
 70
     0
102
RTVSPropertyOp20
 70
     0
102
RTVSPropertyOp21
 70
     0
102
RTVSPropertyOp22
 70
     0
102
RTVSPropertyOp23
 70
     0
102
RTVSPropertyOp24
 70
     0
102
RTVSPropertyOp25
 70
     0
102
RTVSPropertyOp26
 70
     0
102
RTVSPropertyOp27
 70
     0
102
RTVSPropertyOp28
 70
     1
102
RTVSPropertyOp29
 70
     1
102
RTVSPropertyOp30
 70
     1
102
RTVSPropertyOp31
 70
     1
102
RTVSPropertyOp32
 70
     1
102
RTVSPropertyOp33
 70
     1
102
RTVSPropertyOp34
 70
     1
102
RTVSPropertyOp35
 70
     1
102
RTVSPropertyOp36
 70
     1
102
RTVSPropertyOp37
 70
     1
102
RTVSPropertyOp38
 70
     1
102
RTVSPropertyOp39
 70
     1
102
RTVSPropertyOp40
 70
     1
102
RTVSPropertyOp41
 70
     1
102
RTVSPropertyOp42
 70
     1
102
RTVSPropertyOp43
 70
     1
102
RTVSPropertyOp44
 70
     1
102
RTVSPropertyOp45
 70
     1
102
RTVSPropertyOp46
 70
     1
102
RTVSPropertyOp47
 70
     1
102
RTVSPropertyOp48
 70
     1
102
RTVSPropertyOp49
 70
     1
102
RTVSPropertyOp50
 70
     1
102
RTVSPropertyOp51
 70
     0
102
RTVSPropertyOp52
 70
     0
102
RTVSPropertyOp53
 70
     1
102
RTVSPropertyOp54
 70
     1
102
RTVSPropertyOp55
 70
     1
102
RTVSPropertyOp56
 70
     1
102
RTVSPropertyOp57
 70
     1
102
RTVSPropertyOp58
 70
     1
102
RTVSPropertyOp59
 70
     1
102
RTVSPropertyOp60
 70
     1
102
RTVSPropertyOp61
 70
     1
102
RTVSPropertyOp62
 70
     1
  0
XRECORD
  5
1BDA
102
{ACAD_REACTORS
330
1BD9
102
}
330
1BD9
100
AcDbXrecord
280
     1
102
RTVSPost2010Prop28
280
     0
102
RTVSPost2010PropOp28
 70
     1
102
RTVSPost2010Prop29
280
     1
102
RTVSPost2010PropOp29
 70
     1
102
RTVSPost2010Prop30
280
     1
102
RTVSPost2010PropOp30
 70
     1
102
RTVSPost2010Prop31
280
     0
102
RTVSPost2010PropOp31
 70
     1
102
RTVSPost2010Prop32
280
     0
102
RTVSPost2010PropOp32
 70
     1
102
RTVSPost2010Prop33
280
     0
102
RTVSPost2010PropOp33
 70
     1
102
RTVSPost2010Prop34
280
     0
102
RTVSPost2010PropOp34
 70
     1
102
RTVSPost2010Prop35
280
     0
102
RTVSPost2010PropOp35
 70
     1
102
RTVSPost2010Prop36
280
     0
102
RTVSPost2010PropOp36
 70
     1
102
RTVSPost2010Prop37
 90
       50
102
RTVSPost2010PropOp37
 70
     1
102
RTVSPost2010Prop38
140
0.0
102
RTVSPost2010PropOp38
 70
     1
102
RTVSPost2010Prop39
140
1.0
102
RTVSPost2010PropOp39
 70
     1
102
RTVSPost2010Prop40
 90
        0
102
RTVSPost2010PropOp40
 70
     1
102
RTVSPost2010Prop41ColorIndex
 90
       18
102
RTVSPost2010Prop41ColorRGB
 90
        0
102
RTVSPost2010PropOp41
 70
     1
102
RTVSPost2010Prop42
 90
       50
102
RTVSPost2010PropOp42
 70
     1
102
RTVSPost2010Prop43
 90
        3
102
RTVSPost2010PropOp43
 70
     1
102
RTVSPost2010Prop44ColorIndex
 90
        5
102
RTVSPost2010Prop44ColorRGB
 90
      255
102
RTVSPost2010PropOp44
 70
     1
102
RTVSPost2010Prop45
280
     0
102
RTVSPost2010PropOp45
 70
     1
102
RTVSPost2010Prop46
 90
       50
102
RTVSPost2010PropOp46
 70
     1
102
RTVSPost2010Prop47
 90
       50
102
RTVSPost2010PropOp47
 70
     1
102
RTVSPost2010Prop48
 90
       50
102
RTVSPost2010PropOp48
 70
     1
102
RTVSPost2010Prop49
280
     0
102
RTVSPost2010PropOp49
 70
     1
102
RTVSPost2010Prop50
 90
       50
102
RTVSPost2010PropOp50
 70
     1
102
RTVSPost2010Prop51ColorIndex
 90
      256
102
RTVSPost2010Prop51ColorRGB
 90
-16777216
102
RTVSPost2010PropOp51
 70
     0
102
RTVSPost2010Prop52
140
1.0
102
RTVSPost2010PropOp52
 70
     0
102
RTVSPost2010Prop53
 90
        2
102
RTVSPost2010PropOp53
 70
     1
102
RTVSPost2010Prop54
  1
strokes_ogs.tif
102
RTVSPost2010PropOp54
 70
     1
102
RTVSPost2010Prop55
280
     0
102
RTVSPost2010PropOp55
 70
     1
102
RTVSPost2010Prop56
140
1.0
102
RTVSPost2010PropOp56
 70
     1
102
RTVSPost2010Prop57
140
1.0
102
RTVSPost2010PropOp57
 70
     1
102
RTVSPropertyOp0
 70
     1
102
RTVSPropertyOp1
 70
     1
102
RTVSPropertyOp2
 70
     1
102
RTVSPropertyOp3
 70
     1
102
RTVSPropertyOp4
 70
     1
102
RTVSPropertyOp5
 70
     1
102
RTVSPropertyOp6
 70
     1
102
RTVSPropertyOp7
 70
     1
102
RTVSPropertyOp8
 70
     1
102
RTVSPropertyOp9
 70
     1
102
RTVSPropertyOp10
 70
     1
102
RTVSPropertyOp11
 70
     1
102
RTVSPropertyOp12
 70
     1
102
RTVSPropertyOp13
 70
     1
102
RTVSPropertyOp14
 70
     1
102
RTVSPropertyOp15
 70
     1
102
RTVSPropertyOp16
 70
     1
102
RTVSPropertyOp17
 70
     1
102
RTVSPropertyOp18
 70
     1
102
RTVSPropertyOp19
 70
     1
102
RTVSPropertyOp20
 70
     1
102
RTVSPropertyOp21
 70
     1
102
RTVSPropertyOp22
 70
     1
102
RTVSPropertyOp23
 70
     1
102
RTVSPropertyOp24
 70
     1
102
RTVSPropertyOp25
 70
     1
102
RTVSPropertyOp26
 70
     1
102
RTVSPropertyOp27
 70
     1
102
RTVSPropertyOp28
 70
     1
102
RTVSPropertyOp29
 70
     1
102
RTVSPropertyOp30
 70
     1
102
RTVSPropertyOp31
 70
     1
102
RTVSPropertyOp32
 70
     1
102
RTVSPropertyOp33
 70
     1
102
RTVSPropertyOp34
 70
     1
102
RTVSPropertyOp35
 70
     1
102
RTVSPropertyOp36
 70
     1
102
RTVSPropertyOp37
 70
     1
102
RTVSPropertyOp38
 70
     1
102
RTVSPropertyOp39
 70
     1
102
RTVSPropertyOp40
 70
     1
102
RTVSPropertyOp41
 70
     1
102
RTVSPropertyOp42
 70
     1
102
RTVSPropertyOp43
 70
     1
102
RTVSPropertyOp44
 70
     1
102
RTVSPropertyOp45
 70
     1
102
RTVSPropertyOp46
 70
     1
102
RTVSPropertyOp47
 70
     1
102
RTVSPropertyOp48
 70
     1
102
RTVSPropertyOp49
 70
     1
102
RTVSPropertyOp50
 70
     1
102
RTVSPropertyOp51
 70
     0
102
RTVSPropertyOp52
 70
     0
102
RTVSPropertyOp53
 70
     1
102
RTVSPropertyOp54
 70
     1
102
RTVSPropertyOp55
 70
     1
102
RTVSPropertyOp56
 70
     1
102
RTVSPropertyOp57
 70
     1
102
RTVSPropertyOp58
 70
     1
102
RTVSPropertyOp59
 70
     1
102
RTVSPropertyOp60
 70
     1
102
RTVSPropertyOp61
 70
     1
102
RTVSPropertyOp62
 70
     1
  0
XRECORD
  5
1BE2
102
{ACAD_REACTORS
330
1BE1
102
}
330
1BE1
100
AcDbXrecord
280
     1
102
RTVSPost2010Prop28
280
     0
102
RTVSPost2010PropOp28
 70
     1
102
RTVSPost2010Prop29
280
     1
102
RTVSPost2010PropOp29
 70
     1
102
RTVSPost2010Prop30
280
     1
102
RTVSPost2010PropOp30
 70
     1
102
RTVSPost2010Prop31
280
     0
102
RTVSPost2010PropOp31
 70
     1
102
RTVSPost2010Prop32
280
     0
102
RTVSPost2010PropOp32
 70
     1
102
RTVSPost2010Prop33
280
     0
102
RTVSPost2010PropOp33
 70
     1
102
RTVSPost2010Prop34
280
     0
102
RTVSPost2010PropOp34
 70
     1
102
RTVSPost2010Prop35
280
     0
102
RTVSPost2010PropOp35
 70
     1
102
RTVSPost2010Prop36
280
     0
102
RTVSPost2010PropOp36
 70
     1
102
RTVSPost2010Prop37
 90
       50
102
RTVSPost2010PropOp37
 70
     1
102
RTVSPost2010Prop38
140
0.0
102
RTVSPost2010PropOp38
 70
     1
102
RTVSPost2010Prop39
140
1.0
102
RTVSPost2010PropOp39
 70
     1
102
RTVSPost2010Prop40
 90
        0
102
RTVSPost2010PropOp40
 70
     1
102
RTVSPost2010Prop41ColorIndex
 90
       18
102
RTVSPost2010Prop41ColorRGB
 90
        0
102
RTVSPost2010PropOp41
 70
     1
102
RTVSPost2010Prop42
 90
       50
102
RTVSPost2010PropOp42
 70
     1
102
RTVSPost2010Prop43
 90
        3
102
RTVSPost2010PropOp43
 70
     1
102
RTVSPost2010Prop44ColorIndex
 90
        5
102
RTVSPost2010Prop44ColorRGB
 90
      255
102
RTVSPost2010PropOp44
 70
     1
102
RTVSPost2010Prop45
280
     0
102
RTVSPost2010PropOp45
 70
     1
102
RTVSPost2010Prop46
 90
       50
102
RTVSPost2010PropOp46
 70
     1
102
RTVSPost2010Prop47
 90
       50
102
RTVSPost2010PropOp47
 70
     1
102
RTVSPost2010Prop48
 90
       50
102
RTVSPost2010PropOp48
 70
     1
102
RTVSPost2010Prop49
280
     0
102
RTVSPost2010PropOp49
 70
     1
102
RTVSPost2010Prop50
 90
       50
102
RTVSPost2010PropOp50
 70
     1
102
RTVSPost2010Prop51ColorIndex
 90
      256
102
RTVSPost2010Prop51ColorRGB
 90
-16777216
102
RTVSPost2010PropOp51
 70
     0
102
RTVSPost2010Prop52
140
1.0
102
RTVSPost2010PropOp52
 70
     0
102
RTVSPost2010Prop53
 90
        2
102
RTVSPost2010PropOp53
 70
     1
102
RTVSPost2010Prop54
  1
strokes_ogs.tif
102
RTVSPost2010PropOp54
 70
     1
102
RTVSPost2010Prop55
280
     0
102
RTVSPost2010PropOp55
 70
     1
102
RTVSPost2010Prop56
140
1.0
102
RTVSPost2010PropOp56
 70
     1
102
RTVSPost2010Prop57
140
1.0
102
RTVSPost2010PropOp57
 70
     1
102
RTVSPropertyOp0
 70
     0
102
RTVSPropertyOp1
 70
     0
102
RTVSPropertyOp2
 70
     0
102
RTVSPropertyOp3
 70
     0
102
RTVSPropertyOp4
 70
     0
102
RTVSPropertyOp5
 70
     0
102
RTVSPropertyOp6
 70
     0
102
RTVSPropertyOp7
 70
     0
102
RTVSPropertyOp8
 70
     0
102
RTVSPropertyOp9
 70
     0
102
RTVSPropertyOp10
 70
     0
102
RTVSPropertyOp11
 70
     0
102
RTVSPropertyOp12
 70
     0
102
RTVSPropertyOp13
 70
     0
102
RTVSPropertyOp14
 70
     2
102
RTVSPropertyOp15
 70
     0
102
RTVSPropertyOp16
 70
     0
102
RTVSPropertyOp17
 70
     0
102
RTVSPropertyOp18
 70
     0
102
RTVSPropertyOp19
 70
     0
102
RTVSPropertyOp20
 70
     0
102
RTVSPropertyOp21
 70
     0
102
RTVSPropertyOp22
 70
     0
102
RTVSPropertyOp23
 70
     0
102
RTVSPropertyOp24
 70
     0
102
RTVSPropertyOp25
 70
     0
102
RTVSPropertyOp26
 70
     0
102
RTVSPropertyOp27
 70
     0
102
RTVSPropertyOp28
 70
     1
102
RTVSPropertyOp29
 70
     1
102
RTVSPropertyOp30
 70
     1
102
RTVSPropertyOp31
 70
     1
102
RTVSPropertyOp32
 70
     1
102
RTVSPropertyOp33
 70
     1
102
RTVSPropertyOp34
 70
     1
102
RTVSPropertyOp35
 70
     1
102
RTVSPropertyOp36
 70
     1
102
RTVSPropertyOp37
 70
     1
102
RTVSPropertyOp38
 70
     1
102
RTVSPropertyOp39
 70
     1
102
RTVSPropertyOp40
 70
     1
102
RTVSPropertyOp41
 70
     1
102
RTVSPropertyOp42
 70
     1
102
RTVSPropertyOp43
 70
     1
102
RTVSPropertyOp44
 70
     1
102
RTVSPropertyOp45
 70
     1
102
RTVSPropertyOp46
 70
     1
102
RTVSPropertyOp47
 70
     1
102
RTVSPropertyOp48
 70
     1
102
RTVSPropertyOp49
 70
     1
102
RTVSPropertyOp50
 70
     1
102
RTVSPropertyOp51
 70
     0
102
RTVSPropertyOp52
 70
     0
102
RTVSPropertyOp53
 70
     1
102
RTVSPropertyOp54
 70
     1
102
RTVSPropertyOp55
 70
     1
102
RTVSPropertyOp56
 70
     1
102
RTVSPropertyOp57
 70
     1
102
RTVSPropertyOp58
 70
     1
102
RTVSPropertyOp59
 70
     1
102
RTVSPropertyOp60
 70
     1
102
RTVSPropertyOp61
 70
     1
102
RTVSPropertyOp62
 70
     1
  0
XRECORD
  5
1BD2
102
{ACAD_REACTORS
330
1BD1
102
}
330
1BD1
100
AcDbXrecord
280
     1
102
RTVSPost2010Prop28
280
     0
102
RTVSPost2010PropOp28
 70
     1
102
RTVSPost2010Prop29
280
     1
102
RTVSPost2010PropOp29
 70
     1
102
RTVSPost2010Prop30
280
     1
102
RTVSPost2010PropOp30
 70
     1
102
RTVSPost2010Prop31
280
     0
102
RTVSPost2010PropOp31
 70
     1
102
RTVSPost2010Prop32
280
     0
102
RTVSPost2010PropOp32
 70
     1
102
RTVSPost2010Prop33
280
     0
102
RTVSPost2010PropOp33
 70
     1
102
RTVSPost2010Prop34
280
     0
102
RTVSPost2010PropOp34
 70
     1
102
RTVSPost2010Prop35
280
     0
102
RTVSPost2010PropOp35
 70
     1
102
RTVSPost2010Prop36
280
     0
102
RTVSPost2010PropOp36
 70
     1
102
RTVSPost2010Prop37
 90
       50
102
RTVSPost2010PropOp37
 70
     1
102
RTVSPost2010Prop38
140
0.0
102
RTVSPost2010PropOp38
 70
     1
102
RTVSPost2010Prop39
140
1.0
102
RTVSPost2010PropOp39
 70
     1
102
RTVSPost2010Prop40
 90
        0
102
RTVSPost2010PropOp40
 70
     1
102
RTVSPost2010Prop41ColorIndex
 90
       18
102
RTVSPost2010Prop41ColorRGB
 90
        0
102
RTVSPost2010PropOp41
 70
     1
102
RTVSPost2010Prop42
 90
       50
102
RTVSPost2010PropOp42
 70
     1
102
RTVSPost2010Prop43
 90
        3
102
RTVSPost2010PropOp43
 70
     1
102
RTVSPost2010Prop44ColorIndex
 90
        5
102
RTVSPost2010Prop44ColorRGB
 90
      255
102
RTVSPost2010PropOp44
 70
     1
102
RTVSPost2010Prop45
280
     0
102
RTVSPost2010PropOp45
 70
     1
102
RTVSPost2010Prop46
 90
       50
102
RTVSPost2010PropOp46
 70
     1
102
RTVSPost2010Prop47
 90
       50
102
RTVSPost2010PropOp47
 70
     1
102
RTVSPost2010Prop48
 90
       50
102
RTVSPost2010PropOp48
 70
     1
102
RTVSPost2010Prop49
280
     0
102
RTVSPost2010PropOp49
 70
     1
102
RTVSPost2010Prop50
 90
       50
102
RTVSPost2010PropOp50
 70
     1
102
RTVSPost2010Prop51ColorIndex
 90
      256
102
RTVSPost2010Prop51ColorRGB
 90
-16777216
102
RTVSPost2010PropOp51
 70
     0
102
RTVSPost2010Prop52
140
1.0
102
RTVSPost2010PropOp52
 70
     0
102
RTVSPost2010Prop53
 90
        2
102
RTVSPost2010PropOp53
 70
     1
102
RTVSPost2010Prop54
  1
strokes_ogs.tif
102
RTVSPost2010PropOp54
 70
     1
102
RTVSPost2010Prop55
280
     0
102
RTVSPost2010PropOp55
 70
     1
102
RTVSPost2010Prop56
140
1.0
102
RTVSPost2010PropOp56
 70
     1
102
RTVSPost2010Prop57
140
1.0
102
RTVSPost2010PropOp57
 70
     1
102
RTVSPropertyOp0
 70
     1
102
RTVSPropertyOp1
 70
     1
102
RTVSPropertyOp2
 70
     1
102
RTVSPropertyOp3
 70
     1
102
RTVSPropertyOp4
 70
     1
102
RTVSPropertyOp5
 70
     1
102
RTVSPropertyOp6
 70
     1
102
RTVSPropertyOp7
 70
     1
102
RTVSPropertyOp8
 70
     1
102
RTVSPropertyOp9
 70
     1
102
RTVSPropertyOp10
 70
     1
102
RTVSPropertyOp11
 70
     1
102
RTVSPropertyOp12
 70
     1
102
RTVSPropertyOp13
 70
     1
102
RTVSPropertyOp14
 70
     1
102
RTVSPropertyOp15
 70
     1
102
RTVSPropertyOp16
 70
     1
102
RTVSPropertyOp17
 70
     1
102
RTVSPropertyOp18
 70
     1
102
RTVSPropertyOp19
 70
     1
102
RTVSPropertyOp20
 70
     1
102
RTVSPropertyOp21
 70
     1
102
RTVSPropertyOp22
 70
     1
102
RTVSPropertyOp23
 70
     1
102
RTVSPropertyOp24
 70
     1
102
RTVSPropertyOp25
 70
     1
102
RTVSPropertyOp26
 70
     1
102
RTVSPropertyOp27
 70
     1
102
RTVSPropertyOp28
 70
     1
102
RTVSPropertyOp29
 70
     1
102
RTVSPropertyOp30
 70
     1
102
RTVSPropertyOp31
 70
     1
102
RTVSPropertyOp32
 70
     1
102
RTVSPropertyOp33
 70
     1
102
RTVSPropertyOp34
 70
     1
102
RTVSPropertyOp35
 70
     1
102
RTVSPropertyOp36
 70
     1
102
RTVSPropertyOp37
 70
     1
102
RTVSPropertyOp38
 70
     1
102
RTVSPropertyOp39
 70
     1
102
RTVSPropertyOp40
 70
     1
102
RTVSPropertyOp41
 70
     1
102
RTVSPropertyOp42
 70
     1
102
RTVSPropertyOp43
 70
     1
102
RTVSPropertyOp44
 70
     1
102
RTVSPropertyOp45
 70
     1
102
RTVSPropertyOp46
 70
     1
102
RTVSPropertyOp47
 70
     1
102
RTVSPropertyOp48
 70
     1
102
RTVSPropertyOp49
 70
     1
102
RTVSPropertyOp50
 70
     1
102
RTVSPropertyOp51
 70
     0
102
RTVSPropertyOp52
 70
     0
102
RTVSPropertyOp53
 70
     1
102
RTVSPropertyOp54
 70
     1
102
RTVSPropertyOp55
 70
     1
102
RTVSPropertyOp56
 70
     1
102
RTVSPropertyOp57
 70
     1
102
RTVSPropertyOp58
 70
     1
102
RTVSPropertyOp59
 70
     1
102
RTVSPropertyOp60
 70
     1
102
RTVSPropertyOp61
 70
     1
102
RTVSPropertyOp62
 70
     1
  0
XRECORD
  5
1BEE
102
{ACAD_REACTORS
330
1BED
102
}
330
1BED
100
AcDbXrecord
280
     1
102
RTVSPost2010Prop28
280
     0
102
RTVSPost2010PropOp28
 70
     1
102
RTVSPost2010Prop29
280
     1
102
RTVSPost2010PropOp29
 70
     1
102
RTVSPost2010Prop30
280
     1
102
RTVSPost2010PropOp30
 70
     1
102
RTVSPost2010Prop31
280
     0
102
RTVSPost2010PropOp31
 70
     1
102
RTVSPost2010Prop32
280
     0
102
RTVSPost2010PropOp32
 70
     1
102
RTVSPost2010Prop33
280
     0
102
RTVSPost2010PropOp33
 70
     1
102
RTVSPost2010Prop34
280
     0
102
RTVSPost2010PropOp34
 70
     1
102
RTVSPost2010Prop35
280
     0
102
RTVSPost2010PropOp35
 70
     1
102
RTVSPost2010Prop36
280
     0
102
RTVSPost2010PropOp36
 70
     1
102
RTVSPost2010Prop37
 90
       50
102
RTVSPost2010PropOp37
 70
     1
102
RTVSPost2010Prop38
140
0.0
102
RTVSPost2010PropOp38
 70
     1
102
RTVSPost2010Prop39
140
1.0
102
RTVSPost2010PropOp39
 70
     1
102
RTVSPost2010Prop40
 90
        0
102
RTVSPost2010PropOp40
 70
     1
102
RTVSPost2010Prop41ColorIndex
 90
       18
102
RTVSPost2010Prop41ColorRGB
 90
        0
102
RTVSPost2010PropOp41
 70
     1
102
RTVSPost2010Prop42
 90
       50
102
RTVSPost2010PropOp42
 70
     1
102
RTVSPost2010Prop43
 90
        3
102
RTVSPost2010PropOp43
 70
     1
102
RTVSPost2010Prop44ColorIndex
 90
        5
102
RTVSPost2010Prop44ColorRGB
 90
      255
102
RTVSPost2010PropOp44
 70
     1
102
RTVSPost2010Prop45
280
     0
102
RTVSPost2010PropOp45
 70
     1
102
RTVSPost2010Prop46
 90
       50
102
RTVSPost2010PropOp46
 70
     1
102
RTVSPost2010Prop47
 90
       50
102
RTVSPost2010PropOp47
 70
     1
102
RTVSPost2010Prop48
 90
       50
102
RTVSPost2010PropOp48
 70
     1
102
RTVSPost2010Prop49
280
     0
102
RTVSPost2010PropOp49
 70
     1
102
RTVSPost2010Prop50
 90
       50
102
RTVSPost2010PropOp50
 70
     1
102
RTVSPost2010Prop51ColorIndex
 90
      256
102
RTVSPost2010Prop51ColorRGB
 90
-16777216
102
RTVSPost2010PropOp51
 70
     0
102
RTVSPost2010Prop52
140
1.0
102
RTVSPost2010PropOp52
 70
     0
102
RTVSPost2010Prop53
 90
        2
102
RTVSPost2010PropOp53
 70
     1
102
RTVSPost2010Prop54
  1
strokes_ogs.tif
102
RTVSPost2010PropOp54
 70
     1
102
RTVSPost2010Prop55
280
     0
102
RTVSPost2010PropOp55
 70
     1
102
RTVSPost2010Prop56
140
1.0
102
RTVSPost2010PropOp56
 70
     1
102
RTVSPost2010Prop57
140
1.0
102
RTVSPost2010PropOp57
 70
     1
102
RTVSPropertyOp0
 70
     1
102
RTVSPropertyOp1
 70
     1
102
RTVSPropertyOp2
 70
     1
102
RTVSPropertyOp3
 70
     1
102
RTVSPropertyOp4
 70
     1
102
RTVSPropertyOp5
 70
     1
102
RTVSPropertyOp6
 70
     1
102
RTVSPropertyOp7
 70
     1
102
RTVSPropertyOp8
 70
     1
102
RTVSPropertyOp9
 70
     1
102
RTVSPropertyOp10
 70
     1
102
RTVSPropertyOp11
 70
     1
102
RTVSPropertyOp12
 70
     1
102
RTVSPropertyOp13
 70
     1
102
RTVSPropertyOp14
 70
     1
102
RTVSPropertyOp15
 70
     1
102
RTVSPropertyOp16
 70
     1
102
RTVSPropertyOp17
 70
     1
102
RTVSPropertyOp18
 70
     1
102
RTVSPropertyOp19
 70
     1
102
RTVSPropertyOp20
 70
     1
102
RTVSPropertyOp21
 70
     1
102
RTVSPropertyOp22
 70
     1
102
RTVSPropertyOp23
 70
     1
102
RTVSPropertyOp24
 70
     1
102
RTVSPropertyOp25
 70
     1
102
RTVSPropertyOp26
 70
     1
102
RTVSPropertyOp27
 70
     1
102
RTVSPropertyOp28
 70
     1
102
RTVSPropertyOp29
 70
     1
102
RTVSPropertyOp30
 70
     1
102
RTVSPropertyOp31
 70
     1
102
RTVSPropertyOp32
 70
     1
102
RTVSPropertyOp33
 70
     1
102
RTVSPropertyOp34
 70
     1
102
RTVSPropertyOp35
 70
     1
102
RTVSPropertyOp36
 70
     1
102
RTVSPropertyOp37
 70
     1
102
RTVSPropertyOp38
 70
     1
102
RTVSPropertyOp39
 70
     1
102
RTVSPropertyOp40
 70
     1
102
RTVSPropertyOp41
 70
     1
102
RTVSPropertyOp42
 70
     1
102
RTVSPropertyOp43
 70
     1
102
RTVSPropertyOp44
 70
     1
102
RTVSPropertyOp45
 70
     1
102
RTVSPropertyOp46
 70
     1
102
RTVSPropertyOp47
 70
     1
102
RTVSPropertyOp48
 70
     1
102
RTVSPropertyOp49
 70
     1
102
RTVSPropertyOp50
 70
     1
102
RTVSPropertyOp51
 70
     0
102
RTVSPropertyOp52
 70
     0
102
RTVSPropertyOp53
 70
     1
102
RTVSPropertyOp54
 70
     1
102
RTVSPropertyOp55
 70
     1
102
RTVSPropertyOp56
 70
     1
102
RTVSPropertyOp57
 70
     1
102
RTVSPropertyOp58
 70
     1
102
RTVSPropertyOp59
 70
     1
102
RTVSPropertyOp60
 70
     1
102
RTVSPropertyOp61
 70
     1
102
RTVSPropertyOp62
 70
     1
  0
XRECORD
  5
1BEC
102
{ACAD_REACTORS
330
1BEB
102
}
330
1BEB
100
AcDbXrecord
280
     1
102
RTVSPost2010Prop28
280
     0
102
RTVSPost2010PropOp28
 70
     1
102
RTVSPost2010Prop29
280
     1
102
RTVSPost2010PropOp29
 70
     1
102
RTVSPost2010Prop30
280
     1
102
RTVSPost2010PropOp30
 70
     1
102
RTVSPost2010Prop31
280
     0
102
RTVSPost2010PropOp31
 70
     1
102
RTVSPost2010Prop32
280
     0
102
RTVSPost2010PropOp32
 70
     1
102
RTVSPost2010Prop33
280
     0
102
RTVSPost2010PropOp33
 70
     1
102
RTVSPost2010Prop34
280
     0
102
RTVSPost2010PropOp34
 70
     1
102
RTVSPost2010Prop35
280
     0
102
RTVSPost2010PropOp35
 70
     1
102
RTVSPost2010Prop36
280
     0
102
RTVSPost2010PropOp36
 70
     1
102
RTVSPost2010Prop37
 90
       50
102
RTVSPost2010PropOp37
 70
     1
102
RTVSPost2010Prop38
140
0.0
102
RTVSPost2010PropOp38
 70
     1
102
RTVSPost2010Prop39
140
1.0
102
RTVSPost2010PropOp39
 70
     1
102
RTVSPost2010Prop40
 90
        0
102
RTVSPost2010PropOp40
 70
     1
102
RTVSPost2010Prop41ColorIndex
 90
       18
102
RTVSPost2010Prop41ColorRGB
 90
        0
102
RTVSPost2010PropOp41
 70
     1
102
RTVSPost2010Prop42
 90
       50
102
RTVSPost2010PropOp42
 70
     1
102
RTVSPost2010Prop43
 90
        3
102
RTVSPost2010PropOp43
 70
     1
102
RTVSPost2010Prop44ColorIndex
 90
        5
102
RTVSPost2010Prop44ColorRGB
 90
      255
102
RTVSPost2010PropOp44
 70
     1
102
RTVSPost2010Prop45
280
     0
102
RTVSPost2010PropOp45
 70
     1
102
RTVSPost2010Prop46
 90
       50
102
RTVSPost2010PropOp46
 70
     1
102
RTVSPost2010Prop47
 90
       50
102
RTVSPost2010PropOp47
 70
     1
102
RTVSPost2010Prop48
 90
       50
102
RTVSPost2010PropOp48
 70
     1
102
RTVSPost2010Prop49
280
     0
102
RTVSPost2010PropOp49
 70
     1
102
RTVSPost2010Prop50
 90
       50
102
RTVSPost2010PropOp50
 70
     1
102
RTVSPost2010Prop51ColorIndex
 90
      256
102
RTVSPost2010Prop51ColorRGB
 90
-16777216
102
RTVSPost2010PropOp51
 70
     0
102
RTVSPost2010Prop52
140
1.0
102
RTVSPost2010PropOp52
 70
     0
102
RTVSPost2010Prop53
 90
        2
102
RTVSPost2010PropOp53
 70
     1
102
RTVSPost2010Prop54
  1
strokes_ogs.tif
102
RTVSPost2010PropOp54
 70
     1
102
RTVSPost2010Prop55
280
     0
102
RTVSPost2010PropOp55
 70
     1
102
RTVSPost2010Prop56
140
1.0
102
RTVSPost2010PropOp56
 70
     1
102
RTVSPost2010Prop57
140
1.0
102
RTVSPost2010PropOp57
 70
     1
102
RTVSPropertyOp0
 70
     1
102
RTVSPropertyOp1
 70
     1
102
RTVSPropertyOp2
 70
     1
102
RTVSPropertyOp3
 70
     1
102
RTVSPropertyOp4
 70
     1
102
RTVSPropertyOp5
 70
     1
102
RTVSPropertyOp6
 70
     1
102
RTVSPropertyOp7
 70
     1
102
RTVSPropertyOp8
 70
     1
102
RTVSPropertyOp9
 70
     1
102
RTVSPropertyOp10
 70
     1
102
RTVSPropertyOp11
 70
     1
102
RTVSPropertyOp12
 70
     1
102
RTVSPropertyOp13
 70
     1
102
RTVSPropertyOp14
 70
     1
102
RTVSPropertyOp15
 70
     1
102
RTVSPropertyOp16
 70
     1
102
RTVSPropertyOp17
 70
     1
102
RTVSPropertyOp18
 70
     1
102
RTVSPropertyOp19
 70
     1
102
RTVSPropertyOp20
 70
     1
102
RTVSPropertyOp21
 70
     1
102
RTVSPropertyOp22
 70
     1
102
RTVSPropertyOp23
 70
     1
102
RTVSPropertyOp24
 70
     1
102
RTVSPropertyOp25
 70
     1
102
RTVSPropertyOp26
 70
     1
102
RTVSPropertyOp27
 70
     1
102
RTVSPropertyOp28
 70
     1
102
RTVSPropertyOp29
 70
     1
102
RTVSPropertyOp30
 70
     1
102
RTVSPropertyOp31
 70
     1
102
RTVSPropertyOp32
 70
     1
102
RTVSPropertyOp33
 70
     1
102
RTVSPropertyOp34
 70
     1
102
RTVSPropertyOp35
 70
     1
102
RTVSPropertyOp36
 70
     1
102
RTVSPropertyOp37
 70
     1
102
RTVSPropertyOp38
 70
     1
102
RTVSPropertyOp39
 70
     1
102
RTVSPropertyOp40
 70
     1
102
RTVSPropertyOp41
 70
     1
102
RTVSPropertyOp42
 70
     1
102
RTVSPropertyOp43
 70
     1
102
RTVSPropertyOp44
 70
     1
102
RTVSPropertyOp45
 70
     1
102
RTVSPropertyOp46
 70
     1
102
RTVSPropertyOp47
 70
     1
102
RTVSPropertyOp48
 70
     1
102
RTVSPropertyOp49
 70
     1
102
RTVSPropertyOp50
 70
     1
102
RTVSPropertyOp51
 70
     0
102
RTVSPropertyOp52
 70
     0
102
RTVSPropertyOp53
 70
     1
102
RTVSPropertyOp54
 70
     1
102
RTVSPropertyOp55
 70
     1
102
RTVSPropertyOp56
 70
     1
102
RTVSPropertyOp57
 70
     1
102
RTVSPropertyOp58
 70
     1
102
RTVSPropertyOp59
 70
     1
102
RTVSPropertyOp60
 70
     1
102
RTVSPropertyOp61
 70
     1
102
RTVSPropertyOp62
 70
     1
  0
XRECORD
  5
1BE6
102
{ACAD_REACTORS
330
1BE5
102
}
330
1BE5
100
AcDbXrecord
280
     1
102
RTVSPost2010Prop28
280
     0
102
RTVSPost2010PropOp28
 70
     1
102
RTVSPost2010Prop29
280
     1
102
RTVSPost2010PropOp29
 70
     1
102
RTVSPost2010Prop30
280
     1
102
RTVSPost2010PropOp30
 70
     1
102
RTVSPost2010Prop31
280
     0
102
RTVSPost2010PropOp31
 70
     1
102
RTVSPost2010Prop32
280
     0
102
RTVSPost2010PropOp32
 70
     1
102
RTVSPost2010Prop33
280
     0
102
RTVSPost2010PropOp33
 70
     1
102
RTVSPost2010Prop34
280
     0
102
RTVSPost2010PropOp34
 70
     1
102
RTVSPost2010Prop35
280
     0
102
RTVSPost2010PropOp35
 70
     1
102
RTVSPost2010Prop36
280
     0
102
RTVSPost2010PropOp36
 70
     1
102
RTVSPost2010Prop37
 90
       50
102
RTVSPost2010PropOp37
 70
     1
102
RTVSPost2010Prop38
140
0.0
102
RTVSPost2010PropOp38
 70
     1
102
RTVSPost2010Prop39
140
1.0
102
RTVSPost2010PropOp39
 70
     1
102
RTVSPost2010Prop40
 90
        0
102
RTVSPost2010PropOp40
 70
     1
102
RTVSPost2010Prop41ColorIndex
 90
       18
102
RTVSPost2010Prop41ColorRGB
 90
        0
102
RTVSPost2010PropOp41
 70
     1
102
RTVSPost2010Prop42
 90
       50
102
RTVSPost2010PropOp42
 70
     1
102
RTVSPost2010Prop43
 90
        3
102
RTVSPost2010PropOp43
 70
     1
102
RTVSPost2010Prop44ColorIndex
 90
        5
102
RTVSPost2010Prop44ColorRGB
 90
      255
102
RTVSPost2010PropOp44
 70
     1
102
RTVSPost2010Prop45
280
     0
102
RTVSPost2010PropOp45
 70
     1
102
RTVSPost2010Prop46
 90
       50
102
RTVSPost2010PropOp46
 70
     1
102
RTVSPost2010Prop47
 90
       50
102
RTVSPost2010PropOp47
 70
     1
102
RTVSPost2010Prop48
 90
       50
102
RTVSPost2010PropOp48
 70
     1
102
RTVSPost2010Prop49
280
     0
102
RTVSPost2010PropOp49
 70
     1
102
RTVSPost2010Prop50
 90
       50
102
RTVSPost2010PropOp50
 70
     1
102
RTVSPost2010Prop51ColorIndex
 90
      256
102
RTVSPost2010Prop51ColorRGB
 90
-16777216
102
RTVSPost2010PropOp51
 70
     0
102
RTVSPost2010Prop52
140
1.0
102
RTVSPost2010PropOp52
 70
     0
102
RTVSPost2010Prop53
 90
        2
102
RTVSPost2010PropOp53
 70
     1
102
RTVSPost2010Prop54
  1
strokes_ogs.tif
102
RTVSPost2010PropOp54
 70
     1
102
RTVSPost2010Prop55
280
     0
102
RTVSPost2010PropOp55
 70
     1
102
RTVSPost2010Prop56
140
1.0
102
RTVSPost2010PropOp56
 70
     1
102
RTVSPost2010Prop57
140
1.0
102
RTVSPost2010PropOp57
 70
     1
102
RTVSPropertyOp0
 70
     1
102
RTVSPropertyOp1
 70
     1
102
RTVSPropertyOp2
 70
     1
102
RTVSPropertyOp3
 70
     1
102
RTVSPropertyOp4
 70
     1
102
RTVSPropertyOp5
 70
     1
102
RTVSPropertyOp6
 70
     1
102
RTVSPropertyOp7
 70
     1
102
RTVSPropertyOp8
 70
     1
102
RTVSPropertyOp9
 70
     1
102
RTVSPropertyOp10
 70
     1
102
RTVSPropertyOp11
 70
     1
102
RTVSPropertyOp12
 70
     1
102
RTVSPropertyOp13
 70
     1
102
RTVSPropertyOp14
 70
     1
102
RTVSPropertyOp15
 70
     1
102
RTVSPropertyOp16
 70
     1
102
RTVSPropertyOp17
 70
     1
102
RTVSPropertyOp18
 70
     1
102
RTVSPropertyOp19
 70
     1
102
RTVSPropertyOp20
 70
     1
102
RTVSPropertyOp21
 70
     1
102
RTVSPropertyOp22
 70
     1
102
RTVSPropertyOp23
 70
     1
102
RTVSPropertyOp24
 70
     1
102
RTVSPropertyOp25
 70
     1
102
RTVSPropertyOp26
 70
     1
102
RTVSPropertyOp27
 70
     1
102
RTVSPropertyOp28
 70
     1
102
RTVSPropertyOp29
 70
     1
102
RTVSPropertyOp30
 70
     1
102
RTVSPropertyOp31
 70
     1
102
RTVSPropertyOp32
 70
     1
102
RTVSPropertyOp33
 70
     1
102
RTVSPropertyOp34
 70
     1
102
RTVSPropertyOp35
 70
     1
102
RTVSPropertyOp36
 70
     1
102
RTVSPropertyOp37
 70
     1
102
RTVSPropertyOp38
 70
     1
102
RTVSPropertyOp39
 70
     1
102
RTVSPropertyOp40
 70
     1
102
RTVSPropertyOp41
 70
     1
102
RTVSPropertyOp42
 70
     1
102
RTVSPropertyOp43
 70
     1
102
RTVSPropertyOp44
 70
     1
102
RTVSPropertyOp45
 70
     1
102
RTVSPropertyOp46
 70
     1
102
RTVSPropertyOp47
 70
     1
102
RTVSPropertyOp48
 70
     1
102
RTVSPropertyOp49
 70
     1
102
RTVSPropertyOp50
 70
     1
102
RTVSPropertyOp51
 70
     0
102
RTVSPropertyOp52
 70
     0
102
RTVSPropertyOp53
 70
     1
102
RTVSPropertyOp54
 70
     1
102
RTVSPropertyOp55
 70
     1
102
RTVSPropertyOp56
 70
     1
102
RTVSPropertyOp57
 70
     1
102
RTVSPropertyOp58
 70
     1
102
RTVSPropertyOp59
 70
     1
102
RTVSPropertyOp60
 70
     1
102
RTVSPropertyOp61
 70
     1
102
RTVSPropertyOp62
 70
     1
  0
XRECORD
  5
1BE8
102
{ACAD_REACTORS
330
1BE7
102
}
330
1BE7
100
AcDbXrecord
280
     1
102
RTVSPost2010Prop28
280
     0
102
RTVSPost2010PropOp28
 70
     1
102
RTVSPost2010Prop29
280
     1
102
RTVSPost2010PropOp29
 70
     1
102
RTVSPost2010Prop30
280
     1
102
RTVSPost2010PropOp30
 70
     1
102
RTVSPost2010Prop31
280
     0
102
RTVSPost2010PropOp31
 70
     1
102
RTVSPost2010Prop32
280
     0
102
RTVSPost2010PropOp32
 70
     1
102
RTVSPost2010Prop33
280
     0
102
RTVSPost2010PropOp33
 70
     1
102
RTVSPost2010Prop34
280
     0
102
RTVSPost2010PropOp34
 70
     1
102
RTVSPost2010Prop35
280
     0
102
RTVSPost2010PropOp35
 70
     1
102
RTVSPost2010Prop36
280
     0
102
RTVSPost2010PropOp36
 70
     1
102
RTVSPost2010Prop37
 90
       50
102
RTVSPost2010PropOp37
 70
     1
102
RTVSPost2010Prop38
140
0.0
102
RTVSPost2010PropOp38
 70
     1
102
RTVSPost2010Prop39
140
1.0
102
RTVSPost2010PropOp39
 70
     1
102
RTVSPost2010Prop40
 90
        0
102
RTVSPost2010PropOp40
 70
     1
102
RTVSPost2010Prop41ColorIndex
 90
       18
102
RTVSPost2010Prop41ColorRGB
 90
        0
102
RTVSPost2010PropOp41
 70
     1
102
RTVSPost2010Prop42
 90
       50
102
RTVSPost2010PropOp42
 70
     1
102
RTVSPost2010Prop43
 90
        3
102
RTVSPost2010PropOp43
 70
     1
102
RTVSPost2010Prop44ColorIndex
 90
        5
102
RTVSPost2010Prop44ColorRGB
 90
      255
102
RTVSPost2010PropOp44
 70
     1
102
RTVSPost2010Prop45
280
     0
102
RTVSPost2010PropOp45
 70
     1
102
RTVSPost2010Prop46
 90
       50
102
RTVSPost2010PropOp46
 70
     1
102
RTVSPost2010Prop47
 90
       50
102
RTVSPost2010PropOp47
 70
     1
102
RTVSPost2010Prop48
 90
       50
102
RTVSPost2010PropOp48
 70
     1
102
RTVSPost2010Prop49
280
     0
102
RTVSPost2010PropOp49
 70
     1
102
RTVSPost2010Prop50
 90
       50
102
RTVSPost2010PropOp50
 70
     1
102
RTVSPost2010Prop51ColorIndex
 90
      256
102
RTVSPost2010Prop51ColorRGB
 90
-16777216
102
RTVSPost2010PropOp51
 70
     0
102
RTVSPost2010Prop52
140
1.0
102
RTVSPost2010PropOp52
 70
     0
102
RTVSPost2010Prop53
 90
        2
102
RTVSPost2010PropOp53
 70
     1
102
RTVSPost2010Prop54
  1
strokes_ogs.tif
102
RTVSPost2010PropOp54
 70
     1
102
RTVSPost2010Prop55
280
     0
102
RTVSPost2010PropOp55
 70
     1
102
RTVSPost2010Prop56
140
1.0
102
RTVSPost2010PropOp56
 70
     1
102
RTVSPost2010Prop57
140
1.0
102
RTVSPost2010PropOp57
 70
     1
102
RTVSPropertyOp0
 70
     1
102
RTVSPropertyOp1
 70
     1
102
RTVSPropertyOp2
 70
     1
102
RTVSPropertyOp3
 70
     1
102
RTVSPropertyOp4
 70
     1
102
RTVSPropertyOp5
 70
     1
102
RTVSPropertyOp6
 70
     1
102
RTVSPropertyOp7
 70
     1
102
RTVSPropertyOp8
 70
     1
102
RTVSPropertyOp9
 70
     1
102
RTVSPropertyOp10
 70
     1
102
RTVSPropertyOp11
 70
     1
102
RTVSPropertyOp12
 70
     1
102
RTVSPropertyOp13
 70
     1
102
RTVSPropertyOp14
 70
     1
102
RTVSPropertyOp15
 70
     1
102
RTVSPropertyOp16
 70
     1
102
RTVSPropertyOp17
 70
     1
102
RTVSPropertyOp18
 70
     1
102
RTVSPropertyOp19
 70
     1
102
RTVSPropertyOp20
 70
     1
102
RTVSPropertyOp21
 70
     1
102
RTVSPropertyOp22
 70
     1
102
RTVSPropertyOp23
 70
     1
102
RTVSPropertyOp24
 70
     1
102
RTVSPropertyOp25
 70
     1
102
RTVSPropertyOp26
 70
     1
102
RTVSPropertyOp27
 70
     1
102
RTVSPropertyOp28
 70
     1
102
RTVSPropertyOp29
 70
     1
102
RTVSPropertyOp30
 70
     1
102
RTVSPropertyOp31
 70
     1
102
RTVSPropertyOp32
 70
     1
102
RTVSPropertyOp33
 70
     1
102
RTVSPropertyOp34
 70
     1
102
RTVSPropertyOp35
 70
     1
102
RTVSPropertyOp36
 70
     1
102
RTVSPropertyOp37
 70
     1
102
RTVSPropertyOp38
 70
     1
102
RTVSPropertyOp39
 70
     1
102
RTVSPropertyOp40
 70
     1
102
RTVSPropertyOp41
 70
     1
102
RTVSPropertyOp42
 70
     1
102
RTVSPropertyOp43
 70
     1
102
RTVSPropertyOp44
 70
     1
102
RTVSPropertyOp45
 70
     1
102
RTVSPropertyOp46
 70
     1
102
RTVSPropertyOp47
 70
     1
102
RTVSPropertyOp48
 70
     1
102
RTVSPropertyOp49
 70
     1
102
RTVSPropertyOp50
 70
     1
102
RTVSPropertyOp51
 70
     0
102
RTVSPropertyOp52
 70
     0
102
RTVSPropertyOp53
 70
     1
102
RTVSPropertyOp54
 70
     1
102
RTVSPropertyOp55
 70
     1
102
RTVSPropertyOp56
 70
     1
102
RTVSPropertyOp57
 70
     1
102
RTVSPropertyOp58
 70
     1
102
RTVSPropertyOp59
 70
     1
102
RTVSPropertyOp60
 70
     1
102
RTVSPropertyOp61
 70
     1
102
RTVSPropertyOp62
 70
     1
  0
XRECORD
  5
1BD8
102
{ACAD_REACTORS
330
1BD7
102
}
330
1BD7
100
AcDbXrecord
280
     1
102
RTVSPost2010Prop28
280
     0
102
RTVSPost2010PropOp28
 70
     1
102
RTVSPost2010Prop29
280
     1
102
RTVSPost2010PropOp29
 70
     1
102
RTVSPost2010Prop30
280
     1
102
RTVSPost2010PropOp30
 70
     1
102
RTVSPost2010Prop31
280
     0
102
RTVSPost2010PropOp31
 70
     1
102
RTVSPost2010Prop32
280
     0
102
RTVSPost2010PropOp32
 70
     1
102
RTVSPost2010Prop33
280
     0
102
RTVSPost2010PropOp33
 70
     1
102
RTVSPost2010Prop34
280
     0
102
RTVSPost2010PropOp34
 70
     1
102
RTVSPost2010Prop35
280
     0
102
RTVSPost2010PropOp35
 70
     1
102
RTVSPost2010Prop36
280
     0
102
RTVSPost2010PropOp36
 70
     1
102
RTVSPost2010Prop37
 90
       50
102
RTVSPost2010PropOp37
 70
     1
102
RTVSPost2010Prop38
140
0.0
102
RTVSPost2010PropOp38
 70
     1
102
RTVSPost2010Prop39
140
1.0
102
RTVSPost2010PropOp39
 70
     1
102
RTVSPost2010Prop40
 90
        0
102
RTVSPost2010PropOp40
 70
     1
102
RTVSPost2010Prop41ColorIndex
 90
       18
102
RTVSPost2010Prop41ColorRGB
 90
        0
102
RTVSPost2010PropOp41
 70
     1
102
RTVSPost2010Prop42
 90
       50
102
RTVSPost2010PropOp42
 70
     1
102
RTVSPost2010Prop43
 90
        3
102
RTVSPost2010PropOp43
 70
     1
102
RTVSPost2010Prop44ColorIndex
 90
        5
102
RTVSPost2010Prop44ColorRGB
 90
      255
102
RTVSPost2010PropOp44
 70
     1
102
RTVSPost2010Prop45
280
     0
102
RTVSPost2010PropOp45
 70
     1
102
RTVSPost2010Prop46
 90
       50
102
RTVSPost2010PropOp46
 70
     1
102
RTVSPost2010Prop47
 90
       50
102
RTVSPost2010PropOp47
 70
     1
102
RTVSPost2010Prop48
 90
       50
102
RTVSPost2010PropOp48
 70
     1
102
RTVSPost2010Prop49
280
     0
102
RTVSPost2010PropOp49
 70
     1
102
RTVSPost2010Prop50
 90
       50
102
RTVSPost2010PropOp50
 70
     1
102
RTVSPost2010Prop51ColorIndex
 90
      256
102
RTVSPost2010Prop51ColorRGB
 90
-16777216
102
RTVSPost2010PropOp51
 70
     0
102
RTVSPost2010Prop52
140
1.0
102
RTVSPost2010PropOp52
 70
     0
102
RTVSPost2010Prop53
 90
        2
102
RTVSPost2010PropOp53
 70
     1
102
RTVSPost2010Prop54
  1
strokes_ogs.tif
102
RTVSPost2010PropOp54
 70
     1
102
RTVSPost2010Prop55
280
     0
102
RTVSPost2010PropOp55
 70
     1
102
RTVSPost2010Prop56
140
1.0
102
RTVSPost2010PropOp56
 70
     1
102
RTVSPost2010Prop57
140
1.0
102
RTVSPost2010PropOp57
 70
     1
102
RTVSPropertyOp0
 70
     1
102
RTVSPropertyOp1
 70
     1
102
RTVSPropertyOp2
 70
     1
102
RTVSPropertyOp3
 70
     1
102
RTVSPropertyOp4
 70
     1
102
RTVSPropertyOp5
 70
     1
102
RTVSPropertyOp6
 70
     1
102
RTVSPropertyOp7
 70
     1
102
RTVSPropertyOp8
 70
     1
102
RTVSPropertyOp9
 70
     1
102
RTVSPropertyOp10
 70
     1
102
RTVSPropertyOp11
 70
     1
102
RTVSPropertyOp12
 70
     1
102
RTVSPropertyOp13
 70
     1
102
RTVSPropertyOp14
 70
     1
102
RTVSPropertyOp15
 70
     1
102
RTVSPropertyOp16
 70
     1
102
RTVSPropertyOp17
 70
     1
102
RTVSPropertyOp18
 70
     1
102
RTVSPropertyOp19
 70
     1
102
RTVSPropertyOp20
 70
     1
102
RTVSPropertyOp21
 70
     1
102
RTVSPropertyOp22
 70
     1
102
RTVSPropertyOp23
 70
     1
102
RTVSPropertyOp24
 70
     1
102
RTVSPropertyOp25
 70
     1
102
RTVSPropertyOp26
 70
     1
102
RTVSPropertyOp27
 70
     1
102
RTVSPropertyOp28
 70
     1
102
RTVSPropertyOp29
 70
     1
102
RTVSPropertyOp30
 70
     1
102
RTVSPropertyOp31
 70
     1
102
RTVSPropertyOp32
 70
     1
102
RTVSPropertyOp33
 70
     1
102
RTVSPropertyOp34
 70
     1
102
RTVSPropertyOp35
 70
     1
102
RTVSPropertyOp36
 70
     1
102
RTVSPropertyOp37
 70
     1
102
RTVSPropertyOp38
 70
     1
102
RTVSPropertyOp39
 70
     1
102
RTVSPropertyOp40
 70
     1
102
RTVSPropertyOp41
 70
     1
102
RTVSPropertyOp42
 70
     1
102
RTVSPropertyOp43
 70
     1
102
RTVSPropertyOp44
 70
     1
102
RTVSPropertyOp45
 70
     1
102
RTVSPropertyOp46
 70
     1
102
RTVSPropertyOp47
 70
     1
102
RTVSPropertyOp48
 70
     1
102
RTVSPropertyOp49
 70
     1
102
RTVSPropertyOp50
 70
     1
102
RTVSPropertyOp51
 70
     0
102
RTVSPropertyOp52
 70
     0
102
RTVSPropertyOp53
 70
     1
102
RTVSPropertyOp54
 70
     1
102
RTVSPropertyOp55
 70
     1
102
RTVSPropertyOp56
 70
     1
102
RTVSPropertyOp57
 70
     1
102
RTVSPropertyOp58
 70
     1
102
RTVSPropertyOp59
 70
     1
102
RTVSPropertyOp60
 70
     1
102
RTVSPropertyOp61
 70
     1
102
RTVSPropertyOp62
 70
     1
  0
XRECORD
  5
1BCC
102
{ACAD_REACTORS
330
1BCB
102
}
330
1BCB
100
AcDbXrecord
280
     1
102
RTVSPost2010Prop28
280
     0
102
RTVSPost2010PropOp28
 70
     1
102
RTVSPost2010Prop29
280
     1
102
RTVSPost2010PropOp29
 70
     1
102
RTVSPost2010Prop30
280
     1
102
RTVSPost2010PropOp30
 70
     1
102
RTVSPost2010Prop31
280
     0
102
RTVSPost2010PropOp31
 70
     1
102
RTVSPost2010Prop32
280
     0
102
RTVSPost2010PropOp32
 70
     1
102
RTVSPost2010Prop33
280
     0
102
RTVSPost2010PropOp33
 70
     1
102
RTVSPost2010Prop34
280
     0
102
RTVSPost2010PropOp34
 70
     1
102
RTVSPost2010Prop35
280
     0
102
RTVSPost2010PropOp35
 70
     1
102
RTVSPost2010Prop36
280
     0
102
RTVSPost2010PropOp36
 70
     1
102
RTVSPost2010Prop37
 90
       50
102
RTVSPost2010PropOp37
 70
     1
102
RTVSPost2010Prop38
140
0.0
102
RTVSPost2010PropOp38
 70
     1
102
RTVSPost2010Prop39
140
1.0
102
RTVSPost2010PropOp39
 70
     1
102
RTVSPost2010Prop40
 90
        0
102
RTVSPost2010PropOp40
 70
     1
102
RTVSPost2010Prop41ColorIndex
 90
       18
102
RTVSPost2010Prop41ColorRGB
 90
        0
102
RTVSPost2010PropOp41
 70
     1
102
RTVSPost2010Prop42
 90
       50
102
RTVSPost2010PropOp42
 70
     1
102
RTVSPost2010Prop43
 90
        3
102
RTVSPost2010PropOp43
 70
     1
102
RTVSPost2010Prop44ColorIndex
 90
        5
102
RTVSPost2010Prop44ColorRGB
 90
      255
102
RTVSPost2010PropOp44
 70
     1
102
RTVSPost2010Prop45
280
     0
102
RTVSPost2010PropOp45
 70
     1
102
RTVSPost2010Prop46
 90
       50
102
RTVSPost2010PropOp46
 70
     1
102
RTVSPost2010Prop47
 90
       50
102
RTVSPost2010PropOp47
 70
     1
102
RTVSPost2010Prop48
 90
       50
102
RTVSPost2010PropOp48
 70
     1
102
RTVSPost2010Prop49
280
     0
102
RTVSPost2010PropOp49
 70
     1
102
RTVSPost2010Prop50
 90
       50
102
RTVSPost2010PropOp50
 70
     1
102
RTVSPost2010Prop51ColorIndex
 90
      256
102
RTVSPost2010Prop51ColorRGB
 90
-16777216
102
RTVSPost2010PropOp51
 70
     0
102
RTVSPost2010Prop52
140
1.0
102
RTVSPost2010PropOp52
 70
     0
102
RTVSPost2010Prop53
 90
        2
102
RTVSPost2010PropOp53
 70
     1
102
RTVSPost2010Prop54
  1
strokes_ogs.tif
102
RTVSPost2010PropOp54
 70
     1
102
RTVSPost2010Prop55
280
     0
102
RTVSPost2010PropOp55
 70
     1
102
RTVSPost2010Prop56
140
1.0
102
RTVSPost2010PropOp56
 70
     1
102
RTVSPost2010Prop57
140
1.0
102
RTVSPost2010PropOp57
 70
     1
102
RTVSPropertyOp0
 70
     1
102
RTVSPropertyOp1
 70
     1
102
RTVSPropertyOp2
 70
     1
102
RTVSPropertyOp3
 70
     1
102
RTVSPropertyOp4
 70
     1
102
RTVSPropertyOp5
 70
     1
102
RTVSPropertyOp6
 70
     1
102
RTVSPropertyOp7
 70
     1
102
RTVSPropertyOp8
 70
     1
102
RTVSPropertyOp9
 70
     1
102
RTVSPropertyOp10
 70
     1
102
RTVSPropertyOp11
 70
     1
102
RTVSPropertyOp12
 70
     1
102
RTVSPropertyOp13
 70
     1
102
RTVSPropertyOp14
 70
     1
102
RTVSPropertyOp15
 70
     1
102
RTVSPropertyOp16
 70
     1
102
RTVSPropertyOp17
 70
     1
102
RTVSPropertyOp18
 70
     1
102
RTVSPropertyOp19
 70
     1
102
RTVSPropertyOp20
 70
     1
102
RTVSPropertyOp21
 70
     1
102
RTVSPropertyOp22
 70
     1
102
RTVSPropertyOp23
 70
     1
102
RTVSPropertyOp24
 70
     1
102
RTVSPropertyOp25
 70
     1
102
RTVSPropertyOp26
 70
     1
102
RTVSPropertyOp27
 70
     1
102
RTVSPropertyOp28
 70
     1
102
RTVSPropertyOp29
 70
     1
102
RTVSPropertyOp30
 70
     1
102
RTVSPropertyOp31
 70
     1
102
RTVSPropertyOp32
 70
     1
102
RTVSPropertyOp33
 70
     1
102
RTVSPropertyOp34
 70
     1
102
RTVSPropertyOp35
 70
     1
102
RTVSPropertyOp36
 70
     1
102
RTVSPropertyOp37
 70
     1
102
RTVSPropertyOp38
 70
     1
102
RTVSPropertyOp39
 70
     1
102
RTVSPropertyOp40
 70
     1
102
RTVSPropertyOp41
 70
     1
102
RTVSPropertyOp42
 70
     1
102
RTVSPropertyOp43
 70
     1
102
RTVSPropertyOp44
 70
     1
102
RTVSPropertyOp45
 70
     1
102
RTVSPropertyOp46
 70
     1
102
RTVSPropertyOp47
 70
     1
102
RTVSPropertyOp48
 70
     1
102
RTVSPropertyOp49
 70
     1
102
RTVSPropertyOp50
 70
     1
102
RTVSPropertyOp51
 70
     0
102
RTVSPropertyOp52
 70
     0
102
RTVSPropertyOp53
 70
     1
102
RTVSPropertyOp54
 70
     1
102
RTVSPropertyOp55
 70
     1
102
RTVSPropertyOp56
 70
     1
102
RTVSPropertyOp57
 70
     1
102
RTVSPropertyOp58
 70
     1
102
RTVSPropertyOp59
 70
     1
102
RTVSPropertyOp60
 70
     1
102
RTVSPropertyOp61
 70
     1
102
RTVSPropertyOp62
 70
     1
  0
XRECORD
  5
1BEA
102
{ACAD_REACTORS
330
1BE9
102
}
330
1BE9
100
AcDbXrecord
280
     1
102
RTVSPost2010Prop28
280
     0
102
RTVSPost2010PropOp28
 70
     1
102
RTVSPost2010Prop29
280
     1
102
RTVSPost2010PropOp29
 70
     1
102
RTVSPost2010Prop30
280
     1
102
RTVSPost2010PropOp30
 70
     1
102
RTVSPost2010Prop31
280
     0
102
RTVSPost2010PropOp31
 70
     1
102
RTVSPost2010Prop32
280
     0
102
RTVSPost2010PropOp32
 70
     1
102
RTVSPost2010Prop33
280
     0
102
RTVSPost2010PropOp33
 70
     1
102
RTVSPost2010Prop34
280
     0
102
RTVSPost2010PropOp34
 70
     1
102
RTVSPost2010Prop35
280
     0
102
RTVSPost2010PropOp35
 70
     1
102
RTVSPost2010Prop36
280
     0
102
RTVSPost2010PropOp36
 70
     1
102
RTVSPost2010Prop37
 90
       50
102
RTVSPost2010PropOp37
 70
     1
102
RTVSPost2010Prop38
140
0.0
102
RTVSPost2010PropOp38
 70
     1
102
RTVSPost2010Prop39
140
1.0
102
RTVSPost2010PropOp39
 70
     1
102
RTVSPost2010Prop40
 90
        0
102
RTVSPost2010PropOp40
 70
     1
102
RTVSPost2010Prop41ColorIndex
 90
       18
102
RTVSPost2010Prop41ColorRGB
 90
        0
102
RTVSPost2010PropOp41
 70
     1
102
RTVSPost2010Prop42
 90
       50
102
RTVSPost2010PropOp42
 70
     1
102
RTVSPost2010Prop43
 90
        3
102
RTVSPost2010PropOp43
 70
     1
102
RTVSPost2010Prop44ColorIndex
 90
        5
102
RTVSPost2010Prop44ColorRGB
 90
      255
102
RTVSPost2010PropOp44
 70
     1
102
RTVSPost2010Prop45
280
     0
102
RTVSPost2010PropOp45
 70
     1
102
RTVSPost2010Prop46
 90
       50
102
RTVSPost2010PropOp46
 70
     1
102
RTVSPost2010Prop47
 90
       50
102
RTVSPost2010PropOp47
 70
     1
102
RTVSPost2010Prop48
 90
       50
102
RTVSPost2010PropOp48
 70
     1
102
RTVSPost2010Prop49
280
     0
102
RTVSPost2010PropOp49
 70
     1
102
RTVSPost2010Prop50
 90
       50
102
RTVSPost2010PropOp50
 70
     1
102
RTVSPost2010Prop51ColorIndex
 90
      256
102
RTVSPost2010Prop51ColorRGB
 90
-16777216
102
RTVSPost2010PropOp51
 70
     0
102
RTVSPost2010Prop52
140
1.0
102
RTVSPost2010PropOp52
 70
     0
102
RTVSPost2010Prop53
 90
        2
102
RTVSPost2010PropOp53
 70
     1
102
RTVSPost2010Prop54
  1
strokes_ogs.tif
102
RTVSPost2010PropOp54
 70
     1
102
RTVSPost2010Prop55
280
     0
102
RTVSPost2010PropOp55
 70
     1
102
RTVSPost2010Prop56
140
1.0
102
RTVSPost2010PropOp56
 70
     1
102
RTVSPost2010Prop57
140
1.0
102
RTVSPost2010PropOp57
 70
     1
102
RTVSPropertyOp0
 70
     1
102
RTVSPropertyOp1
 70
     1
102
RTVSPropertyOp2
 70
     1
102
RTVSPropertyOp3
 70
     1
102
RTVSPropertyOp4
 70
     1
102
RTVSPropertyOp5
 70
     1
102
RTVSPropertyOp6
 70
     1
102
RTVSPropertyOp7
 70
     1
102
RTVSPropertyOp8
 70
     1
102
RTVSPropertyOp9
 70
     1
102
RTVSPropertyOp10
 70
     1
102
RTVSPropertyOp11
 70
     1
102
RTVSPropertyOp12
 70
     1
102
RTVSPropertyOp13
 70
     1
102
RTVSPropertyOp14
 70
     1
102
RTVSPropertyOp15
 70
     1
102
RTVSPropertyOp16
 70
     1
102
RTVSPropertyOp17
 70
     1
102
RTVSPropertyOp18
 70
     1
102
RTVSPropertyOp19
 70
     1
102
RTVSPropertyOp20
 70
     1
102
RTVSPropertyOp21
 70
     1
102
RTVSPropertyOp22
 70
     1
102
RTVSPropertyOp23
 70
     1
102
RTVSPropertyOp24
 70
     1
102
RTVSPropertyOp25
 70
     1
102
RTVSPropertyOp26
 70
     1
102
RTVSPropertyOp27
 70
     1
102
RTVSPropertyOp28
 70
     1
102
RTVSPropertyOp29
 70
     1
102
RTVSPropertyOp30
 70
     1
102
RTVSPropertyOp31
 70
     1
102
RTVSPropertyOp32
 70
     1
102
RTVSPropertyOp33
 70
     1
102
RTVSPropertyOp34
 70
     1
102
RTVSPropertyOp35
 70
     1
102
RTVSPropertyOp36
 70
     1
102
RTVSPropertyOp37
 70
     1
102
RTVSPropertyOp38
 70
     1
102
RTVSPropertyOp39
 70
     1
102
RTVSPropertyOp40
 70
     1
102
RTVSPropertyOp41
 70
     1
102
RTVSPropertyOp42
 70
     1
102
RTVSPropertyOp43
 70
     1
102
RTVSPropertyOp44
 70
     1
102
RTVSPropertyOp45
 70
     1
102
RTVSPropertyOp46
 70
     1
102
RTVSPropertyOp47
 70
     1
102
RTVSPropertyOp48
 70
     1
102
RTVSPropertyOp49
 70
     1
102
RTVSPropertyOp50
 70
     1
102
RTVSPropertyOp51
 70
     0
102
RTVSPropertyOp52
 70
     0
102
RTVSPropertyOp53
 70
     1
102
RTVSPropertyOp54
 70
     1
102
RTVSPropertyOp55
 70
     1
102
RTVSPropertyOp56
 70
     1
102
RTVSPropertyOp57
 70
     1
102
RTVSPropertyOp58
 70
     1
102
RTVSPropertyOp59
 70
     1
102
RTVSPropertyOp60
 70
     1
102
RTVSPropertyOp61
 70
     1
102
RTVSPropertyOp62
 70
     1
  0
ENDSEC
  0
EOF
